  0
SECTION
  2
HEADER
  9
$ACADVER
  1
AC1009
  9
$DWGCODEPAGE
  3
dos932
  9
$INSBASE
 10
0.0
 20
0.0
 30
0.0
  9
$EXTMIN
 10
-673.43443173849482
 20
-555.95396791579515
 30
-0.0000000349181948
  9
$EXTMAX
 10
1367.7154660663959
 20
706.87867026645472
 30
0.0000000814935746
  9
$LIMMIN
 10
-2970.0
 20
-2100.0
  9
$LIMMAX
 10
2970.0
 20
2100.0
  9
$ORTHOMODE
 70
     1
  9
$REGENMODE
 70
     1
  9
$FILLMODE
 70
     1
  9
$QTEXTMODE
 70
     0
  9
$MIRRTEXT
 70
     0
  9
$LTSCALE
 40
20.0
  9
$ATTMODE
 70
     1
  9
$TEXTSIZE
 40
64.0
  9
$TRACEWID
 40
0.05
  9
$TEXTSTYLE
  7
STANDARD
  9
$CLAYER
  8
SIZE
  9
$CELTYPE
  6
CONTINUOUS
  9
$CECOLOR
 62
     7
  9
$DIMSCALE
 40
1.0
  9
$DIMASZ
 40
12.0
  9
$DIMEXO
 40
20.0
  9
$DIMDLI
 40
200.0
  9
$DIMRND
 40
0.0
  9
$DIMDLE
 40
0.0
  9
$DIMEXE
 40
20.0
  9
$DIMTP
 40
0.0
  9
$DIMTM
 40
0.0
  9
$DIMTXT
 40
64.0
  9
$DIMCEN
 40
0.09
  9
$DIMTSZ
 40
0.0
  9
$DIMTOL
 70
     0
  9
$DIMLIM
 70
     0
  9
$DIMTIH
 70
     0
  9
$DIMTOH
 70
     0
  9
$DIMSE1
 70
     0
  9
$DIMSE2
 70
     0
  9
$DIMTAD
 70
     1
  9
$DIMZIN
 70
     8
  9
$DIMBLK
  1

  9
$DIMASO
 70
     1
  9
$DIMSHO
 70
     0
  9
$DIMPOST
  1

  9
$DIMAPOST
  1

  9
$DIMALT
 70
     0
  9
$DIMALTD
 70
     2
  9
$DIMALTF
 40
25.399999999999999
  9
$DIMLFAC
 40
1.0
  9
$DIMTOFL
 70
     1
  9
$DIMTVP
 40
0.0
  9
$DIMTIX
 70
     1
  9
$DIMSOXD
 70
     0
  9
$DIMSAH
 70
     0
  9
$DIMBLK1
  1

  9
$DIMBLK2
  1

  9
$DIMSTYLE
  2
STANDARD
  9
$DIMCLRD
 70
     7
  9
$DIMCLRE
 70
     7
  9
$DIMCLRT
 70
     7
  9
$DIMTFAC
 40
1.0
  9
$DIMGAP
 40
25.0
  9
$LUNITS
 70
     2
  9
$LUPREC
 70
     4
  9
$SKETCHINC
 40
0.1
  9
$FILLETRAD
 40
3.0
  9
$AUNITS
 70
     1
  9
$AUPREC
 70
     3
  9
$MENU
  1
ACAD
  9
$ELEVATION
 40
0.0
  9
$PELEVATION
 40
0.0
  9
$THICKNESS
 40
0.0
  9
$LIMCHECK
 70
     0
  9
$CHAMFERA
 40
0.0
  9
$CHAMFERB
 40
0.0
  9
$SKPOLY
 70
     0
  9
$TDCREATE
 40
2453019.62301037
  9
$TDUPDATE
 40
2459025.480580243
  9
$TDINDWG
 40
1.7140784838
  9
$TDUSRTIMER
 40
1.7140784838
  9
$USRTIMER
 70
     1
  9
$ANGBASE
 50
0.0
  9
$ANGDIR
 70
     0
  9
$PDMODE
 70
     3
  9
$PDSIZE
 40
-2.0
  9
$PLINEWID
 40
0.0
  9
$SPLFRAME
 70
     0
  9
$SPLINETYPE
 70
     6
  9
$SPLINESEGS
 70
     8
  9
$SURFTAB1
 70
     6
  9
$SURFTAB2
 70
     6
  9
$SURFTYPE
 70
     6
  9
$SURFU
 70
     6
  9
$SURFV
 70
     6
  9
$UCSNAME
  2

  9
$UCSORG
 10
0.0
 20
0.0
 30
0.0
  9
$UCSXDIR
 10
1.0
 20
0.0
 30
0.0
  9
$UCSYDIR
 10
0.0
 20
1.0
 30
0.0
  9
$PUCSNAME
  2

  9
$PUCSORG
 10
0.0
 20
0.0
 30
0.0
  9
$PUCSXDIR
 10
1.0
 20
0.0
 30
0.0
  9
$PUCSYDIR
 10
0.0
 20
1.0
 30
0.0
  9
$USERI1
 70
     0
  9
$USERI2
 70
     0
  9
$USERI3
 70
     0
  9
$USERI4
 70
     0
  9
$USERI5
 70
     0
  9
$USERR1
 40
20.0
  9
$USERR2
 40
0.0
  9
$USERR3
 40
0.0
  9
$USERR4
 40
0.0
  9
$USERR5
 40
0.0
  9
$WORLDVIEW
 70
     1
  9
$SHADEDGE
 70
     3
  9
$SHADEDIF
 70
    70
  9
$TILEMODE
 70
     1
  9
$MAXACTVP
 70
    48
  9
$PINSBASE
 10
0.0
 20
0.0
 30
0.0
  9
$PLIMCHECK
 70
     0
  9
$PEXTMIN
 10
-100000000000000000000.0
 20
-100000000000000000000.0
 30
-100000000000000000000.0
  9
$PEXTMAX
 10
100000000000000000000.0
 20
100000000000000000000.0
 30
100000000000000000000.0
  9
$PLIMMIN
 10
0.0
 20
0.0
  9
$PLIMMAX
 10
12.0
 20
9.0
  9
$UNITMODE
 70
     0
  9
$VISRETAIN
 70
     0
  9
$PLINEGEN
 70
     0
  9
$PSLTSCALE
 70
     0
  9
$TREEDEPTH
 70
  3020
  9
$ATTDIA
 70
     0
  9
$ATTREQ
 70
     1
  9
$BLIPMODE
 70
     1
  9
$COORDS
 70
     1
  9
$DRAGMODE
 70
     2
  9
$OSMODE
 70
     0
  9
$HANDLING
 70
     0
  9
$HANDSEED
  5
F5D1
  0
ENDSEC
  0
SECTION
  2
TABLES
  0
TABLE
  2
LTYPE
 70
     3
  0
LTYPE
  2
CONTINUOUS
 70
     0
  3
実線
 72
    65
 73
     0
 40
0.0
  0
LTYPE
  2
DASHDOT
 70
     0
  3
____ _ ____ _ ____ _ ____ _ ____ _ ____ _ ____
 72
    65
 73
     4
 40
5.5
 49
4.0
 49
-0.6
 49
0.3
 49
-0.6
  0
LTYPE
  2
DASHED
 70
     0
  3
-- -- -- -- -- -- -- -- -- -- -- -- -- -- --
 72
    65
 73
     2
 40
0.75
 49
0.5
 49
-0.25
  0
ENDTAB
  0
TABLE
  2
LAYER
 70
    12
  0
LAYER
  2
0
 70
     0
 62
     7
  6
CONTINUOUS
  0
LAYER
  2
BASIS
 70
     0
 62
     6
  6
DASHDOT
  0
LAYER
  2
OUTLINE
 70
     0
 62
     3
  6
CONTINUOUS
  0
LAYER
  2
DETAIL
 70
     0
 62
     5
  6
CONTINUOUS
  0
LAYER
  2
SIZE
 70
     0
 62
    30
  6
CONTINUOUS
  0
LAYER
  2
ARRANGE
 70
     0
 62
     1
  6
CONTINUOUS
  0
LAYER
  2
DEFPOINTS
 70
     0
 62
     7
  6
CONTINUOUS
  0
LAYER
  2
ETC
 70
     0
 62
    61
  6
CONTINUOUS
  0
LAYER
  2
FIX
 70
     0
 62
    11
  6
CONTINUOUS
  0
LAYER
  2
NOTE
 70
     0
 62
     4
  6
CONTINUOUS
  0
LAYER
  2
SERVICESPACE
 70
    64
 62
     2
  6
DASHDOT
  0
LAYER
  2
SYMBOLLINE
 70
    64
 62
    15
  6
CONTINUOUS
  0
ENDTAB
  0
TABLE
  2
STYLE
 70
     1
  0
STYLE
  2
STANDARD
 70
     0
 40
64.0
 41
0.9
 50
0.0
 71
     0
 42
64.0
  3
SIMPLEX.shx
  4
BIGFONT.shx
  0
ENDTAB
  0
TABLE
  2
APPID
 70
    19
  0
APPID
  2
ACAD
 70
     0
  0
APPID
  2
AUTOCAD_POSTSCRIPT_FIGURE
 70
     0
  0
APPID
  2
ACAD_EXEMPT_FROM_CAD_STANDARDS
 70
     0
  0
APPID
  2
ACAD_PSEXT
 70
     0
  0
APPID
  2
ACAUTHENVIRON
 70
     0
  0
APPID
  2
GENIUS_GENOENT_13
 70
     0
  0
APPID
  2
GENIUS_GENCFG_13
 70
     0
  0
APPID
  2
GENIUS_GENCFG0_13
 70
     0
  0
APPID
  2
GENIUS_GENCFG1_13
 70
     0
  0
APPID
  2
GENIUS_GENCFG2_13
 70
     0
  0
APPID
  2
GENIUS_GENCFG3_13
 70
     0
  0
APPID
  2
GENIUS_GENCFG4_13
 70
     0
  0
APPID
  2
GENIUS_GEVCFG0_13
 70
     0
  0
APPID
  2
CONTENTBLOCKICON
 70
     0
  0
APPID
  2
CONTENTBLOCKDESCRIPTION
 70
     0
  0
APPID
  2
ACAD_NAV_VCDISPLAY
 70
     0
  0
APPID
  2
ACAD_MLEADERVER
 70
     0
  0
APPID
  2
ACDBDYNAMICBLOCKTRUENAME
 70
     0
  0
APPID
  2
ACDBDYNAMICBLOCKGUID
 70
     0
  0
ENDTAB
  0
TABLE
  2
DIMSTYLE
 70
     1
  0
DIMSTYLE
  2
STANDARD
 70
     0
  3

  4

  5
_ORIGIN
  6

  7

 40
1.0
 41
12.0
 42
20.0
 43
200.0
 44
20.0
 45
0.0
 46
0.0
 47
0.0
 48
0.0
140
64.0
141
0.09
142
0.0
143
25.399999999999999
144
1.0
145
0.0
146
1.0
147
25.0
 71
     0
 72
     0
 73
     0
 74
     0
 75
     0
 76
     0
 77
     1
 78
     8
170
     0
171
     2
172
     1
173
     0
174
     1
175
     0
176
     7
177
     7
178
     7
  0
ENDTAB
  0
TABLE
  2
VIEW
 70
     1
  0
VIEW
  2
ALL
 70
     0
 40
4282.6198079999986
 10
0.0
 20
41.309904000000003
 41
5940.0
 11
0.0
 21
0.0
 31
1.0
 12
0.0
 22
0.0
 32
0.0
 42
50.0
 43
0.0
 44
0.0
 50
0.0
 71
     0
  0
ENDTAB
  0
TABLE
  2
UCS
 70
     0
  0
ENDTAB
  0
TABLE
  2
VPORT
 70
     1
  0
VPORT
  2
*ACTIVE
 70
     0
 10
0.0
 20
0.0
 11
1.0
 21
1.0
 12
347.14051716395079
 22
75.462351175329786
 13
0.0
 23
0.0
 14
1.0
 24
1.0
 15
0.0
 25
0.0
 16
0.0
 26
0.0
 36
1.0
 17
0.0
 27
0.0
 37
0.0
 40
1271.2050092641209
 41
1.747787610619469
 42
50.0
 43
0.0
 44
0.0
 50
0.0
 51
0.0
 71
     0
 72
  1000
 73
     1
 74
     3
 75
     0
 76
     0
 77
     0
 78
     0
  0
ENDTAB
  0
ENDSEC
  0
SECTION
  2
BLOCKS
  0
BLOCK
  8
0
  2
_ORIGIN
 70
     0
 10
0.0
 20
0.0
 30
0.0
  3
_ORIGIN
  1
_ORIGIN
  0
CIRCLE
  8
0
  6
CONTINUOUS
 62
     7
 10
0.0
 20
0.0
 30
0.0
 40
0.5
  0
LINE
  8
0
  6
CONTINUOUS
 62
     7
 10
0.0
 20
0.0
 30
0.0
 11
-1.0
 21
0.0
 31
0.0
  0
ENDBLK
  8
0
  0
ENDSEC
  0
SECTION
  2
ENTITIES
  0
TEXT
  8
ETC
  6
CONTINUOUS
 62
    61
 10
616.15606399999979
 20
642.816867
 30
0.0
 40
64.0
  1
VD-08ZCC7-C_5
 41
0.9
  0
TEXT
  8
ETC
  6
CONTINUOUS
 62
    61
 10
611.97006999999985
 20
524.86155699999995
 30
0.0
 40
64.0
  1
換気扇
 41
0.9
  0
TEXT
  8
ETC
  6
CONTINUOUS
 62
    61
 10
662.57757300000003
 20
417.94062200000008
 30
0.0
 40
40.0
  1
VD-08ZCC7-C
 41
0.9
  0
CIRCLE
  8
ARRANGE
  6
CONTINUOUS
 62
     1
 10
0.0
 20
0.0
 30
0.0
 40
40.0
  0
POINT
  8
ARRANGE
  6
CONTINUOUS
 62
     1
 10
0.0
 20
0.0
 30
0.0
  0
LINE
  8
OUTLINE
  6
CONTINUOUS
 62
     3
 10
-90.0
 20
-17.0
 30
0.0
 11
90.0
 21
-17.0
 31
0.0
  0
LINE
  8
OUTLINE
  6
CONTINUOUS
 62
     3
 10
33.5
 20
149.0
 30
0.0
 11
72.0
 21
149.0
 31
0.0
  0
LINE
  8
OUTLINE
  6
CONTINUOUS
 62
     3
 10
-26.5
 20
179.0
 30
0.0
 11
30.5
 21
179.0
 31
0.0
  0
LINE
  8
OUTLINE
  6
CONTINUOUS
 62
     3
 10
-57.5
 20
120.0
 30
0.0
 11
-70.049582999999984
 21
120.0
 31
0.0
  0
LINE
  8
OUTLINE
  6
CONTINUOUS
 62
     3
 10
-57.5
 20
120.0
 30
0.0
 11
-69.99185099999977
 21
120.0
 31
0.0
  0
LINE
  8
OUTLINE
  6
CONTINUOUS
 62
     3
 10
33.5
 20
149.0
 30
0.0
 11
72.0
 21
149.0
 31
0.0
  0
LINE
  8
OUTLINE
  6
CONTINUOUS
 62
     3
 10
100.0
 20
0.0
 30
0.0
 11
75.0
 21
0.0
 31
0.0
  0
LINE
  8
SIZE
  6
CONTINUOUS
 62
    30
 10
60.0
 20
564.88039800000001
 30
0.0
 11
-61.0
 21
564.88039800000001
 31
0.0
  0
TEXT
  8
SIZE
  6
CONTINUOUS
 62
    30
 10
129.5946731428572
 20
-510.79696200000001
 30
0.0
 40
64.0
  1
□200
 41
0.9
 72
     1
 11
240.1318160000001
 21
-510.79696200000001
 31
0.0
  0
LINE
  8
SIZE
  6
CONTINUOUS
 62
    30
 10
-88.0
 20
-535.79696200000001
 30
0.0
 11
376.01199300000007
 21
-535.79696200000001
 31
0.0
  0
TEXT
  8
SIZE
  6
CONTINUOUS
 62
    30
 10
-68.571428571428569
 20
-374.07821799999999
 30
0.0
 40
64.0
  1
150
 41
0.9
 72
     1
 11
0.0
 21
-374.07821799999999
 31
0.0
  0
LINE
  8
SIZE
  6
CONTINUOUS
 62
    30
 10
63.0
 20
-399.07821799999999
 30
0.0
 11
-63.0
 21
-399.07821799999999
 31
0.0
  0
CIRCLE
  8
SIZE
  6
CONTINUOUS
 62
    30
 10
0.0
 20
-253.15446800000001
 30
0.0
 40
6.0
  0
CIRCLE
  8
FIX
  6
CONTINUOUS
 62
    11
 10
0.0
 20
0.0
 30
0.0
 40
2.5
  0
LINE
  8
BASIS
  6
DASHDOT
 62
     6
 10
0.0
 20
184.2986579999999
 30
0.0
 11
0.0
 21
-32.474236000000019
 31
0.0
  0
LINE
  8
NOTE
  6
CONTINUOUS
 62
     4
 10
89.0
 20
-20.0
 30
0.0
 11
89.0
 21
20.0
 31
0.0
  0
CIRCLE
  8
FIX
  6
CONTINUOUS
 62
    11
 10
89.0
 20
0.0
 30
0.0
 40
2.5
  0
LINE
  8
OUTLINE
  6
CONTINUOUS
 62
     3
 10
83.0
 20
0.0
 30
0.0
 11
83.0
 21
27.0
 31
0.0
  0
TEXT
  8
SIZE
  6
CONTINUOUS
 62
    30
 10
634.40471699999989
 20
-145.21278342857141
 30
0.0
 40
64.0
  1
φ98
 50
90.0
 41
0.9
 72
     1
 11
634.40471699999989
 21
-58.264211999999993
 31
0.0
  0
LINE
  8
SIZE
  6
CONTINUOUS
 62
    30
 10
654.40471699999989
 20
53.0
 30
0.0
 11
654.40471699999989
 21
-169.528424
 31
0.0
  0
LINE
  8
SIZE
  6
CONTINUOUS
 62
    30
 10
528.31482899999992
 20
0.0
 30
0.0
 11
528.31482899999992
 21
12.0
 31
0.0
  0
CIRCLE
  8
SIZE
  6
CONTINUOUS
 62
    30
 10
528.31482899999992
 20
0.0
 30
0.0
 40
6.0
  0
LINE
  8
NOTE
  6
CONTINUOUS
 62
     4
 10
0.0
 20
-20.0
 30
0.0
 11
0.0
 21
20.0
 31
0.0
  0
LINE
  8
SIZE
  6
CONTINUOUS
 62
    30
 10
120.0
 20
0.0
 30
0.0
 11
548.31482899999992
 21
0.0
 31
0.0
  0
TEXT
  8
SIZE
  6
CONTINUOUS
 62
    30
 10
508.31482899999992
 20
-181.54212057142851
 30
0.0
 40
64.0
  1
102
 50
90.0
 41
0.9
 72
     1
 11
508.31482899999992
 21
-112.970692
 31
0.0
  0
LINE
  8
SIZE
  6
CONTINUOUS
 62
    30
 10
528.31482899999992
 20
0.0
 30
0.0
 11
528.31482899999992
 21
-206.54212000000001
 31
0.0
  0
LINE
  8
SIZE
  6
CONTINUOUS
 62
    30
 10
100.0
 20
-27.0
 30
0.0
 11
100.0
 21
-555.79696200000001
 31
0.0
  0
LINE
  8
SIZE
  6
CONTINUOUS
 62
    30
 10
75.0
 20
-20.0
 30
0.0
 11
75.0
 21
-419.07821799999999
 31
0.0
  0
LINE
  8
SIZE
  6
CONTINUOUS
 62
    30
 10
100.0
 20
-535.79696200000001
 30
0.0
 11
88.0
 21
-535.79696200000001
 31
0.0
  0
CIRCLE
  8
SIZE
  6
CONTINUOUS
 62
    30
 10
100.0
 20
-535.79696200000001
 30
0.0
 40
6.0
  0
LINE
  8
SIZE
  6
CONTINUOUS
 62
    30
 10
75.0
 20
-399.07821799999999
 30
0.0
 11
63.0
 21
-399.07821799999999
 31
0.0
  0
CIRCLE
  8
SIZE
  6
CONTINUOUS
 62
    30
 10
75.0
 20
-399.07821799999999
 30
0.0
 40
6.0
  0
LINE
  8
SIZE
  6
CONTINUOUS
 62
    30
 10
120.0
 20
0.0
 30
0.0
 11
425.92010199999999
 21
0.0
 31
0.0
  0
TEXT
  8
SIZE
  6
CONTINUOUS
 62
    30
 10
188.78136214285709
 20
-228.15446800000001
 30
0.0
 40
64.0
  1
89
 41
0.9
 72
     1
 11
234.03850499999999
 21
-228.15446800000001
 31
0.0
  0
LINE
  8
SIZE
  6
CONTINUOUS
 62
    30
 10
89.0
 20
-253.15446800000001
 30
0.0
 11
304.29564800000031
 21
-253.15446800000001
 31
0.0
  0
LINE
  8
SIZE
  6
CONTINUOUS
 62
    30
 10
89.0
 20
-40.0
 30
0.0
 11
89.0
 21
-273.15446800000001
 31
0.0
  0
LINE
  8
SIZE
  6
CONTINUOUS
 62
    30
 10
0.0
 20
-52.474236000000019
 30
0.0
 11
0.0
 21
-273.15446800000001
 31
0.0
  0
LINE
  8
SIZE
  6
CONTINUOUS
 62
    30
 10
12.0
 20
-253.15446800000001
 30
0.0
 11
77.0
 21
-253.15446800000001
 31
0.0
  0
LINE
  8
SIZE
  6
CONTINUOUS
 62
    30
 10
89.0
 20
-253.15446800000001
 30
0.0
 11
77.0
 21
-253.15446800000001
 31
0.0
  0
CIRCLE
  8
SIZE
  6
CONTINUOUS
 62
    30
 10
89.0
 20
-253.15446800000001
 30
0.0
 40
6.0
  0
LINE
  8
SIZE
  6
CONTINUOUS
 62
    30
 10
0.0
 20
-253.15446800000001
 30
0.0
 11
12.0
 21
-253.15446800000001
 31
0.0
  0
LINE
  8
OUTLINE
  6
CONTINUOUS
 62
     3
 10
100.0
 20
-7.0
 30
0.0
 11
100.0
 21
0.0
 31
0.0
  0
ARC
  8
OUTLINE
  6
CONTINUOUS
 62
     3
 10
90.0
 20
-7.0
 30
0.0
 40
10.0
 50
270.0
 51
0.0
  0
LINE
  8
SIZE
  6
CONTINUOUS
 62
    30
 10
150.0
 20
49.5
 30
0.0
 11
777.65640499999972
 21
49.5
 31
0.0
  0
LINE
  8
SIZE
  6
CONTINUOUS
 62
    30
 10
150.0
 20
154.5
 30
0.0
 11
777.65640499999972
 21
154.5
 31
0.0
  0
LINE
  8
SIZE
  6
CONTINUOUS
 62
    30
 10
180.0
 20
53.0
 30
0.0
 11
674.40471699999989
 21
53.0
 31
0.0
  0
LINE
  8
SIZE
  6
CONTINUOUS
 62
    30
 10
180.0
 20
151.0
 30
0.0
 11
674.40471699999989
 21
151.0
 31
0.0
  0
LINE
  8
SIZE
  6
CONTINUOUS
 62
    30
 10
196.48466099999999
 20
102.0
 30
0.0
 11
548.31482899999992
 21
102.0
 31
0.0
  0
TEXT
  8
SIZE
  6
CONTINUOUS
 62
    30
 10
737.65640499999972
 20
-182.49716357142859
 30
0.0
 40
64.0
  1
φ105
 50
90.0
 41
0.9
 72
     1
 11
737.65640499999972
 21
-73.605734999999981
 31
0.0
  0
LINE
  8
SIZE
  6
CONTINUOUS
 62
    30
 10
757.65640499999972
 20
142.5
 30
0.0
 11
757.65640499999972
 21
-202.13947099999999
 31
0.0
  0
CIRCLE
  8
SIZE
  6
CONTINUOUS
 62
    30
 10
757.65640499999972
 20
49.5
 30
0.0
 40
6.0
  0
LINE
  8
SIZE
  6
CONTINUOUS
 62
    30
 10
757.65640499999972
 20
49.5
 30
0.0
 11
757.65640499999972
 21
61.5
 31
0.0
  0
CIRCLE
  8
SIZE
  6
CONTINUOUS
 62
    30
 10
757.65640499999972
 20
154.5
 30
0.0
 40
6.0
  0
LINE
  8
SIZE
  6
CONTINUOUS
 62
    30
 10
757.65640499999972
 20
154.5
 30
0.0
 11
757.65640499999972
 21
142.5
 31
0.0
  0
LINE
  8
SIZE
  6
CONTINUOUS
 62
    30
 10
654.40471699999989
 20
139.0
 30
0.0
 11
654.40471699999989
 21
65.0
 31
0.0
  0
LINE
  8
SIZE
  6
CONTINUOUS
 62
    30
 10
654.40471699999989
 20
53.0
 30
0.0
 11
654.40471699999989
 21
65.0
 31
0.0
  0
CIRCLE
  8
SIZE
  6
CONTINUOUS
 62
    30
 10
654.40471699999989
 20
53.0
 30
0.0
 40
6.0
  0
LINE
  8
SIZE
  6
CONTINUOUS
 62
    30
 10
654.40471699999989
 20
151.0
 30
0.0
 11
654.40471699999989
 21
139.0
 31
0.0
  0
CIRCLE
  8
SIZE
  6
CONTINUOUS
 62
    30
 10
654.40471699999989
 20
151.0
 30
0.0
 40
6.0
  0
LINE
  8
SIZE
  6
CONTINUOUS
 62
    30
 10
528.31482899999992
 20
90.0
 30
0.0
 11
528.31482899999992
 21
12.0
 31
0.0
  0
LINE
  8
SIZE
  6
CONTINUOUS
 62
    30
 10
528.31482899999992
 20
102.0
 30
0.0
 11
528.31482899999992
 21
90.0
 31
0.0
  0
CIRCLE
  8
SIZE
  6
CONTINUOUS
 62
    30
 10
528.31482899999992
 20
102.0
 30
0.0
 40
6.0
  0
LINE
  8
SIZE
  6
CONTINUOUS
 62
    30
 10
72.0
 20
169.0
 30
0.0
 11
72.0
 21
584.88039800000001
 31
0.0
  0
LINE
  8
SIZE
  6
CONTINUOUS
 62
    30
 10
160.0
 20
171.0
 30
0.0
 11
160.0
 21
584.88039800000001
 31
0.0
  0
LINE
  8
SIZE
  6
CONTINUOUS
 62
    30
 10
130.0
 20
174.5
 30
0.0
 11
130.0
 21
461.59656500000011
 31
0.0
  0
LINE
  8
SIZE
  6
CONTINUOUS
 62
    30
 10
160.0
 20
171.0
 30
0.0
 11
160.0
 21
461.59656500000011
 31
0.0
  0
LINE
  8
SIZE
  6
CONTINUOUS
 62
    30
 10
0.0
 20
204.2986579999999
 30
0.0
 11
0.0
 21
328.32547899999997
 31
0.0
  0
LINE
  8
SIZE
  6
CONTINUOUS
 62
    30
 10
72.0
 20
169.0
 30
0.0
 11
72.0
 21
584.88039800000001
 31
0.0
  0
TEXT
  8
NOTE
  6
CONTINUOUS
 62
     4
 10
201.41106600000009
 20
59.149267000000009
 30
0.0
 40
64.0
  1
EA
 41
0.9
  0
LINE
  8
OUTLINE
  6
CONTINUOUS
 62
     3
 10
33.5
 20
149.0
 30
0.0
 11
33.5
 21
176.0
 31
0.0
  0
LINE
  8
BASIS
  6
DASHDOT
 62
     6
 10
176.48466099999999
 20
102.0
 30
0.0
 11
58.252356999999847
 21
102.0
 31
0.0
  0
LINE
  8
OUTLINE
  6
CONTINUOUS
 62
     3
 10
110.0
 20
27.0
 30
0.0
 11
74.466443000000254
 21
27.0
 31
0.0
  0
LINE
  8
OUTLINE
  6
CONTINUOUS
 62
     3
 10
110.0
 20
31.0
 30
0.0
 11
74.385905999999977
 21
31.0
 31
0.0
  0
LINE
  8
OUTLINE
  6
CONTINUOUS
 62
     3
 10
110.0
 20
31.0
 30
0.0
 11
110.0
 21
27.0
 31
0.0
  0
ARC
  8
OUTLINE
  6
CONTINUOUS
 62
     3
 10
30.5
 20
176.0
 30
0.0
 40
3.0
 50
0.0
 51
90.0
  0
TEXT
  8
SIZE
  6
CONTINUOUS
 62
    30
 10
196.99999957142879
 20
589.88039800000001
 30
0.0
 40
64.0
  1
88
 41
0.9
 72
     1
 11
243.62857100000019
 21
589.88039800000001
 31
0.0
  0
LINE
  8
SIZE
  6
CONTINUOUS
 62
    30
 10
160.0
 20
564.88039800000001
 30
0.0
 11
315.25714299999981
 21
564.88039800000001
 31
0.0
  0
TEXT
  8
SIZE
  6
CONTINUOUS
 62
    30
 10
208.99999957142879
 20
466.59656500000011
 30
0.0
 40
64.0
  1
30
 41
0.9
 72
     1
 11
255.62857100000019
 21
466.59656500000011
 31
0.0
  0
LINE
  8
SIZE
  6
CONTINUOUS
 62
    30
 10
172.0
 20
441.59656500000011
 30
0.0
 11
327.25714299999981
 21
441.59656500000011
 31
0.0
  0
LINE
  8
SIZE
  6
CONTINUOUS
 62
    30
 10
118.0
 20
441.59656500000011
 30
0.0
 11
106.0
 21
441.59656500000011
 31
0.0
  0
LINE
  8
SIZE
  6
CONTINUOUS
 62
    30
 10
160.0
 20
441.59656500000011
 30
0.0
 11
172.0
 21
441.59656500000011
 31
0.0
  0
CIRCLE
  8
SIZE
  6
CONTINUOUS
 62
    30
 10
160.0
 20
441.59656500000011
 30
0.0
 40
6.0
  0
LINE
  8
SIZE
  6
CONTINUOUS
 62
    30
 10
130.0
 20
441.59656500000011
 30
0.0
 11
118.0
 21
441.59656500000011
 31
0.0
  0
CIRCLE
  8
SIZE
  6
CONTINUOUS
 62
    30
 10
130.0
 20
441.59656500000011
 30
0.0
 40
6.0
  0
LINE
  8
SIZE
  6
CONTINUOUS
 62
    30
 10
130.0
 20
441.59656500000011
 30
0.0
 11
160.0
 21
441.59656500000011
 31
0.0
  0
LINE
  8
SIZE
  6
CONTINUOUS
 62
    30
 10
84.0
 20
564.88039800000001
 30
0.0
 11
148.0
 21
564.88039800000001
 31
0.0
  0
LINE
  8
SIZE
  6
CONTINUOUS
 62
    30
 10
160.0
 20
564.88039800000001
 30
0.0
 11
148.0
 21
564.88039800000001
 31
0.0
  0
CIRCLE
  8
SIZE
  6
CONTINUOUS
 62
    30
 10
160.0
 20
564.88039800000001
 30
0.0
 40
6.0
  0
LINE
  8
SIZE
  6
CONTINUOUS
 62
    30
 10
72.0
 20
564.88039800000001
 30
0.0
 11
84.0
 21
564.88039800000001
 31
0.0
  0
CIRCLE
  8
SIZE
  6
CONTINUOUS
 62
    30
 10
72.0
 20
564.88039800000001
 30
0.0
 40
6.0
  0
LINE
  8
SIZE
  6
CONTINUOUS
 62
    30
 10
72.0
 20
564.88039800000001
 30
0.0
 11
60.0
 21
564.88039800000001
 31
0.0
  0
CIRCLE
  8
SIZE
  6
CONTINUOUS
 62
    30
 10
72.0
 20
564.88039800000001
 30
0.0
 40
6.0
  0
LINE
  8
OUTLINE
  6
CONTINUOUS
 62
     3
 10
-75.0
 20
0.0
 30
0.0
 11
-73.049167000000125
 21
117.049993
 31
0.0
  0
LINE
  8
OUTLINE
  6
CONTINUOUS
 62
     3
 10
-75.0
 20
0.0
 30
0.0
 11
-73.049167000000125
 21
117.049993
 31
0.0
  0
LINE
  8
NOTE
  6
CONTINUOUS
 62
     4
 10
-90.0
 20
-20.0
 30
0.0
 11
-90.0
 21
20.0
 31
0.0
  0
CIRCLE
  8
FIX
  6
CONTINUOUS
 62
    11
 10
-90.0
 20
0.0
 30
0.0
 40
2.5
  0
LINE
  8
SIZE
  6
CONTINUOUS
 62
    30
 10
-584.03644499999962
 20
0.0
 30
0.0
 11
-584.03644499999962
 21
12.0
 31
0.0
  0
CIRCLE
  8
SIZE
  6
CONTINUOUS
 62
    30
 10
-584.03644499999962
 20
0.0
 30
0.0
 40
6.0
  0
LINE
  8
SIZE
  6
CONTINUOUS
 62
    30
 10
-584.03644499999962
 20
0.0
 30
0.0
 11
-584.03644499999962
 21
12.0
 31
0.0
  0
CIRCLE
  8
SIZE
  6
CONTINUOUS
 62
    30
 10
-584.03644499999962
 20
0.0
 30
0.0
 40
6.0
  0
LINE
  8
SIZE
  6
CONTINUOUS
 62
    30
 10
-120.0
 20
0.0
 30
0.0
 11
-604.03644499999962
 21
0.0
 31
0.0
  0
LINE
  8
SIZE
  6
CONTINUOUS
 62
    30
 10
-110.0
 20
-17.0
 30
0.0
 11
-604.03644499999962
 21
-17.0
 31
0.0
  0
LINE
  8
SIZE
  6
CONTINUOUS
 62
    30
 10
-120.0
 20
0.0
 30
0.0
 11
-604.03644499999962
 21
0.0
 31
0.0
  0
LINE
  8
SIZE
  6
CONTINUOUS
 62
    30
 10
-120.0
 20
0.0
 30
0.0
 11
-513.7358119999999
 21
0.0
 31
0.0
  0
LINE
  8
SIZE
  6
CONTINUOUS
 62
    30
 10
-100.0
 20
-27.0
 30
0.0
 11
-100.0
 21
-555.79696200000001
 31
0.0
  0
LINE
  8
SIZE
  6
CONTINUOUS
 62
    30
 10
-75.0
 20
-20.0
 30
0.0
 11
-75.0
 21
-419.07821799999999
 31
0.0
  0
LINE
  8
SIZE
  6
CONTINUOUS
 62
    30
 10
-100.0
 20
-535.79696200000001
 30
0.0
 11
-88.0
 21
-535.79696200000001
 31
0.0
  0
CIRCLE
  8
SIZE
  6
CONTINUOUS
 62
    30
 10
-100.0
 20
-535.79696200000001
 30
0.0
 40
6.0
  0
LINE
  8
SIZE
  6
CONTINUOUS
 62
    30
 10
-75.0
 20
-399.07821799999999
 30
0.0
 11
-63.0
 21
-399.07821799999999
 31
0.0
  0
CIRCLE
  8
SIZE
  6
CONTINUOUS
 62
    30
 10
-75.0
 20
-399.07821799999999
 30
0.0
 40
6.0
  0
LINE
  8
NOTE
  6
CONTINUOUS
 62
     4
 10
-385.43994593699199
 20
-141.25541216473101
 30
0.0
 11
-134.771905936992
 21
-141.25541216473101
 31
0.0
  0
TEXT
  8
NOTE
  6
CONTINUOUS
 62
     4
 10
-380.4623279369921
 20
-120.1604951647309
 30
0.0
 40
64.0
  1
4-φ5
 41
0.9
  0
LINE
  8
NOTE
  6
CONTINUOUS
 62
     4
 10
-90.0
 20
0.0
 30
0.0
 11
-135.84759687553199
 21
-141.25541216473101
 31
0.0
  0
LINE
  8
NOTE
  6
CONTINUOUS
 62
     4
 10
-90.0
 20
0.0
 30
0.0
 11
-111.7750190000002
 21
-33.553667000000019
 31
0.0
  0
LINE
  8
NOTE
  6
CONTINUOUS
 62
     4
 10
-92.080885999999737
 20
-39.945836999999983
 30
0.0
 11
-90.0
 21
0.0
 31
0.0
  0
ARC
  8
OUTLINE
  6
CONTINUOUS
 62
     3
 10
-90.0
 20
-7.0
 30
0.0
 40
10.0
 50
180.0
 51
270.0
  0
LINE
  8
SIZE
  6
CONTINUOUS
 62
    30
 10
-584.03644499999962
 20
-29.0
 30
0.0
 11
-584.03644499999962
 21
-173.28571400000001
 31
0.0
  0
CIRCLE
  8
SIZE
  6
CONTINUOUS
 62
    30
 10
-584.03644499999962
 20
-17.0
 30
0.0
 40
6.0
  0
TEXT
  8
SIZE
  6
CONTINUOUS
 62
    30
 10
-495.03644500000013
 20
-148.2857141428571
 30
0.0
 40
64.0
  1
17
 50
90.0
 41
0.9
 72
     1
 11
-495.03644500000013
 21
-107.14285700000001
 31
0.0
  0
LINE
  8
SIZE
  6
CONTINUOUS
 62
    30
 10
-584.03644499999962
 20
-17.0
 30
0.0
 11
-584.03644499999962
 21
-29.0
 31
0.0
  0
LINE
  8
SIZE
  6
CONTINUOUS
 62
    30
 10
-584.03644499999962
 20
0.0
 30
0.0
 11
-584.03644499999962
 21
-17.0
 31
0.0
  0
LINE
  8
OUTLINE
  6
CONTINUOUS
 62
     3
 10
-72.033527000000049
 20
143.50000299999999
 30
0.0
 11
-57.5
 21
143.50000299999999
 31
0.0
  0
LINE
  8
OUTLINE
  6
CONTINUOUS
 62
     3
 10
-72.033527000000049
 20
174.10000400000001
 30
0.0
 11
-72.033527000000049
 21
143.50000299999999
 31
0.0
  0
LINE
  8
OUTLINE
  6
CONTINUOUS
 62
     3
 10
-29.5
 20
174.10000400000001
 30
0.0
 11
-72.033527000000049
 21
174.10000400000001
 31
0.0
  0
LINE
  8
SIZE
  6
CONTINUOUS
 62
    30
 10
-73.0
 20
140.0
 30
0.0
 11
-73.0
 21
584.88039800000001
 31
0.0
  0
LINE
  8
OUTLINE
  6
CONTINUOUS
 62
     3
 10
-57.5
 20
120.0
 30
0.0
 11
-57.5
 21
143.50000299999999
 31
0.0
  0
LINE
  8
OUTLINE
  6
CONTINUOUS
 62
     3
 10
-57.5
 20
120.0
 30
0.0
 11
-57.5
 21
143.50000299999999
 31
0.0
  0
ARC
  8
OUTLINE
  6
CONTINUOUS
 62
     3
 10
-70.049582999999984
 20
117.0
 30
0.0
 40
3.0
 50
90.0
 51
179.04515900000271
  0
ARC
  8
OUTLINE
  6
CONTINUOUS
 62
     3
 10
-70.049582999999984
 20
117.0
 30
0.0
 40
3.0
 50
90.0
 51
179.04515900000271
  0
TEXT
  8
SIZE
  6
CONTINUOUS
 62
    30
 10
-247.14285757142861
 20
589.88039800000001
 30
0.0
 40
64.0
  1
145
 41
0.9
 72
     1
 11
-178.57142900000011
 21
589.88039800000001
 31
0.0
  0
LINE
  8
SIZE
  6
CONTINUOUS
 62
    30
 10
-73.0
 20
564.88039800000001
 30
0.0
 11
-272.14285699999982
 21
564.88039800000001
 31
0.0
  0
LINE
  8
SIZE
  6
CONTINUOUS
 62
    30
 10
-73.0
 20
564.88039800000001
 30
0.0
 11
-61.0
 21
564.88039800000001
 31
0.0
  0
CIRCLE
  8
SIZE
  6
CONTINUOUS
 62
    30
 10
-73.0
 20
564.88039800000001
 30
0.0
 40
6.0
  0
LINE
  8
SIZE
  6
CONTINUOUS
 62
    30
 10
-584.03644499999962
 20
12.0
 30
0.0
 11
-584.03644499999962
 21
24.0
 31
0.0
  0
LINE
  8
OUTLINE
  6
CONTINUOUS
 62
     3
 10
-100.0
 20
0.0
 30
0.0
 11
-100.0
 21
-7.0
 31
0.0
  0
LINE
  8
SIZE
  6
CONTINUOUS
 62
    30
 10
120.0
 20
0.0
 30
0.0
 11
428.31482899999992
 21
0.0
 31
0.0
  0
LINE
  8
SIZE
  6
CONTINUOUS
 62
    30
 10
130.0
 20
27.0
 30
0.0
 11
428.31482899999992
 21
27.0
 31
0.0
  0
LINE
  8
SIZE
  6
CONTINUOUS
 62
    30
 10
408.31482899999992
 20
39.0
 30
0.0
 11
408.31482899999992
 21
51.0
 31
0.0
  0
LINE
  8
SIZE
  6
CONTINUOUS
 62
    30
 10
408.31482899999992
 20
-12.0
 30
0.0
 11
408.31482899999992
 21
-167.25714300000001
 31
0.0
  0
LINE
  8
SIZE
  6
CONTINUOUS
 62
    30
 10
408.31482899999992
 20
27.0
 30
0.0
 11
408.31482899999992
 21
0.0
 31
0.0
  0
CIRCLE
  8
SIZE
  6
CONTINUOUS
 62
    30
 10
408.31482899999992
 20
27.0
 30
0.0
 40
6.0
  0
LINE
  8
SIZE
  6
CONTINUOUS
 62
    30
 10
408.31482899999992
 20
27.0
 30
0.0
 11
408.31482899999992
 21
39.0
 31
0.0
  0
CIRCLE
  8
SIZE
  6
CONTINUOUS
 62
    30
 10
408.31482899999992
 20
0.0
 30
0.0
 40
6.0
  0
LINE
  8
SIZE
  6
CONTINUOUS
 62
    30
 10
408.31482899999992
 20
0.0
 30
0.0
 11
408.31482899999992
 21
-12.0
 31
0.0
  0
TEXT
  8
SIZE
  6
CONTINUOUS
 62
    30
 10
383.31482899999992
 20
-142.2571424285714
 30
0.0
 40
64.0
  1
27
 50
90.0
 41
0.9
 72
     1
 11
383.31482899999992
 21
-95.628570999999965
 31
0.0
  0
POINT
  8
DEFPOINTS
  6
CONTINUOUS
 62
    30
 10
100.0
 20
0.0
 30
0.0
  0
POINT
  8
DEFPOINTS
  6
CONTINUOUS
 62
    30
 10
110.0
 20
27.0
 30
0.0
  0
POINT
  8
DEFPOINTS
  6
CONTINUOUS
 62
    30
 10
408.31482899999992
 20
27.0
 30
0.0
  0
LINE
  8
SIZE
  6
CONTINUOUS
 62
    30
 10
-120.0
 20
0.0
 30
0.0
 11
-604.03644499999962
 21
0.0
 31
0.0
  0
LINE
  8
SIZE
  6
CONTINUOUS
 62
    30
 10
-46.5
 20
179.0
 30
0.0
 11
-604.03644499999962
 21
179.0
 31
0.0
  0
LINE
  8
SIZE
  6
CONTINUOUS
 62
    30
 10
-584.03644499999962
 20
12.0
 30
0.0
 11
-584.03644499999962
 21
167.0
 31
0.0
  0
LINE
  8
SIZE
  6
CONTINUOUS
 62
    30
 10
-584.03644499999962
 20
179.0
 30
0.0
 11
-584.03644499999962
 21
375.39999999999998
 31
0.0
  0
CIRCLE
  8
SIZE
  6
CONTINUOUS
 62
    30
 10
-584.03644499999962
 20
0.0
 30
0.0
 40
6.0
  0
LINE
  8
SIZE
  6
CONTINUOUS
 62
    30
 10
-584.03644499999962
 20
0.0
 30
0.0
 11
-584.03644499999962
 21
12.0
 31
0.0
  0
CIRCLE
  8
SIZE
  6
CONTINUOUS
 62
    30
 10
-584.03644499999962
 20
179.0
 30
0.0
 40
6.0
  0
LINE
  8
SIZE
  6
CONTINUOUS
 62
    30
 10
-584.03644499999962
 20
179.0
 30
0.0
 11
-584.03644499999962
 21
167.0
 31
0.0
  0
TEXT
  8
SIZE
  6
CONTINUOUS
 62
    30
 10
-609.03644499999962
 20
216.00000000000011
 30
0.0
 40
64.0
  1
179
 50
90.0
 41
0.9
 72
     1
 11
-609.03644499999962
 21
283.19999999999999
 31
0.0
  0
POINT
  8
DEFPOINTS
  6
CONTINUOUS
 62
    30
 10
-100.0
 20
0.0
 30
0.0
  0
POINT
  8
DEFPOINTS
  6
CONTINUOUS
 62
    30
 10
-26.5
 20
179.0
 30
0.0
  0
POINT
  8
DEFPOINTS
  6
CONTINUOUS
 62
    30
 10
-584.03644499999962
 20
179.0
 30
0.0
  0
LINE
  8
OUTLINE
  6
CONTINUOUS
 62
     3
 10
-29.5
 20
174.10000400000001
 30
0.0
 11
-29.5
 21
176.0
 31
0.0
  0
ARC
  8
OUTLINE
  6
CONTINUOUS
 62
     3
 10
-26.5
 20
176.0
 30
0.0
 40
3.0
 50
90.0
 51
180.0
  0
LINE
  8
SIZE
  6
CONTINUOUS
 62
    30
 10
33.498443999999843
 20
196.09662399999999
 30
0.0
 11
33.498443999999843
 21
461.59656500000011
 31
0.0
  0
LINE
  8
SIZE
  6
CONTINUOUS
 62
    30
 10
-29.5
 20
196.09662399999999
 30
0.0
 11
-29.5
 21
461.59656500000011
 31
0.0
  0
LINE
  8
SIZE
  6
CONTINUOUS
 62
    30
 10
45.498443999999843
 20
441.59656500000011
 30
0.0
 11
57.498443999999843
 21
441.59656500000011
 31
0.0
  0
LINE
  8
SIZE
  6
CONTINUOUS
 62
    30
 10
-41.5
 20
441.59656500000011
 30
0.0
 11
-321.31879600000002
 21
441.59656500000011
 31
0.0
  0
LINE
  8
SIZE
  6
CONTINUOUS
 62
    30
 10
33.498443999999843
 20
441.59656500000011
 30
0.0
 11
-29.5
 21
441.59656500000011
 31
0.0
  0
CIRCLE
  8
SIZE
  6
CONTINUOUS
 62
    30
 10
33.498443999999843
 20
441.59656500000011
 30
0.0
 40
6.0
  0
LINE
  8
SIZE
  6
CONTINUOUS
 62
    30
 10
33.498443999999843
 20
441.59656500000011
 30
0.0
 11
45.498443999999843
 21
441.59656500000011
 31
0.0
  0
CIRCLE
  8
SIZE
  6
CONTINUOUS
 62
    30
 10
-29.5
 20
441.59656500000011
 30
0.0
 40
6.0
  0
LINE
  8
SIZE
  6
CONTINUOUS
 62
    30
 10
-29.5
 20
441.59656500000011
 30
0.0
 11
-41.5
 21
441.59656500000011
 31
0.0
  0
TEXT
  8
SIZE
  6
CONTINUOUS
 62
    30
 10
-307.83879642857153
 20
466.59656500000011
 30
0.0
 40
64.0
  1
φ63
 41
0.9
 72
     1
 11
-220.8902250000001
 21
466.59656500000011
 31
0.0
  0
POINT
  8
DEFPOINTS
  6
CONTINUOUS
 62
    30
 10
33.498443999999843
 20
176.09662399999999
 30
0.0
  0
POINT
  8
DEFPOINTS
  6
CONTINUOUS
 62
    30
 10
-29.5
 20
176.09662399999999
 30
0.0
  0
POINT
  8
DEFPOINTS
  6
CONTINUOUS
 62
    30
 10
-29.5
 20
441.59656500000011
 30
0.0
  0
LINE
  8
DETAIL
  6
CONTINUOUS
 62
     5
 10
-90.0
 20
-17.0
 30
0.0
 11
90.0
 21
-17.0
 31
0.0
  0
LINE
  8
DETAIL
  6
CONTINUOUS
 62
     5
 10
100.0
 20
0.0
 30
0.0
 11
-100.0
 21
0.0
 31
0.0
  0
LINE
  8
DETAIL
  6
CONTINUOUS
 62
     5
 10
9.2706450000000586
 20
149.0
 30
0.0
 11
72.0
 21
149.0
 31
0.0
  0
LINE
  8
DETAIL
  6
CONTINUOUS
 62
     5
 10
-26.5
 20
179.0
 30
0.0
 11
30.5
 21
179.0
 31
0.0
  0
LINE
  8
DETAIL
  6
CONTINUOUS
 62
     5
 10
72.583892999999989
 20
120.0
 30
0.0
 11
-70.049582999999984
 21
120.0
 31
0.0
  0
LINE
  8
DETAIL
  6
CONTINUOUS
 62
     5
 10
72.583892999999989
 20
120.0
 30
0.0
 11
-69.99185099999977
 21
120.0
 31
0.0
  0
LINE
  8
DETAIL
  6
CONTINUOUS
 62
     5
 10
9.2706450000000586
 20
149.0
 30
0.0
 11
72.0
 21
149.0
 31
0.0
  0
LINE
  8
DETAIL
  6
CONTINUOUS
 62
     5
 10
100.0
 20
0.0
 30
0.0
 11
-100.0
 21
0.0
 31
0.0
  0
LINE
  8
DETAIL
  6
CONTINUOUS
 62
     5
 10
20.0
 20
100.0
 30
0.0
 11
-20.0
 21
100.0
 31
0.0
  0
LINE
  8
DETAIL
  6
CONTINUOUS
 62
     5
 10
20.0
 20
55.0
 30
0.0
 11
-20.0
 21
55.0
 31
0.0
  0
LINE
  8
DETAIL
  6
CONTINUOUS
 62
     5
 10
-20.0
 20
0.0
 30
0.0
 11
20.0
 21
0.0
 31
0.0
  0
LINE
  8
DETAIL
  6
CONTINUOUS
 62
     5
 10
75.0
 20
0.0
 30
0.0
 11
71.889262000000144
 21
154.5
 31
0.0
  0
LINE
  8
DETAIL
  6
CONTINUOUS
 62
     5
 10
75.0
 20
0.0
 30
0.0
 11
71.999905000000126
 21
149.00472600000001
 31
0.0
  0
LINE
  8
DETAIL
  6
CONTINUOUS
 62
     5
 10
83.0
 20
0.0
 30
0.0
 11
83.0
 21
27.0
 31
0.0
  0
LINE
  8
DETAIL
  6
CONTINUOUS
 62
     5
 10
20.0
 20
100.0
 30
0.0
 11
20.0
 21
0.0
 31
0.0
  0
LINE
  8
DETAIL
  6
CONTINUOUS
 62
     5
 10
100.0
 20
-7.0
 30
0.0
 11
100.0
 21
0.0
 31
0.0
  0
ARC
  8
DETAIL
  6
CONTINUOUS
 62
     5
 10
90.0
 20
-7.0
 30
0.0
 40
10.0
 50
270.0
 51
0.0
  0
LINE
  8
DETAIL
  6
CONTINUOUS
 62
     5
 10
33.5
 20
149.0
 30
0.0
 11
33.5
 21
176.0
 31
0.0
  0
LINE
  8
DETAIL
  6
CONTINUOUS
 62
     5
 10
71.889262000000144
 20
154.5
 30
0.0
 11
130.0
 21
154.5
 31
0.0
  0
LINE
  8
DETAIL
  6
CONTINUOUS
 62
     5
 10
74.003356000000167
 20
49.5
 30
0.0
 11
130.0
 21
49.5
 31
0.0
  0
LINE
  8
DETAIL
  6
CONTINUOUS
 62
     5
 10
160.0
 20
151.0
 30
0.0
 11
160.0
 21
53.0
 31
0.0
  0
LINE
  8
DETAIL
  6
CONTINUOUS
 62
     5
 10
130.0
 20
154.5
 30
0.0
 11
130.0
 21
49.5
 31
0.0
  0
LINE
  8
DETAIL
  6
CONTINUOUS
 62
     5
 10
130.0
 20
53.0
 30
0.0
 11
160.0
 21
53.0
 31
0.0
  0
LINE
  8
DETAIL
  6
CONTINUOUS
 62
     5
 10
130.0
 20
151.0
 30
0.0
 11
160.0
 21
151.0
 31
0.0
  0
LINE
  8
DETAIL
  6
CONTINUOUS
 62
     5
 10
110.0
 20
27.0
 30
0.0
 11
74.466443000000254
 21
27.0
 31
0.0
  0
LINE
  8
DETAIL
  6
CONTINUOUS
 62
     5
 10
110.0
 20
31.0
 30
0.0
 11
74.385905999999977
 21
31.0
 31
0.0
  0
LINE
  8
DETAIL
  6
CONTINUOUS
 62
     5
 10
110.0
 20
31.0
 30
0.0
 11
110.0
 21
27.0
 31
0.0
  0
LINE
  8
DETAIL
  6
CONTINUOUS
 62
     5
 10
30.0
 20
55.0
 30
0.0
 11
20.0
 21
55.0
 31
0.0
  0
LINE
  8
DETAIL
  6
CONTINUOUS
 62
     5
 10
25.5
 20
61.0
 30
0.0
 11
20.0
 21
61.0
 31
0.0
  0
LINE
  8
DETAIL
  6
CONTINUOUS
 62
     5
 10
30.0
 20
56.5
 30
0.0
 11
30.0
 21
55.0
 31
0.0
  0
ARC
  8
DETAIL
  6
CONTINUOUS
 62
     5
 10
25.5
 20
56.5
 30
0.0
 40
4.5
 50
0.0
 51
90.0
  0
LINE
  8
DETAIL
  6
CONTINUOUS
 62
     5
 10
30.0
 20
90.0
 30
0.0
 11
30.0
 21
84.0
 31
0.0
  0
LINE
  8
DETAIL
  6
CONTINUOUS
 62
     5
 10
30.0
 20
90.0
 30
0.0
 11
20.0
 21
90.0
 31
0.0
  0
LINE
  8
DETAIL
  6
CONTINUOUS
 62
     5
 10
30.0
 20
84.0
 30
0.0
 11
20.0
 21
84.0
 31
0.0
  0
ARC
  8
DETAIL
  6
CONTINUOUS
 62
     5
 10
30.5
 20
176.0
 30
0.0
 40
3.0
 50
0.0
 51
90.0
  0
LINE
  8
DETAIL
  6
CONTINUOUS
 62
     5
 10
-75.0
 20
0.0
 30
0.0
 11
-73.049167000000125
 21
117.049993
 31
0.0
  0
LINE
  8
DETAIL
  6
CONTINUOUS
 62
     5
 10
-75.0
 20
0.0
 30
0.0
 11
-73.049167000000125
 21
117.049993
 31
0.0
  0
LINE
  8
DETAIL
  6
CONTINUOUS
 62
     5
 10
-20.0
 20
100.0
 30
0.0
 11
-20.0
 21
0.0
 31
0.0
  0
ARC
  8
DETAIL
  6
CONTINUOUS
 62
     5
 10
-90.0
 20
-7.0
 30
0.0
 40
10.0
 50
180.0
 51
270.0
  0
LINE
  8
DETAIL
  6
CONTINUOUS
 62
     5
 10
-20.729354999999941
 20
174.10000400000001
 30
0.0
 11
-20.729354999999941
 21
143.50000299999999
 31
0.0
  0
LINE
  8
DETAIL
  6
CONTINUOUS
 62
     5
 10
-72.033527000000049
 20
143.50000299999999
 30
0.0
 11
9.2706450000000586
 21
143.50000299999999
 31
0.0
  0
LINE
  8
DETAIL
  6
CONTINUOUS
 62
     5
 10
-72.033527000000049
 20
174.10000400000001
 30
0.0
 11
-72.033527000000049
 21
143.50000299999999
 31
0.0
  0
LINE
  8
DETAIL
  6
CONTINUOUS
 62
     5
 10
9.2706450000000586
 20
174.10000400000001
 30
0.0
 11
-72.033527000000049
 21
174.10000400000001
 31
0.0
  0
LINE
  8
DETAIL
  6
CONTINUOUS
 62
     5
 10
-30.0
 20
56.5
 30
0.0
 11
-30.0
 21
55.0
 31
0.0
  0
ARC
  8
DETAIL
  6
CONTINUOUS
 62
     5
 10
-25.5
 20
56.5
 30
0.0
 40
4.5
 50
90.0
 51
180.0
  0
LINE
  8
DETAIL
  6
CONTINUOUS
 62
     5
 10
-20.0
 20
55.0
 30
0.0
 11
-30.0
 21
55.0
 31
0.0
  0
LINE
  8
DETAIL
  6
CONTINUOUS
 62
     5
 10
-20.0
 20
61.0
 30
0.0
 11
-25.5
 21
61.0
 31
0.0
  0
LINE
  8
DETAIL
  6
CONTINUOUS
 62
     5
 10
-57.5
 20
120.0
 30
0.0
 11
-57.5
 21
143.50000299999999
 31
0.0
  0
LINE
  8
DETAIL
  6
CONTINUOUS
 62
     5
 10
-57.5
 20
120.0
 30
0.0
 11
-57.5
 21
143.50000299999999
 31
0.0
  0
LINE
  8
DETAIL
  6
CONTINUOUS
 62
     5
 10
-30.0
 20
90.0
 30
0.0
 11
-30.0
 21
84.0
 31
0.0
  0
LINE
  8
DETAIL
  6
CONTINUOUS
 62
     5
 10
-20.0
 20
84.0
 30
0.0
 11
-30.0
 21
84.0
 31
0.0
  0
LINE
  8
DETAIL
  6
CONTINUOUS
 62
     5
 10
-20.0
 20
90.0
 30
0.0
 11
-30.0
 21
90.0
 31
0.0
  0
ARC
  8
DETAIL
  6
CONTINUOUS
 62
     5
 10
-70.049582999999984
 20
117.0
 30
0.0
 40
3.0
 50
90.0
 51
179.04515900000271
  0
ARC
  8
DETAIL
  6
CONTINUOUS
 62
     5
 10
-70.049582999999984
 20
117.0
 30
0.0
 40
3.0
 50
90.0
 51
179.04515900000271
  0
LINE
  8
DETAIL
  6
CONTINUOUS
 62
     5
 10
-100.0
 20
0.0
 30
0.0
 11
-100.0
 21
-7.0
 31
0.0
  0
LINE
  8
DETAIL
  6
CONTINUOUS
 62
     5
 10
-29.5
 20
174.10000400000001
 30
0.0
 11
-29.5
 21
176.0
 31
0.0
  0
ARC
  8
DETAIL
  6
CONTINUOUS
 62
     5
 10
-26.5
 20
176.0
 30
0.0
 40
3.0
 50
90.0
 51
180.0
  0
ARC
  8
DETAIL
  6
DASHED
 62
     5
 10
98.496277000000191
 20
133.0182090000001
 30
0.0
 40
76.381099000000006
 50
269.74445799998227
 51
347.27042899999822
  0
LINE
  8
DETAIL
  6
DASHED
 62
     5
 10
163.17128899999989
 20
118.3573260000001
 30
0.0
 11
128.71552100000011
 21
124.43280799999999
 31
0.0
  0
LINE
  8
DETAIL
  6
DASHED
 62
     5
 10
163.17128899999989
 20
117.544985
 30
0.0
 11
128.64552999999981
 21
123.6328080000001
 31
0.0
  0
LINE
  8
DETAIL
  6
DASHED
 62
     5
 10
173.0
 20
116.1876580000001
 30
0.0
 11
173.0
 21
117.0
 31
0.0
  0
LINE
  8
DETAIL
  6
DASHED
 62
     5
 10
173.0
 20
116.1876580000001
 30
0.0
 11
163.17128899999989
 21
117.544985
 31
0.0
  0
LINE
  8
DETAIL
  6
DASHED
 62
     5
 10
173.0
 20
117.0
 30
0.0
 11
163.17128899999989
 21
118.3573260000001
 31
0.0
  0
LINE
  8
DETAIL
  6
DASHED
 62
     5
 10
128.71552100000011
 20
124.43280799999999
 30
0.0
 11
112.1556140000002
 21
124.43280799999999
 31
0.0
  0
LINE
  8
DETAIL
  6
DASHED
 62
     5
 10
128.64552999999981
 20
123.6328080000001
 30
0.0
 11
112.1556140000002
 21
123.6328080000001
 31
0.0
  0
ARC
  8
DETAIL
  6
DASHED
 62
     5
 10
93.722846000000118
 20
125.032808
 30
0.0
 40
0.6
 50
90.0
 51
179.59406799999721
  0
LINE
  8
DETAIL
  6
DASHED
 62
     5
 10
93.12286099999983
 20
125.037059
 30
0.0
 11
93.118579999999838
 21
124.43280799999999
 31
0.0
  0
LINE
  8
DETAIL
  6
DASHED
 62
     5
 10
93.161642999999913
 20
130.510989
 30
0.0
 11
93.12286099999983
 21
125.037059
 31
0.0
  0
LINE
  8
DETAIL
  6
DASHED
 62
     5
 10
97.518689999999879
 20
124.43280799999999
 30
0.0
 11
94.318610000000263
 21
124.43280799999999
 31
0.0
  0
LINE
  8
DETAIL
  6
DASHED
 62
     5
 10
97.52297099999987
 20
125.037059
 30
0.0
 11
97.518689999999879
 21
124.43280799999999
 31
0.0
  0
LINE
  8
DETAIL
  6
DASHED
 62
     5
 10
98.722940999999992
 20
125.02855700000001
 30
0.0
 11
98.718719999999848
 21
124.43280799999999
 31
0.0
  0
LINE
  8
DETAIL
  6
DASHED
 62
     5
 10
101.92308200000021
 20
125.037059
 30
0.0
 11
101.91886100000011
 21
124.441309
 31
0.0
  0
LINE
  8
DETAIL
  6
DASHED
 62
     5
 10
103.123051
 20
125.02855700000001
 30
0.0
 11
103.1188309999998
 21
124.43280799999999
 31
0.0
  0
LINE
  8
DETAIL
  6
DASHED
 62
     5
 10
93.161642999999913
 20
130.510989
 30
0.0
 11
93.43749200000002
 21
131.29734300000001
 31
0.0
  0
LINE
  8
DETAIL
  6
DASHED
 62
     5
 10
101.94843399999991
 20
128.61535599999999
 30
0.0
 11
101.92308200000021
 21
125.037059
 31
0.0
  0
ARC
  8
DETAIL
  6
DASHED
 62
     5
 10
102.5230659999997
 20
125.032808
 30
0.0
 40
0.6
 50
90.0
 51
179.59406799999721
  0
ARC
  8
DETAIL
  6
DASHED
 62
     5
 10
102.5230659999997
 20
125.032808
 30
0.0
 40
0.6
 50
359.59406799999721
 51
90.0
  0
LINE
  8
DETAIL
  6
DASHED
 62
     5
 10
101.94843399999991
 20
128.61535599999999
 30
0.0
 11
103.148404
 21
128.606854
 31
0.0
  0
LINE
  8
DETAIL
  6
DASHED
 62
     5
 10
103.16139200000001
 20
130.44014100000001
 30
0.0
 11
103.123051
 21
125.02855700000001
 31
0.0
  0
LINE
  8
DETAIL
  6
DASHED
 62
     5
 10
103.16139200000001
 20
130.44014100000001
 30
0.0
 11
102.896714
 21
131.23032499999999
 31
0.0
  0
CIRCLE
  8
DETAIL
  6
DASHED
 62
     5
 10
98.155614000000242
 20
129.64225300000001
 30
0.0
 40
2.1000000000000001
  0
ARC
  8
DETAIL
  6
DASHED
 62
     5
 10
98.122956000000158
 20
125.032808
 30
0.0
 40
0.6
 50
359.59406799999721
 51
90.0
  0
ARC
  8
DETAIL
  6
DASHED
 62
     5
 10
98.122956000000158
 20
125.032808
 30
0.0
 40
0.6
 50
90.0
 51
179.59406799999721
  0
ARC
  8
DETAIL
  6
DASHED
 62
     5
 10
93.722846000000118
 20
125.032808
 30
0.0
 40
0.6
 50
359.59406799999721
 51
90.0
  0
LINE
  8
DETAIL
  6
DASHED
 62
     5
 10
94.322830999999951
 20
125.02855700000001
 30
0.0
 11
94.318549000000075
 21
124.424306
 31
0.0
  0
LINE
  8
DETAIL
  6
DASHED
 62
     5
 10
93.148654000000079
 20
128.67770200000001
 30
0.0
 11
94.3486240000002
 21
128.66919999999999
 31
0.0
  0
LINE
  8
DETAIL
  6
DASHED
 62
     5
 10
94.3486240000002
 20
128.66919999999999
 30
0.0
 11
94.322830999999951
 21
125.02855700000001
 31
0.0
  0
LINE
  8
DETAIL
  6
DASHED
 62
     5
 10
93.118579999999838
 20
124.43280799999999
 30
0.0
 11
78.519009000000096
 21
124.43280799999999
 31
0.0
  0
LINE
  8
DETAIL
  6
DASHED
 62
     5
 10
78.519009000000096
 20
124.43280799999999
 30
0.0
 11
78.519009000000096
 21
123.6328080000001
 31
0.0
  0
LINE
  8
DETAIL
  6
DASHED
 62
     5
 10
128.71552100000011
 20
124.43280799999999
 30
0.0
 11
97.518689999999879
 21
124.43280799999999
 31
0.0
  0
LINE
  8
DETAIL
  6
DASHED
 62
     5
 10
128.64552999999981
 20
123.6328080000001
 30
0.0
 11
78.519009000000096
 21
123.6328080000001
 31
0.0
  0
ARC
  8
DETAIL
  6
DASHED
 62
     5
 10
98.155614000000242
 20
129.64225300000001
 30
0.0
 40
5.0
 50
18.51871300000883
 51
160.6694240000048
  0
LINE
  8
SIZE
  6
CONTINUOUS
 62
    30
 10
160.0
 20
171.0
 30
0.0
 11
160.0
 21
341.59656500000011
 31
0.0
  0
LINE
  8
SIZE
  6
CONTINUOUS
 62
    30
 10
173.0
 20
137.0
 30
0.0
 11
173.0
 21
341.59656500000011
 31
0.0
  0
LINE
  8
SIZE
  6
CONTINUOUS
 62
    30
 10
148.0
 20
321.59656500000011
 30
0.0
 11
136.0
 21
321.59656500000011
 31
0.0
  0
LINE
  8
SIZE
  6
CONTINUOUS
 62
    30
 10
185.0
 20
321.59656500000011
 30
0.0
 11
446.13142900000003
 21
321.59656500000011
 31
0.0
  0
LINE
  8
SIZE
  6
CONTINUOUS
 62
    30
 10
160.0
 20
321.59656500000011
 30
0.0
 11
173.0
 21
321.59656500000011
 31
0.0
  0
CIRCLE
  8
SIZE
  6
CONTINUOUS
 62
    30
 10
160.0
 20
321.59656500000011
 30
0.0
 40
6.0
  0
LINE
  8
SIZE
  6
CONTINUOUS
 62
    30
 10
160.0
 20
321.59656500000011
 30
0.0
 11
148.0
 21
321.59656500000011
 31
0.0
  0
CIRCLE
  8
SIZE
  6
CONTINUOUS
 62
    30
 10
173.0
 20
321.59656500000011
 30
0.0
 40
6.0
  0
LINE
  8
SIZE
  6
CONTINUOUS
 62
    30
 10
173.0
 20
321.59656500000011
 30
0.0
 11
185.0
 21
321.59656500000011
 31
0.0
  0
TEXT
  8
SIZE
  6
CONTINUOUS
 62
    30
 10
212.67428542857169
 20
346.59656500000011
 30
0.0
 40
64.0
  1
（13）
 41
0.9
 72
     1
 11
321.5657140000003
 21
346.59656500000011
 31
0.0
  0
POINT
  8
DEFPOINTS
  6
CONTINUOUS
 62
    30
 10
160.0
 20
151.0
 30
0.0
  0
POINT
  8
DEFPOINTS
  6
CONTINUOUS
 62
    30
 10
173.0
 20
117.0
 30
0.0
  0
LINE
  8
DETAIL
  6
CONTINUOUS
 62
     5
 10
9.2706450000000586
 20
174.10000400000001
 30
0.0
 11
9.2706450000000586
 21
143.50000299999999
 31
0.0
  0
LINE
  8
OUTLINE
  6
CONTINUOUS
 62
     3
 10
-74.987451999999848
 20
0.0
 30
0.0
 11
-100.0
 21
0.0
 31
0.0
  0
LINE
  8
SIZE
  6
CONTINUOUS
 62
    30
 10
-90.0
 20
-40.0
 30
0.0
 11
-90.0
 21
-273.15446800000001
 31
0.0
  0
LINE
  8
SIZE
  6
CONTINUOUS
 62
    30
 10
0.0
 20
-52.474236000000019
 30
0.0
 11
0.0
 21
-273.15446800000001
 31
0.0
  0
LINE
  8
SIZE
  6
CONTINUOUS
 62
    30
 10
-12.0
 20
-253.15446800000001
 30
0.0
 11
-78.0
 21
-253.15446800000001
 31
0.0
  0
LINE
  8
SIZE
  6
CONTINUOUS
 62
    30
 10
-90.0
 20
-253.15446800000001
 30
0.0
 11
-245.2571428571429
 21
-253.15446800000001
 31
0.0
  0
CIRCLE
  8
SIZE
  6
CONTINUOUS
 62
    30
 10
0.0
 20
-253.15446800000001
 30
0.0
 40
6.0
  0
LINE
  8
SIZE
  6
CONTINUOUS
 62
    30
 10
0.0
 20
-253.15446800000001
 30
0.0
 11
-12.0
 21
-253.15446800000001
 31
0.0
  0
CIRCLE
  8
SIZE
  6
CONTINUOUS
 62
    30
 10
-90.0
 20
-253.15446800000001
 30
0.0
 40
6.0
  0
LINE
  8
SIZE
  6
CONTINUOUS
 62
    30
 10
-90.0
 20
-253.15446800000001
 30
0.0
 11
-78.0
 21
-253.15446800000001
 31
0.0
  0
TEXT
  8
SIZE
  6
CONTINUOUS
 62
    30
 10
-220.25714285714281
 20
-228.15446800000001
 30
0.0
 40
64.0
  1
90
 41
0.9
 72
     1
 11
-173.62857142857141
 21
-228.15446800000001
 31
0.0
  0
POINT
  8
DEFPOINTS
  6
CONTINUOUS
 62
    30
 10
-90.0
 20
-20.0
 30
0.0
  0
POINT
  8
DEFPOINTS
  6
CONTINUOUS
 62
    30
 10
0.0
 20
-32.474236000000019
 30
0.0
  0
POINT
  8
DEFPOINTS
  6
CONTINUOUS
 62
    30
 10
0.0
 20
-253.15446800000001
 30
0.0
  0
LINE
  8
OUTLINE
  6
CONTINUOUS
 62
     3
 10
75.0
 20
0.0
 30
0.0
 11
71.889262000000144
 21
154.5
 31
0.0
  0
LINE
  8
OUTLINE
  6
CONTINUOUS
 62
     3
 10
71.889262000000144
 20
154.5
 30
0.0
 11
130.0
 21
154.5
 31
0.0
  0
LINE
  8
OUTLINE
  6
CONTINUOUS
 62
     3
 10
74.003356000000167
 20
49.5
 30
0.0
 11
130.0
 21
49.5
 31
0.0
  0
LINE
  8
OUTLINE
  6
CONTINUOUS
 62
     3
 10
160.0
 20
151.0
 30
0.0
 11
160.0
 21
53.0
 31
0.0
  0
LINE
  8
OUTLINE
  6
CONTINUOUS
 62
     3
 10
130.0
 20
154.5
 30
0.0
 11
130.0
 21
49.5
 31
0.0
  0
LINE
  8
OUTLINE
  6
CONTINUOUS
 62
     3
 10
130.0
 20
53.0
 30
0.0
 11
160.0
 21
53.0
 31
0.0
  0
LINE
  8
OUTLINE
  6
CONTINUOUS
 62
     3
 10
130.0
 20
151.0
 30
0.0
 11
160.0
 21
151.0
 31
0.0
  0
ENDSEC
  0
EOF
