  0
SECTION
  2
HEADER
  9
$ACADVER
  1
AC1009
  9
$DWGCODEPAGE
  3
dos932
  9
$INSBASE
 10
0.0
 20
0.0
 30
0.0
  9
$EXTMIN
 10
-488.08134314380908
 20
-475.52489067372522
 30
-0.0015258207003583
  9
$EXTMAX
 10
1468.322765988207
 20
582.55005684046773
 30
0.0000000349246037
  9
$LIMMIN
 10
-2970.0
 20
-2100.0
  9
$LIMMAX
 10
2970.0
 20
2100.0
  9
$ORTHOMODE
 70
     1
  9
$REGENMODE
 70
     1
  9
$FILLMODE
 70
     1
  9
$QTEXTMODE
 70
     0
  9
$MIRRTEXT
 70
     0
  9
$LTSCALE
 40
20.0
  9
$ATTMODE
 70
     1
  9
$TEXTSIZE
 40
64.0
  9
$TRACEWID
 40
0.05
  9
$TEXTSTYLE
  7
STANDARD
  9
$CLAYER
  8
SIZE
  9
$CELTYPE
  6
CONTINUOUS
  9
$CECOLOR
 62
     7
  9
$DIMSCALE
 40
1.0
  9
$DIMASZ
 40
12.0
  9
$DIMEXO
 40
20.0
  9
$DIMDLI
 40
200.0
  9
$DIMRND
 40
0.0
  9
$DIMDLE
 40
0.0
  9
$DIMEXE
 40
20.0
  9
$DIMTP
 40
0.0
  9
$DIMTM
 40
0.0
  9
$DIMTXT
 40
64.0
  9
$DIMCEN
 40
0.09
  9
$DIMTSZ
 40
0.0
  9
$DIMTOL
 70
     0
  9
$DIMLIM
 70
     0
  9
$DIMTIH
 70
     0
  9
$DIMTOH
 70
     0
  9
$DIMSE1
 70
     0
  9
$DIMSE2
 70
     0
  9
$DIMTAD
 70
     1
  9
$DIMZIN
 70
     8
  9
$DIMBLK
  1

  9
$DIMASO
 70
     1
  9
$DIMSHO
 70
     0
  9
$DIMPOST
  1

  9
$DIMAPOST
  1

  9
$DIMALT
 70
     0
  9
$DIMALTD
 70
     2
  9
$DIMALTF
 40
25.399999999999999
  9
$DIMLFAC
 40
1.0
  9
$DIMTOFL
 70
     1
  9
$DIMTVP
 40
0.0
  9
$DIMTIX
 70
     1
  9
$DIMSOXD
 70
     0
  9
$DIMSAH
 70
     0
  9
$DIMBLK1
  1

  9
$DIMBLK2
  1

  9
$DIMSTYLE
  2
STANDARD
  9
$DIMCLRD
 70
     7
  9
$DIMCLRE
 70
     7
  9
$DIMCLRT
 70
     7
  9
$DIMTFAC
 40
1.0
  9
$DIMGAP
 40
25.0
  9
$LUNITS
 70
     2
  9
$LUPREC
 70
     4
  9
$SKETCHINC
 40
0.1
  9
$FILLETRAD
 40
3.0
  9
$AUNITS
 70
     1
  9
$AUPREC
 70
     3
  9
$MENU
  1
ACAD
  9
$ELEVATION
 40
0.0
  9
$PELEVATION
 40
0.0
  9
$THICKNESS
 40
0.0
  9
$LIMCHECK
 70
     0
  9
$CHAMFERA
 40
0.0
  9
$CHAMFERB
 40
0.0
  9
$SKPOLY
 70
     0
  9
$TDCREATE
 40
2453019.62301037
  9
$TDUPDATE
 40
2459025.483095984
  9
$TDINDWG
 40
1.713488206
  9
$TDUSRTIMER
 40
1.713488206
  9
$USRTIMER
 70
     1
  9
$ANGBASE
 50
0.0
  9
$ANGDIR
 70
     0
  9
$PDMODE
 70
     3
  9
$PDSIZE
 40
-2.0
  9
$PLINEWID
 40
0.0
  9
$SPLFRAME
 70
     0
  9
$SPLINETYPE
 70
     6
  9
$SPLINESEGS
 70
     8
  9
$SURFTAB1
 70
     6
  9
$SURFTAB2
 70
     6
  9
$SURFTYPE
 70
     6
  9
$SURFU
 70
     6
  9
$SURFV
 70
     6
  9
$UCSNAME
  2

  9
$UCSORG
 10
0.0
 20
0.0
 30
0.0
  9
$UCSXDIR
 10
1.0
 20
0.0
 30
0.0
  9
$UCSYDIR
 10
0.0
 20
1.0
 30
0.0
  9
$PUCSNAME
  2

  9
$PUCSORG
 10
0.0
 20
0.0
 30
0.0
  9
$PUCSXDIR
 10
1.0
 20
0.0
 30
0.0
  9
$PUCSYDIR
 10
0.0
 20
1.0
 30
0.0
  9
$USERI1
 70
     0
  9
$USERI2
 70
     0
  9
$USERI3
 70
     0
  9
$USERI4
 70
     0
  9
$USERI5
 70
     0
  9
$USERR1
 40
20.0
  9
$USERR2
 40
0.0
  9
$USERR3
 40
0.0
  9
$USERR4
 40
0.0
  9
$USERR5
 40
0.0
  9
$WORLDVIEW
 70
     1
  9
$SHADEDGE
 70
     3
  9
$SHADEDIF
 70
    70
  9
$TILEMODE
 70
     1
  9
$MAXACTVP
 70
    48
  9
$PINSBASE
 10
0.0
 20
0.0
 30
0.0
  9
$PLIMCHECK
 70
     0
  9
$PEXTMIN
 10
-100000000000000000000.0
 20
-100000000000000000000.0
 30
-100000000000000000000.0
  9
$PEXTMAX
 10
100000000000000000000.0
 20
100000000000000000000.0
 30
100000000000000000000.0
  9
$PLIMMIN
 10
0.0
 20
0.0
  9
$PLIMMAX
 10
12.0
 20
9.0
  9
$UNITMODE
 70
     0
  9
$VISRETAIN
 70
     0
  9
$PLINEGEN
 70
     0
  9
$PSLTSCALE
 70
     0
  9
$TREEDEPTH
 70
  3020
  9
$ATTDIA
 70
     0
  9
$ATTREQ
 70
     1
  9
$BLIPMODE
 70
     1
  9
$COORDS
 70
     1
  9
$DRAGMODE
 70
     2
  9
$OSMODE
 70
     0
  9
$HANDLING
 70
     0
  9
$HANDSEED
  5
F0EA
  0
ENDSEC
  0
SECTION
  2
TABLES
  0
TABLE
  2
LTYPE
 70
     3
  0
LTYPE
  2
CONTINUOUS
 70
     0
  3
実線
 72
    65
 73
     0
 40
0.0
  0
LTYPE
  2
DASHDOT
 70
     0
  3
____ _ ____ _ ____ _ ____ _ ____ _ ____ _ ____
 72
    65
 73
     4
 40
5.5
 49
4.0
 49
-0.6
 49
0.3
 49
-0.6
  0
LTYPE
  2
CENTER
 70
     0
  3
Center ____ _ ____ _ ____ _ ____ _ ____ _ ____
 72
    65
 73
     4
 40
1.0
 49
0.5
 49
-0.25
 49
0.0
 49
-0.25
  0
ENDTAB
  0
TABLE
  2
LAYER
 70
    12
  0
LAYER
  2
0
 70
     0
 62
     7
  6
CONTINUOUS
  0
LAYER
  2
BASIS
 70
     0
 62
     6
  6
DASHDOT
  0
LAYER
  2
OUTLINE
 70
     0
 62
     3
  6
CONTINUOUS
  0
LAYER
  2
DETAIL
 70
     0
 62
     5
  6
CONTINUOUS
  0
LAYER
  2
SIZE
 70
     0
 62
    30
  6
CONTINUOUS
  0
LAYER
  2
ARRANGE
 70
     0
 62
     1
  6
CONTINUOUS
  0
LAYER
  2
DEFPOINTS
 70
     0
 62
     7
  6
CONTINUOUS
  0
LAYER
  2
ETC
 70
     0
 62
    61
  6
CONTINUOUS
  0
LAYER
  2
FIX
 70
     0
 62
    11
  6
CONTINUOUS
  0
LAYER
  2
NOTE
 70
     0
 62
     4
  6
CONTINUOUS
  0
LAYER
  2
SERVICESPACE
 70
    64
 62
     2
  6
DASHDOT
  0
LAYER
  2
SYMBOLLINE
 70
    64
 62
    15
  6
CONTINUOUS
  0
ENDTAB
  0
TABLE
  2
STYLE
 70
     1
  0
STYLE
  2
STANDARD
 70
     0
 40
64.0
 41
0.9
 50
0.0
 71
     0
 42
64.0
  3
SIMPLEX.shx
  4
BIGFONT.shx
  0
ENDTAB
  0
TABLE
  2
APPID
 70
    19
  0
APPID
  2
ACAD
 70
     0
  0
APPID
  2
AUTOCAD_POSTSCRIPT_FIGURE
 70
     0
  0
APPID
  2
ACAD_EXEMPT_FROM_CAD_STANDARDS
 70
     0
  0
APPID
  2
ACAD_PSEXT
 70
     0
  0
APPID
  2
ACAUTHENVIRON
 70
     0
  0
APPID
  2
GENIUS_GENOENT_13
 70
     0
  0
APPID
  2
GENIUS_GENCFG_13
 70
     0
  0
APPID
  2
GENIUS_GENCFG0_13
 70
     0
  0
APPID
  2
GENIUS_GENCFG1_13
 70
     0
  0
APPID
  2
GENIUS_GENCFG2_13
 70
     0
  0
APPID
  2
GENIUS_GENCFG3_13
 70
     0
  0
APPID
  2
GENIUS_GENCFG4_13
 70
     0
  0
APPID
  2
GENIUS_GEVCFG0_13
 70
     0
  0
APPID
  2
CONTENTBLOCKICON
 70
     0
  0
APPID
  2
CONTENTBLOCKDESCRIPTION
 70
     0
  0
APPID
  2
ACAD_NAV_VCDISPLAY
 70
     0
  0
APPID
  2
ACAD_MLEADERVER
 70
     0
  0
APPID
  2
ACDBDYNAMICBLOCKTRUENAME
 70
     0
  0
APPID
  2
ACDBDYNAMICBLOCKGUID
 70
     0
  0
ENDTAB
  0
TABLE
  2
DIMSTYLE
 70
     1
  0
DIMSTYLE
  2
STANDARD
 70
     0
  3

  4

  5
_ORIGIN
  6

  7

 40
1.0
 41
12.0
 42
20.0
 43
200.0
 44
20.0
 45
0.0
 46
0.0
 47
0.0
 48
0.0
140
64.0
141
0.09
142
0.0
143
25.399999999999999
144
1.0
145
0.0
146
1.0
147
25.0
 71
     0
 72
     0
 73
     0
 74
     0
 75
     0
 76
     0
 77
     1
 78
     8
170
     0
171
     2
172
     1
173
     0
174
     1
175
     0
176
     7
177
     7
178
     7
  0
ENDTAB
  0
TABLE
  2
VIEW
 70
     1
  0
VIEW
  2
ALL
 70
     0
 40
4282.6198079999986
 10
0.0
 20
41.309904000000003
 41
5940.0
 11
0.0
 21
0.0
 31
1.0
 12
0.0
 22
0.0
 32
0.0
 42
50.0
 43
0.0
 44
0.0
 50
0.0
 71
     0
  0
ENDTAB
  0
TABLE
  2
UCS
 70
     0
  0
ENDTAB
  0
TABLE
  2
VPORT
 70
     1
  0
VPORT
  2
*ACTIVE
 70
     0
 10
0.0
 20
0.0
 11
1.0
 21
1.0
 12
490.12071142219872
 22
53.512583083371283
 13
0.0
 23
0.0
 14
1.0
 24
1.0
 15
0.0
 25
0.0
 16
0.0
 26
0.0
 36
1.0
 17
0.0
 27
0.0
 37
0.0
 40
1123.60636420019
 41
1.747787610619469
 42
50.0
 43
0.0
 44
0.0
 50
0.0
 51
0.0
 71
     0
 72
  1000
 73
     1
 74
     3
 75
     0
 76
     0
 77
     0
 78
     0
  0
ENDTAB
  0
ENDSEC
  0
SECTION
  2
BLOCKS
  0
BLOCK
  8
0
  2
_ORIGIN
 70
     0
 10
0.0
 20
0.0
 30
0.0
  3
_ORIGIN
  1
_ORIGIN
  0
CIRCLE
  8
0
  6
CONTINUOUS
 62
     7
 10
0.0
 20
0.0
 30
0.0
 40
0.5
  0
LINE
  8
0
  6
CONTINUOUS
 62
     7
 10
0.0
 20
0.0
 30
0.0
 11
-1.0
 21
0.0
 31
0.0
  0
ENDBLK
  8
0
  0
ENDSEC
  0
SECTION
  2
ENTITIES
  0
CIRCLE
  8
ARRANGE
  6
CONTINUOUS
 62
     1
 10
0.0
 20
0.0
 30
0.0
 40
40.0
  0
POINT
  8
ARRANGE
  6
CONTINUOUS
 62
     1
 10
0.0
 20
0.0
 30
0.0
 50
90.0
  0
CIRCLE
  8
FIX
  6
CONTINUOUS
 62
    11
 10
-98.5
 20
0.0
 30
0.0
 40
5.0
  0
CIRCLE
  8
FIX
  6
CONTINUOUS
 62
    11
 10
-65.0
 20
0.0
 30
0.0
 40
5.0
  0
CIRCLE
  8
FIX
  6
CONTINUOUS
 62
    11
 10
98.5
 20
0.0
 30
0.0
 40
5.0
  0
CIRCLE
  8
FIX
  6
CONTINUOUS
 62
    11
 10
65.0
 20
0.0
 30
0.0
 40
5.0
  0
LINE
  8
SIZE
  6
CONTINUOUS
 62
    30
 10
-65.0
 20
-26.299110999999929
 30
0.0
 11
-65.0
 21
-221.43827958884049
 31
0.0
  0
LINE
  8
SIZE
  6
CONTINUOUS
 62
    30
 10
65.0
 20
-26.299110999999929
 30
0.0
 11
65.0
 21
-221.43827958884049
 31
0.0
  0
LINE
  8
SIZE
  6
CONTINUOUS
 62
    30
 10
-53.0
 20
-201.43827958884049
 30
0.0
 11
53.0
 21
-201.43827958884049
 31
0.0
  0
CIRCLE
  8
SIZE
  6
CONTINUOUS
 62
    30
 10
-65.0
 20
-201.43827958884049
 30
0.0
 40
6.0
  0
LINE
  8
SIZE
  6
CONTINUOUS
 62
    30
 10
-65.0
 20
-201.43827958884049
 30
0.0
 11
-53.0
 21
-201.43827958884049
 31
0.0
  0
CIRCLE
  8
SIZE
  6
CONTINUOUS
 62
    30
 10
65.0
 20
-201.43827958884049
 30
0.0
 40
6.0
  0
LINE
  8
SIZE
  6
CONTINUOUS
 62
    30
 10
65.0
 20
-201.43827958884049
 30
0.0
 11
53.0
 21
-201.43827958884049
 31
0.0
  0
TEXT
  8
SIZE
  6
CONTINUOUS
 62
    30
 10
-68.571428571428569
 20
-176.43827958884049
 30
0.0
 40
64.0
  1
130
 41
0.9
 72
     1
 11
0.0
 21
-176.43827958884049
 31
0.0
  0
POINT
  8
DEFPOINTS
  6
CONTINUOUS
 62
    30
 10
-65.0
 20
-6.2991109999999253
 30
0.0
  0
POINT
  8
DEFPOINTS
  6
CONTINUOUS
 62
    30
 10
65.0
 20
-6.2991109999999253
 30
0.0
  0
POINT
  8
DEFPOINTS
  6
CONTINUOUS
 62
    30
 10
65.0
 20
-201.43827958884049
 30
0.0
  0
LINE
  8
SIZE
  6
CONTINUOUS
 62
    30
 10
-98.5
 20
-26.299110999999929
 30
0.0
 11
-98.5
 21
-348.42852865552487
 31
0.0
  0
LINE
  8
SIZE
  6
CONTINUOUS
 62
    30
 10
98.5
 20
-26.299110999999929
 30
0.0
 11
98.5
 21
-348.42852865552487
 31
0.0
  0
LINE
  8
SIZE
  6
CONTINUOUS
 62
    30
 10
-86.5
 20
-328.42852865552487
 30
0.0
 11
86.5
 21
-328.42852865552487
 31
0.0
  0
CIRCLE
  8
SIZE
  6
CONTINUOUS
 62
    30
 10
-98.5
 20
-328.42852865552487
 30
0.0
 40
6.0
  0
LINE
  8
SIZE
  6
CONTINUOUS
 62
    30
 10
-98.5
 20
-328.42852865552487
 30
0.0
 11
-86.5
 21
-328.42852865552487
 31
0.0
  0
CIRCLE
  8
SIZE
  6
CONTINUOUS
 62
    30
 10
98.5
 20
-328.42852865552487
 30
0.0
 40
6.0
  0
LINE
  8
SIZE
  6
CONTINUOUS
 62
    30
 10
98.5
 20
-328.42852865552487
 30
0.0
 11
86.5
 21
-328.42852865552487
 31
0.0
  0
TEXT
  8
SIZE
  6
CONTINUOUS
 62
    30
 10
-68.571428571428569
 20
-303.42852865552487
 30
0.0
 40
64.0
  1
197
 41
0.9
 72
     1
 11
0.0
 21
-303.42852865552487
 31
0.0
  0
POINT
  8
DEFPOINTS
  6
CONTINUOUS
 62
    30
 10
-98.5
 20
-6.2991109999999253
 30
0.0
  0
POINT
  8
DEFPOINTS
  6
CONTINUOUS
 62
    30
 10
98.5
 20
-6.2991109999999253
 30
0.0
  0
POINT
  8
DEFPOINTS
  6
CONTINUOUS
 62
    30
 10
98.5
 20
-328.42852865552487
 30
0.0
  0
LINE
  8
SIZE
  6
CONTINUOUS
 62
    30
 10
-85.400000741408462
 20
170.5069448707213
 30
0.0
 11
-85.400000741408462
 21
251.19095775359611
 31
0.0
  0
LINE
  8
SIZE
  6
CONTINUOUS
 62
    30
 10
85.399999741409033
 20
170.5069448707192
 30
0.0
 11
85.399999741409033
 21
251.19095775359611
 31
0.0
  0
LINE
  8
SIZE
  6
CONTINUOUS
 62
    30
 10
-97.400000741408462
 20
231.19095775359611
 30
0.0
 11
-109.4000007414086
 21
231.19095775359611
 31
0.0
  0
LINE
  8
SIZE
  6
CONTINUOUS
 62
    30
 10
97.399999741409033
 20
231.19095775359611
 30
0.0
 11
109.3999997414091
 21
231.19095775359611
 31
0.0
  0
LINE
  8
SIZE
  6
CONTINUOUS
 62
    30
 10
-85.400000741408462
 20
231.19095775359611
 30
0.0
 11
85.399999741409033
 21
231.19095775359611
 31
0.0
  0
CIRCLE
  8
SIZE
  6
CONTINUOUS
 62
    30
 10
-85.400000741408462
 20
231.19095775359611
 30
0.0
 40
6.0
  0
LINE
  8
SIZE
  6
CONTINUOUS
 62
    30
 10
-85.400000741408462
 20
231.19095775359611
 30
0.0
 11
-97.400000741408462
 21
231.19095775359611
 31
0.0
  0
CIRCLE
  8
SIZE
  6
CONTINUOUS
 62
    30
 10
85.399999741409033
 20
231.19095775359611
 30
0.0
 40
6.0
  0
LINE
  8
SIZE
  6
CONTINUOUS
 62
    30
 10
85.399999741409033
 20
231.19095775359611
 30
0.0
 11
97.399999741409033
 21
231.19095775359611
 31
0.0
  0
TEXT
  8
SIZE
  6
CONTINUOUS
 62
    30
 10
-92.708571928571146
 20
256.19095775359608
 30
0.0
 40
64.0
  1
□171
 41
0.9
 72
     1
 11
-0.0000004999997145
 21
256.19095775359608
 31
0.0
  0
POINT
  8
DEFPOINTS
  6
CONTINUOUS
 62
    30
 10
-85.400000741408462
 20
150.5069448707213
 30
0.0
  0
POINT
  8
DEFPOINTS
  6
CONTINUOUS
 62
    30
 10
85.399999741409033
 20
150.5069448707192
 30
0.0
  0
POINT
  8
DEFPOINTS
  6
CONTINUOUS
 62
    30
 10
85.399999741409033
 20
231.19095775359611
 30
0.0
  0
LINE
  8
SIZE
  6
CONTINUOUS
 62
    30
 10
-55.950041000000063
 20
178.50009799999989
 30
0.0
 11
-200.9602371864712
 21
178.50009800000001
 31
0.0
  0
LINE
  8
SIZE
  6
CONTINUOUS
 62
    30
 10
-144.4731100000001
 20
0.0
 30
0.0
 11
-200.9602371864712
 21
0.0
 31
0.0
  0
LINE
  8
SIZE
  6
CONTINUOUS
 62
    30
 10
-180.9602371864712
 20
190.50009800000001
 30
0.0
 11
-180.96023718647109
 21
202.50009800000001
 31
0.0
  0
LINE
  8
SIZE
  6
CONTINUOUS
 62
    30
 10
-180.9602371864712
 20
-12.0
 30
0.0
 11
-180.9602371864712
 21
-24.0
 31
0.0
  0
LINE
  8
SIZE
  6
CONTINUOUS
 62
    30
 10
-180.9602371864712
 20
178.50009800000001
 30
0.0
 11
-180.9602371864712
 21
0.0
 31
0.0
  0
CIRCLE
  8
SIZE
  6
CONTINUOUS
 62
    30
 10
-180.9602371864712
 20
178.50009800000001
 30
0.0
 40
6.0
  0
LINE
  8
SIZE
  6
CONTINUOUS
 62
    30
 10
-180.9602371864712
 20
178.50009800000001
 30
0.0
 11
-180.9602371864712
 21
190.50009800000001
 31
0.0
  0
CIRCLE
  8
SIZE
  6
CONTINUOUS
 62
    30
 10
-180.9602371864712
 20
0.0
 30
0.0
 40
6.0
  0
LINE
  8
SIZE
  6
CONTINUOUS
 62
    30
 10
-180.9602371864712
 20
0.0
 30
0.0
 11
-180.9602371864712
 21
-12.0
 31
0.0
  0
TEXT
  8
SIZE
  6
CONTINUOUS
 62
    30
 10
-205.9602371864712
 20
22.050049000000001
 30
0.0
 40
64.0
  1
179
 50
90.0
 41
0.9
 72
     1
 11
-205.9602371864712
 21
89.25004899999999
 31
0.0
  0
POINT
  8
DEFPOINTS
  6
CONTINUOUS
 62
    30
 10
-35.950041000000063
 20
178.50009799999989
 30
0.0
  0
POINT
  8
DEFPOINTS
  6
CONTINUOUS
 62
    30
 10
-124.4731100000001
 20
0.0
 30
0.0
  0
POINT
  8
DEFPOINTS
  6
CONTINUOUS
 62
    30
 10
-180.9602371864712
 20
0.0
 30
0.0
  0
LINE
  8
NOTE
  6
CONTINUOUS
 62
     4
 10
98.500000995144319
 20
-0.0000030392055805
 30
0.0
 11
233.04718597822651
 21
151.43284262957459
 31
0.0
  0
LINE
  8
NOTE
  6
CONTINUOUS
 62
     4
 10
98.500000995144319
 20
-0.0000030392055805
 30
0.0
 11
129.81274634272339
 21
22.68341937967784
 31
0.0
  0
LINE
  8
NOTE
  6
CONTINUOUS
 62
     4
 10
117.4952756891678
 20
35.199293294555559
 30
0.0
 11
98.500000995144319
 21
-0.0000030392055805
 31
0.0
  0
TEXT
  8
NOTE
  6
CONTINUOUS
 62
     4
 10
-449.83854014151382
 20
378.03870505670938
 30
0.0
 40
64.0
  1
EL
 41
0.9
  0
LINE
  8
NOTE
  6
CONTINUOUS
 62
     4
 10
-487.95302647396932
 20
344.16876070843318
 30
0.0
 11
-319.42853494755042
 21
344.1687607084757
 31
0.0
  0
LINE
  8
NOTE
  6
CONTINUOUS
 62
     4
 10
-67.0
 20
139.96927000000031
 30
0.0
 11
-319.42853494755042
 21
344.1687607084757
 31
0.0
  0
LINE
  8
NOTE
  6
CONTINUOUS
 62
     4
 10
-67.0
 20
139.96927000000031
 30
0.0
 11
-88.062840903167398
 21
172.44035085068839
 31
0.0
  0
LINE
  8
NOTE
  6
CONTINUOUS
 62
     4
 10
-104.2614939633156
 20
154.3255561387659
 30
0.0
 11
-67.0
 21
139.96927000000031
 31
0.0
  0
LINE
  8
OUTLINE
  6
CONTINUOUS
 62
     3
 10
-41.450040499999893
 20
170.5316499999999
 30
0.0
 11
-65.400015499999427
 21
170.5316499999999
 31
0.0
  0
LINE
  8
OUTLINE
  6
CONTINUOUS
 62
     3
 10
-41.450040499999893
 20
170.5316499999999
 30
0.0
 11
-41.450040499999893
 21
173.00009799999989
 31
0.0
  0
LINE
  8
OUTLINE
  6
CONTINUOUS
 62
     3
 10
21.449959500000201
 20
170.5316499999999
 30
0.0
 11
65.400015500000336
 21
170.5316499999999
 31
0.0
  0
LINE
  8
OUTLINE
  6
CONTINUOUS
 62
     3
 10
21.449959500000201
 20
173.00009799999989
 30
0.0
 11
21.449959500000201
 21
170.5316499999999
 31
0.0
  0
LINE
  8
OUTLINE
  6
CONTINUOUS
 62
     3
 10
85.40000050000026
 20
150.55635599999991
 30
0.0
 11
85.40000050000026
 21
-0.0000000000000568
 31
0.0
  0
LINE
  8
OUTLINE
  6
CONTINUOUS
 62
     3
 10
-85.399999499999467
 20
150.55635599999991
 30
0.0
 11
-85.399999499999467
 21
-0.0000000000000568
 31
0.0
  0
ARC
  8
OUTLINE
  6
CONTINUOUS
 62
     3
 10
65.400015500000336
 20
150.5316499999999
 30
0.0
 40
20.0
 50
359.92922499999531
 51
90.0
  0
ARC
  8
OUTLINE
  6
CONTINUOUS
 62
     3
 10
-65.400015499999427
 20
150.5316499999999
 30
0.0
 40
20.0
 50
90.0
 51
180.07077499999821
  0
ARC
  8
OUTLINE
  6
CONTINUOUS
 62
     3
 10
-35.950040499999893
 20
173.00009799999989
 30
0.0
 40
5.5
 50
90.0
 51
180.0
  0
LINE
  8
OUTLINE
  6
CONTINUOUS
 62
     3
 10
15.9498035000006
 20
178.50009799999989
 30
0.0
 11
-35.950040499999893
 21
178.50009799999989
 31
0.0
  0
ARC
  8
OUTLINE
  6
CONTINUOUS
 62
     3
 10
15.949959500000199
 20
173.00009799999989
 30
0.0
 40
5.5
 50
0.0
 51
90.0
  0
LINE
  8
NOTE
  6
CENTER
 62
     4
 10
-66.999999499999831
 20
133.49025800000001
 30
0.0
 11
-66.999999499999831
 21
146.44828200000009
 31
0.0
  0
LINE
  8
DETAIL
  6
CONTINUOUS
 62
     5
 10
-41.450040499999893
 20
170.5316500000001
 30
0.0
 11
-65.400015499999427
 21
170.5316500000001
 31
0.0
  0
LINE
  8
DETAIL
  6
CONTINUOUS
 62
     5
 10
-41.450040499999893
 20
140.0
 30
0.0
 11
-41.450040499999893
 21
173.00009800000001
 31
0.0
  0
LINE
  8
DETAIL
  6
CONTINUOUS
 62
     5
 10
21.449959500000201
 20
173.00009800000001
 30
0.0
 11
21.449959500000201
 21
140.0
 31
0.0
  0
LINE
  8
DETAIL
  6
CONTINUOUS
 62
     5
 10
21.449959500000201
 20
170.5316500000001
 30
0.0
 11
65.400015500000336
 21
170.5316500000001
 31
0.0
  0
LINE
  8
DETAIL
  6
CONTINUOUS
 62
     5
 10
-85.399999499999467
 20
140.0
 30
0.0
 11
85.40000050000026
 21
140.0
 31
0.0
  0
LINE
  8
NOTE
  6
CENTER
 62
     4
 10
-64.999999499999831
 20
-4.7364509999999882
 30
0.0
 11
-64.999999499999831
 21
3.7231570000000151
 31
0.0
  0
LINE
  8
NOTE
  6
CENTER
 62
     4
 10
-98.499999499999831
 20
-4.7364509999999882
 30
0.0
 11
-98.499999499999831
 21
3.7231570000000151
 31
0.0
  0
LINE
  8
NOTE
  6
CENTER
 62
     4
 10
98.500000500000169
 20
-4.7364509999999882
 30
0.0
 11
98.500000500000169
 21
3.7231570000000151
 31
0.0
  0
LINE
  8
NOTE
  6
CENTER
 62
     4
 10
65.000000500000169
 20
-4.7364509999999882
 30
0.0
 11
65.000000500000169
 21
3.7231570000000151
 31
0.0
  0
LINE
  8
DETAIL
  6
CONTINUOUS
 62
     5
 10
85.40000050000026
 20
150.55635600000019
 30
0.0
 11
85.40000050000026
 21
0.0
 31
0.0
  0
LINE
  8
DETAIL
  6
CONTINUOUS
 62
     5
 10
-85.399999499999467
 20
150.55635600000019
 30
0.0
 11
-85.399999499999467
 21
0.0
 31
0.0
  0
ARC
  8
DETAIL
  6
CONTINUOUS
 62
     5
 10
65.400015500000336
 20
150.5316500000001
 30
0.0
 40
20.0
 50
359.92922499999531
 51
90.0
  0
ARC
  8
DETAIL
  6
CONTINUOUS
 62
     5
 10
-65.400015499999427
 20
150.5316500000001
 30
0.0
 40
20.0
 50
90.0
 51
180.07077499999821
  0
ARC
  8
DETAIL
  6
CONTINUOUS
 62
     5
 10
-35.950040499999893
 20
173.00009800000001
 30
0.0
 40
5.5
 50
90.0
 51
180.0
  0
LINE
  8
DETAIL
  6
CONTINUOUS
 62
     5
 10
15.9498035000006
 20
178.50009800000001
 30
0.0
 11
-35.950040499999893
 21
178.50009800000001
 31
0.0
  0
ARC
  8
DETAIL
  6
CONTINUOUS
 62
     5
 10
15.949959500000199
 20
173.00009800000001
 30
0.0
 40
5.5
 50
0.0
 51
90.0
  0
LINE
  8
BASIS
  6
DASHDOT
 62
     6
 10
0.0000005000001693
 20
-18.96601899999996
 30
0.0
 11
0.0000005000001693
 21
190.66313500000001
 31
0.0
  0
LINE
  8
DETAIL
  6
CONTINUOUS
 62
     5
 10
111.6000065000003
 20
-0.5
 30
0.0
 11
111.6000065000003
 21
0.0
 31
0.0
  0
LINE
  8
DETAIL
  6
CONTINUOUS
 62
     5
 10
-111.60000649999979
 20
-0.5
 30
0.0
 11
111.6000065000003
 21
-0.5
 31
0.0
  0
LINE
  8
DETAIL
  6
CONTINUOUS
 62
     5
 10
-111.60000649999979
 20
0.0
 30
0.0
 11
111.6000065000003
 21
0.0
 31
0.0
  0
LINE
  8
DETAIL
  6
CONTINUOUS
 62
     5
 10
-111.60000649999979
 20
-0.5
 30
0.0
 11
-111.60000649999979
 21
0.0
 31
0.0
  0
LINE
  8
OUTLINE
  6
CONTINUOUS
 62
     3
 10
111.6000065000003
 20
-0.5000000000000568
 30
0.0
 11
111.6000065000003
 21
-0.0000000000000568
 31
0.0
  0
LINE
  8
OUTLINE
  6
CONTINUOUS
 62
     3
 10
-111.60000649999979
 20
-0.5000000000000568
 30
0.0
 11
111.6000065000003
 21
-0.5000000000000568
 31
0.0
  0
LINE
  8
OUTLINE
  6
CONTINUOUS
 62
     3
 10
-111.60000649999979
 20
-0.5000000000000568
 30
0.0
 11
-111.60000649999979
 21
-0.0000000000000568
 31
0.0
  0
LINE
  8
OUTLINE
  6
CONTINUOUS
 62
     3
 10
-111.60000649999979
 20
-0.0000000000000568
 30
0.0
 11
-85.399999499999467
 21
-0.0000000000000568
 31
0.0
  0
LINE
  8
OUTLINE
  6
CONTINUOUS
 62
     3
 10
85.40000050000026
 20
-0.0000000000000568
 30
0.0
 11
111.6000065000003
 21
-0.0000000000000568
 31
0.0
  0
LINE
  8
SIZE
  6
CONTINUOUS
 62
    30
 10
-111.60000649999979
 20
-20.50000000000006
 30
0.0
 11
-111.60000649999991
 21
-475.31231432728868
 31
0.0
  0
LINE
  8
SIZE
  6
CONTINUOUS
 62
    30
 10
111.6000065000003
 20
-20.50000000000006
 30
0.0
 11
111.6000065000003
 21
-475.31231432728868
 31
0.0
  0
LINE
  8
SIZE
  6
CONTINUOUS
 62
    30
 10
-99.600006499999836
 20
-455.31231432728868
 30
0.0
 11
99.600006500000291
 21
-455.31231432728868
 31
0.0
  0
CIRCLE
  8
SIZE
  6
CONTINUOUS
 62
    30
 10
-111.60000649999991
 20
-455.31231432728868
 30
0.0
 40
6.0
  0
LINE
  8
SIZE
  6
CONTINUOUS
 62
    30
 10
-111.60000649999991
 20
-455.31231432728868
 30
0.0
 11
-99.600006499999836
 21
-455.31231432728868
 31
0.0
  0
CIRCLE
  8
SIZE
  6
CONTINUOUS
 62
    30
 10
111.6000065000003
 20
-455.31231432728868
 30
0.0
 40
6.0
  0
LINE
  8
SIZE
  6
CONTINUOUS
 62
    30
 10
111.6000065000003
 20
-455.31231432728868
 30
0.0
 11
99.600006500000291
 21
-455.31231432728868
 31
0.0
  0
TEXT
  8
SIZE
  6
CONTINUOUS
 62
    30
 10
-74.057142857142608
 20
-430.31231432728868
 30
0.0
 40
64.0
  1
223
 41
0.9
 72
     1
 11
0.0000000000002274
 21
-430.31231432728868
 31
0.0
  0
POINT
  8
DEFPOINTS
  6
CONTINUOUS
 62
    30
 10
-111.60000649999979
 20
-0.5000000000000568
 30
0.0
  0
POINT
  8
DEFPOINTS
  6
CONTINUOUS
 62
    30
 10
111.6000065000003
 20
-0.5000000000000568
 30
0.0
  0
POINT
  8
DEFPOINTS
  6
CONTINUOUS
 62
    30
 10
111.6000065000003
 20
-455.31231432728868
 30
0.0
  0
TEXT
  8
NOTE
  6
CONTINUOUS
 62
     4
 10
261.4728989965356
 20
191.91569944084361
 30
0.0
 40
63.999999999999993
  1
8-φ5×10
 41
0.9
  0
LINE
  8
NOTE
  6
CONTINUOUS
 62
     4
 10
732.22634586824802
 20
151.43283138102251
 30
0.0
 11
233.04718597822651
 21
151.43284262957459
 31
0.0
  0
TEXT
  8
ETC
  6
CONTINUOUS
 62
    61
 10
773.9737617859696
 20
518.5271515849812
 30
0.0
 40
64.0
  1
VD-10Z13-IN_3
 41
0.9
  0
TEXT
  8
ETC
  6
CONTINUOUS
 62
    61
 10
769.78776778596921
 20
400.5718415701499
 30
0.0
 40
64.0
  1
換気扇
 41
0.9
  0
TEXT
  8
ETC
  6
CONTINUOUS
 62
    61
 10
820.48916603452517
 20
292.42306868392478
 30
0.0
 40
40.0
  1
VD-10Z13-IN
 41
0.9
  0
ENDSEC
  0
EOF
