  0
SECTION
  2
HEADER
  9
$ACADVER
  1
AC1009
  9
$INSBASE
 10
0.0
 20
0.0
 30
0.0
  9
$EXTMIN
 10
-967.2417882038535
 20
-495.64233999999999
 30
0.0
  9
$EXTMAX
 10
925.21433685714271
 20
865.16876500000035
 30
50.0
  9
$LIMMIN
 10
-2970.0
 20
-2100.0
  9
$LIMMAX
 10
2970.0
 20
2100.0
  9
$ORTHOMODE
 70
     1
  9
$REGENMODE
 70
     0
  9
$FILLMODE
 70
     1
  9
$QTEXTMODE
 70
     0
  9
$MIRRTEXT
 70
     0
  9
$DRAGMODE
 70
     2
  9
$LTSCALE
 40
20.0
  9
$OSMODE
 70
   167
  9
$ATTMODE
 70
     1
  9
$TEXTSIZE
 40
64.0
  9
$TRACEWID
 40
0.05
  9
$TEXTSTYLE
  7
STANDARD
  9
$CLAYER
  8
SIZE
  9
$CELTYPE
  6
CONTINUOUS
  9
$CECOLOR
 62
    30
  9
$DIMSCALE
 40
1.0
  9
$DIMASZ
 40
12.0
  9
$DIMEXO
 40
20.0
  9
$DIMDLI
 40
200.0
  9
$DIMRND
 40
0.0
  9
$DIMDLE
 40
0.0
  9
$DIMEXE
 40
20.0
  9
$DIMTP
 40
0.0
  9
$DIMTM
 40
0.0
  9
$DIMTXT
 40
64.0
  9
$DIMCEN
 40
0.09
  9
$DIMTSZ
 40
0.0
  9
$DIMTOL
 70
     0
  9
$DIMLIM
 70
     0
  9
$DIMTIH
 70
     0
  9
$DIMTOH
 70
     0
  9
$DIMSE1
 70
     0
  9
$DIMSE2
 70
     0
  9
$DIMTAD
 70
     1
  9
$DIMZIN
 70
     8
  9
$DIMBLK
  1
DOT1
  9
$DIMASO
 70
     1
  9
$DIMSHO
 70
     0
  9
$DIMPOST
  1

  9
$DIMAPOST
  1

  9
$DIMALT
 70
     0
  9
$DIMALTD
 70
     2
  9
$DIMALTF
 40
25.399999999999999
  9
$DIMLFAC
 40
1.0
  9
$DIMTOFL
 70
     1
  9
$DIMTVP
 40
0.0
  9
$DIMTIX
 70
     1
  9
$DIMSOXD
 70
     0
  9
$DIMSAH
 70
     1
  9
$DIMBLK1
  1
ORIGIN
  9
$DIMBLK2
  1
ORIGIN
  9
$DIMSTYLE
  2
STANDARD
  9
$DIMCLRD
 70
     7
  9
$DIMCLRE
 70
     7
  9
$DIMCLRT
 70
     7
  9
$DIMTFAC
 40
1.0
  9
$DIMGAP
 40
25.0
  9
$LUNITS
 70
     2
  9
$LUPREC
 70
     4
  9
$SKETCHINC
 40
0.1
  9
$FILLETRAD
 40
15.0
  9
$AUNITS
 70
     1
  9
$AUPREC
 70
     3
  9
$MENU
  1
ACAD
  9
$ELEVATION
 40
0.0
  9
$PELEVATION
 40
0.0
  9
$THICKNESS
 40
50.0
  9
$LIMCHECK
 70
     0
  9
$BLIPMODE
 70
     0
  9
$CHAMFERA
 40
0.0
  9
$CHAMFERB
 40
0.0
  9
$SKPOLY
 70
     0
  9
$TDCREATE
 40
2453111.4692612621
  9
$TDUPDATE
 40
2454146.4376269439
  9
$TDINDWG
 40
0.0260007407
  9
$TDUSRTIMER
 40
0.0260007407
  9
$USRTIMER
 70
     1
  9
$ANGBASE
 50
0.0
  9
$ANGDIR
 70
     0
  9
$PDMODE
 70
     3
  9
$PDSIZE
 40
-2.0
  9
$PLINEWID
 40
0.0
  9
$COORDS
 70
     1
  9
$SPLFRAME
 70
     0
  9
$SPLINETYPE
 70
     6
  9
$SPLINESEGS
 70
     8
  9
$ATTDIA
 70
     0
  9
$ATTREQ
 70
     1
  9
$HANDLING
 70
 22529
  9
$HANDSEED
  5
235
  9
$SURFTAB1
 70
     6
  9
$SURFTAB2
 70
     6
  9
$SURFTYPE
 70
     6
  9
$SURFU
 70
     6
  9
$SURFV
 70
     6
  9
$UCSNAME
  2

  9
$UCSORG
 10
0.0
 20
0.0
 30
0.0
  9
$UCSXDIR
 10
1.0
 20
0.0
 30
0.0
  9
$UCSYDIR
 10
0.0
 20
1.0
 30
0.0
  9
$PUCSNAME
  2

  9
$PUCSORG
 10
0.0
 20
0.0
 30
0.0
  9
$PUCSXDIR
 10
1.0
 20
0.0
 30
0.0
  9
$PUCSYDIR
 10
0.0
 20
1.0
 30
0.0
  9
$USERI1
 70
     0
  9
$USERI2
 70
     0
  9
$USERI3
 70
     0
  9
$USERI4
 70
     0
  9
$USERI5
 70
     0
  9
$USERR1
 40
20.0
  9
$USERR2
 40
0.0
  9
$USERR3
 40
0.0
  9
$USERR4
 40
0.0
  9
$USERR5
 40
0.0
  9
$WORLDVIEW
 70
     1
  9
$SHADEDGE
 70
     3
  9
$SHADEDIF
 70
    70
  9
$TILEMODE
 70
     1
  9
$MAXACTVP
 70
    48
  9
$PLIMCHECK
 70
     0
  9
$PEXTMIN
 10
-1.0000000000000000E+020
 20
-1.0000000000000000E+020
 30
-1.0000000000000000E+020
  9
$PEXTMAX
 10
1.0000000000000000E+020
 20
1.0000000000000000E+020
 30
1.0000000000000000E+020
  9
$PLIMMIN
 10
0.0
 20
0.0
  9
$PLIMMAX
 10
12.0
 20
9.0
  9
$UNITMODE
 70
     0
  9
$VISRETAIN
 70
     0
  9
$PLINEGEN
 70
     0
  9
$PSLTSCALE
 70
     0
  0
ENDSEC
  0
SECTION
  2
TABLES
  0
TABLE
  2
VPORT
 70
     3
  0
VPORT
  2
*ACTIVE
 70
     0
 10
0.0
 20
0.0
 11
1.0
 21
1.0
 12
30.650483905847519
 22
184.73053999999999
 13
0.0
 23
0.0
 14
1.0
 24
1.0
 15
0.0
 25
0.0
 16
0.0
 26
0.0
 36
1.0
 17
0.0
 27
0.0
 37
0.0
 40
1371.353967361418
 41
1.710526315789473
 42
50.0
 43
0.0
 44
0.0
 50
0.0
 51
0.0
 71
     0
 72
  1000
 73
     1
 74
     0
 75
     0
 76
     0
 77
     0
 78
     0
  0
ENDTAB
  0
TABLE
  2
LTYPE
 70
     4
  0
LTYPE
  2
CONTINUOUS
 70
     0
  3
Ä└É³
 72
    65
 73
     0
 40
0.0
  0
LTYPE
  2
DASHDOT
 70
     0
  3
____ _ ____ _ ____ _ ____ _ ____ _ ____ _ ____
 72
    65
 73
     4
 40
5.5
 49
4.0
 49
-0.6
 49
0.3
 49
-0.6
  0
LTYPE
  2
DASHED
 70
     0
  3
-- -- -- -- -- -- -- -- -- -- -- -- -- -- --
 72
    65
 73
     2
 40
0.75
 49
0.5
 49
-0.25
  0
LTYPE
  2
CONTINOUS
 70
     0
  3
Solid line
 72
    65
 73
     0
 40
0.0
  0
ENDTAB
  0
TABLE
  2
LAYER
 70
    12
  0
LAYER
  2
0
 70
     0
 62
     7
  6
CONTINUOUS
  0
LAYER
  2
SIZE
 70
     0
 62
    30
  6
CONTINUOUS
  0
LAYER
  2
BASIS
 70
     0
 62
     6
  6
DASHDOT
  0
LAYER
  2
OUTLINE
 70
     0
 62
     3
  6
CONTINUOUS
  0
LAYER
  2
DETAIL
 70
     0
 62
     5
  6
CONTINUOUS
  0
LAYER
  2
ARRANGE
 70
     0
 62
     1
  6
CONTINUOUS
  0
LAYER
  2
DEFPOINTS
 70
     0
 62
     7
  6
CONTINUOUS
  0
LAYER
  2
ETC
 70
     0
 62
    61
  6
CONTINUOUS
  0
LAYER
  2
FIX
 70
     0
 62
    11
  6
CONTINUOUS
  0
LAYER
  2
NOTE
 70
     0
 62
     4
  6
CONTINUOUS
  0
LAYER
  2
SERVICESPACE
 70
     0
 62
     2
  6
DASHDOT
  0
LAYER
  2
SYMBOLLINE
 70
     0
 62
    15
  6
CONTINUOUS
  0
ENDTAB
  0
TABLE
  2
STYLE
 70
     1
  0
STYLE
  2
STANDARD
 70
     0
 40
64.0
 41
0.9
 50
0.0
 71
     0
 42
64.0
  3
SIMPLEX.shx
  4
BIGFONT.shx
  0
ENDTAB
  0
TABLE
  2
VIEW
 70
     1
  0
VIEW
  2
ALL
 70
     0
 40
4282.6198079999986
 10
0.0
 20
41.309903999999989
 41
5940.0
 11
0.0
 21
0.0
 31
1.0
 12
0.0
 22
0.0
 32
0.0
 42
50.0
 43
0.0
 44
0.0
 50
0.0
 71
     0
  0
ENDTAB
  0
TABLE
  2
UCS
 70
     0
  0
ENDTAB
  0
TABLE
  2
APPID
 70
     2
  0
APPID
  2
ACAD
 70
     0
  0
APPID
  2
AUTOCAD_POSTSCRIPT_FIGURE
 70
     0
  0
ENDTAB
  0
TABLE
  2
DIMSTYLE
 70
     1
  0
DIMSTYLE
  2
STANDARD
 70
     0
  3

  4

  5

  6

  7

 40
1.0
 41
0.18
 42
0.0625
 43
0.38
 44
0.18
 45
0.0
 46
0.0
 47
0.0
 48
0.0
140
0.18
141
0.09
142
0.0
143
25.399999999999999
144
1.0
145
0.0
146
1.0
147
0.09
 71
     0
 72
     0
 73
     1
 74
     1
 75
     0
 76
     0
 77
     0
 78
     0
170
     0
171
     2
172
     0
173
     0
174
     0
175
     0
176
     7
177
     7
178
     7
  0
ENDTAB
  0
ENDSEC
  0
SECTION
  2
BLOCKS
  0
BLOCK
  8
0
  2
$MODEL_SPACE
 70
     0
 10
0.0
 20
0.0
 30
0.0
  3
$MODEL_SPACE
  1

  0
ENDBLK
  5
20
  8
0
  0
BLOCK
 67
     1
  8
0
  2
$PAPER_SPACE
 70
     0
 10
0.0
 20
0.0
 30
0.0
  3
$PAPER_SPACE
  1

  0
ENDBLK
  5
1C
 67
     1
  8
0
  0
BLOCK
  8
0
  2
DOT1
 70
     0
 10
0.0
 20
0.0
 30
0.0
  3
DOT1
  1

  0
CIRCLE
  5
38
  8
SIZE
  6
CONTINUOUS
 62
     7
 10
0.0
 20
0.0
 30
0.0
 40
3.0
  0
ENDBLK
  5
39
  8
0
  0
BLOCK
  8
0
  2
_ORIGIN
 70
     0
 10
0.0
 20
0.0
 30
0.0
  3
_ORIGIN
  1

  0
CIRCLE
  5
3C
  8
0
  6
CONTINUOUS
 62
     7
 10
0.0
 20
0.0
 30
0.0
 40
0.5
  0
LINE
  5
3D
  8
0
  6
CONTINUOUS
 62
     7
 10
0.0
 20
0.0
 30
0.0
 11
-1.0
 21
0.0
 31
0.0
  0
ENDBLK
  5
3E
  8
0
  0
ENDSEC
  0
SECTION
  2
ENTITIES
  0
LINE
  5
42
  8
DETAIL
  6
CONTINUOUS
 62
     5
 10
89.500000000000014
 20
179.49999999999989
 30
0.0
 11
89.500000000000014
 21
0.0
 31
0.0
  0
LINE
  5
43
  8
DETAIL
  6
CONTINUOUS
 62
     5
 10
116.5
 20
186.5
 30
0.0
 11
116.5
 21
182.5
 31
0.0
  0
LINE
  5
44
  8
DETAIL
  6
CONTINUOUS
 62
     5
 10
116.5
 20
186.5
 30
0.0
 11
90.5
 21
186.5
 31
0.0
  0
LINE
  5
45
  8
DETAIL
  6
CONTINUOUS
 62
     5
 10
-116.5
 20
186.5
 30
0.0
 11
-116.5
 21
182.5
 31
0.0
  0
LINE
  5
46
  8
DETAIL
  6
CONTINUOUS
 62
     5
 10
-89.500000000000014
 20
179.49999999999989
 30
0.0
 11
-89.500000000000014
 21
0.0
 31
0.0
  0
LINE
  5
47
  8
DETAIL
  6
CONTINUOUS
 62
     5
 10
-116.5
 20
186.5
 30
0.0
 11
-90.5
 21
186.5
 31
0.0
  0
LINE
  5
48
  8
NOTE
  6
CONTINUOUS
 62
     4
 10
98.500000000000014
 20
-20.0
 30
0.0
 11
98.500000000000014
 21
20.0
 31
0.0
  0
LINE
  5
49
  8
NOTE
  6
CONTINUOUS
 62
     4
 10
78.5
 20
0.0
 30
0.0
 11
118.5
 21
0.0
 31
0.0
  0
CIRCLE
  5
4A
  8
FIX
  6
CONTINUOUS
 62
    11
 39
50.0
 10
98.500000000000014
 20
0.0
 30
0.0
 40
2.5
  0
CIRCLE
  5
4B
  8
FIX
  6
CONTINUOUS
 62
    11
 39
50.0
 10
65.0
 20
0.0
 30
0.0
 40
2.5
  0
LINE
  5
4C
  8
NOTE
  6
CONTINUOUS
 62
     4
 10
65.0
 20
-20.0
 30
0.0
 11
65.0
 21
20.0
 31
0.0
  0
LINE
  5
4D
  8
NOTE
  6
CONTINUOUS
 62
     4
 10
45.0
 20
0.0
 30
0.0
 11
85.0
 21
0.0
 31
0.0
  0
CIRCLE
  5
4E
  8
FIX
  6
CONTINUOUS
 62
    11
 39
50.0
 10
-65.0
 20
0.0
 30
0.0
 40
2.5
  0
LINE
  5
4F
  8
NOTE
  6
CONTINUOUS
 62
     4
 10
-65.0
 20
-20.0
 30
0.0
 11
-65.0
 21
20.0
 31
0.0
  0
LINE
  5
50
  8
NOTE
  6
CONTINUOUS
 62
     4
 10
-85.0
 20
0.0
 30
0.0
 11
-45.0
 21
0.0
 31
0.0
  0
CIRCLE
  5
51
  8
FIX
  6
CONTINUOUS
 62
    11
 39
50.0
 10
103.0
 20
186.5
 30
0.0
 40
7.5
  0
CIRCLE
  5
52
  8
FIX
  6
CONTINUOUS
 62
    11
 39
50.0
 10
-103.0
 20
186.5
 30
0.0
 40
7.5
  0
LINE
  5
53
  8
NOTE
  6
CONTINUOUS
 62
     4
 10
-98.500000000000014
 20
-20.0
 30
0.0
 11
-98.500000000000014
 21
20.0
 31
0.0
  0
LINE
  5
54
  8
NOTE
  6
CONTINUOUS
 62
     4
 10
-118.5
 20
0.0
 30
0.0
 11
-78.5
 21
0.0
 31
0.0
  0
CIRCLE
  5
55
  8
FIX
  6
CONTINUOUS
 62
    11
 39
50.0
 10
-98.500000000000014
 20
0.0
 30
0.0
 40
2.5
  0
LINE
  5
56
  8
NOTE
  6
CONTINUOUS
 62
     4
 10
-123.0
 20
186.5
 30
0.0
 11
-83.0
 21
186.5
 31
0.0
  0
LINE
  5
57
  8
NOTE
  6
CONTINUOUS
 62
     4
 10
-103.0
 20
206.49999999999989
 30
0.0
 11
-103.0
 21
166.5
 31
0.0
  0
LINE
  5
58
  8
NOTE
  6
CONTINUOUS
 62
     4
 10
103.0
 20
206.49999999999989
 30
0.0
 11
103.0
 21
166.5
 31
0.0
  0
LINE
  5
59
  8
NOTE
  6
CONTINUOUS
 62
     4
 10
123.0
 20
186.5
 30
0.0
 11
83.0
 21
186.5
 31
0.0
  0
TEXT
  5
5D
  8
NOTE
  6
CONTINUOUS
 62
     4
 10
-45.987628000000001
 20
75.289013999999995
 30
0.0
 40
64.0
  1
EA
 41
0.9
  0
LINE
  5
5E
  8
NOTE
  6
CONTINUOUS
 62
     4
 10
656.49458499999992
 20
-171.39785900000001
 30
0.0
 11
222.4790669999999
 21
-171.39785900000001
 31
0.0
  0
TEXT
  5
5F
  8
NOTE
  6
CONTINUOUS
 62
     4
 10
236.526804
 20
-147.79693199999991
 30
0.0
 40
64.0
  1
8-âË5ü~10
 41
0.9
  0
LINE
  5
60
  8
NOTE
  6
CONTINUOUS
 62
     4
 10
-856.84501899999998
 20
399.82408700000002
 30
0.0
 11
-216.658287
 21
399.82408700000002
 31
0.0
  0
TEXT
  5
61
  8
NOTE
  6
CONTINUOUS
 62
     4
 10
-842.07184399999994
 20
431.88067000000001
 30
0.0
 40
64.0
  1
AH 2-âË15ü~22
 41
0.9
  0
LINE
  5
62
  8
DETAIL
  6
CONTINUOUS
 62
     5
 10
-85.5
 20
0.0
 30
0.0
 11
-85.5
 21
2.0
 31
0.0
  0
LINE
  5
63
  8
DETAIL
  6
CONTINUOUS
 62
     5
 10
85.5
 20
0.0
 30
0.0
 11
85.5
 21
2.0
 31
0.0
  0
LINE
  5
64
  8
DETAIL
  6
CONTINUOUS
 62
     5
 10
39.5
 20
169.0
 30
0.0
 11
-65.5
 21
169.0
 31
0.0
  0
LINE
  5
65
  8
DETAIL
  6
CONTINUOUS
 62
     5
 10
39.5
 20
35.0
 30
0.0
 11
0.0
 21
35.0
 31
0.0
  0
LINE
  5
66
  8
DETAIL
  6
CONTINUOUS
 62
     5
 10
74.5
 20
70.0
 30
0.0
 11
74.5
 21
134.0
 31
0.0
  0
ARC
  5
67
  8
DETAIL
  6
CONTINUOUS
 62
     5
 10
39.5
 20
134.0
 30
0.0
 40
35.0
 50
0.0
 51
90.0
  0
ARC
  5
68
  8
DETAIL
  6
CONTINUOUS
 62
     5
 10
39.5
 20
70.0
 30
0.0
 40
35.0
 50
270.0
 51
0.0
  0
ARC
  5
69
  8
DETAIL
  6
CONTINUOUS
 62
     5
 10
65.5
 20
149.0
 30
0.0
 40
20.0
 50
0.0
 51
90.0
  0
ARC
  5
6A
  8
DETAIL
  6
CONTINUOUS
 62
     5
 10
-65.5
 20
149.0
 30
0.0
 40
20.0
 50
90.0
 51
180.0
  0
ARC
  5
6B
  8
DETAIL
  6
CONTINUOUS
 62
     5
 10
-39.5
 20
134.0
 30
0.0
 40
35.0
 50
90.0
 51
180.0
  0
LINE
  5
6C
  8
DETAIL
  6
CONTINUOUS
 62
     5
 10
-39.5
 20
169.0
 30
0.0
 11
65.5
 21
169.0
 31
0.0
  0
LINE
  5
6D
  8
DETAIL
  6
CONTINUOUS
 62
     5
 10
-74.5
 20
70.0
 30
0.0
 11
-74.5
 21
134.0
 31
0.0
  0
ARC
  5
6E
  8
DETAIL
  6
CONTINUOUS
 62
     5
 10
-39.5
 20
70.0
 30
0.0
 40
35.0
 50
180.0
 51
270.0
  0
LINE
  5
6F
  8
DETAIL
  6
CONTINUOUS
 62
     5
 10
-39.5
 20
35.0
 30
0.0
 11
0.0
 21
35.0
 31
0.0
  0
LINE
  5
70
  8
DETAIL
  6
CONTINUOUS
 62
     5
 10
-116.5
 20
182.5
 30
0.0
 11
-92.5
 21
182.5
 31
0.0
  0
LINE
  5
71
  8
DETAIL
  6
CONTINUOUS
 62
     5
 10
-85.5
 20
181.49999999999989
 30
0.0
 11
-85.5
 21
140.5
 31
0.0
  0
LINE
  5
72
  8
DETAIL
  6
CONTINUOUS
 62
     5
 10
116.5
 20
182.5
 30
0.0
 11
92.5
 21
182.5
 31
0.0
  0
LINE
  5
73
  8
DETAIL
  6
CONTINUOUS
 62
     5
 10
85.5
 20
181.49999999999989
 30
0.0
 11
85.5
 21
140.5
 31
0.0
  0
ARC
  5
79
  8
DETAIL
  6
CONTINUOUS
 62
     5
 10
-90.5
 20
181.49999999999989
 30
0.0
 40
5.0
 50
0.0
 51
90.0
  0
ARC
  5
7A
  8
DETAIL
  6
CONTINUOUS
 62
     5
 10
90.5
 20
181.49999999999989
 30
0.0
 40
5.0
 50
90.0
 51
180.0
  0
ARC
  5
7B
  8
DETAIL
  6
CONTINUOUS
 62
     5
 10
-92.5
 20
179.49999999999989
 30
0.0
 40
3.0
 50
0.0
 51
90.0
  0
ARC
  5
7C
  8
DETAIL
  6
CONTINUOUS
 62
     5
 10
92.5
 20
179.49999999999989
 30
0.0
 40
3.0
 50
90.0
 51
180.0
  0
POINT
  5
7D
  8
ARRANGE
  6
CONTINUOUS
 62
     1
 10
0.0
 20
0.0
 30
0.0
  0
CIRCLE
  5
7E
  8
ARRANGE
  6
CONTINUOUS
 62
     1
 10
0.0
 20
0.0
 30
0.0
 40
40.0
  0
LINE
  5
7F
  8
DETAIL
  6
CONTINUOUS
 62
     5
 10
-48.0
 20
157.0
 30
0.0
 11
0.0
 21
157.0
 31
0.0
  0
LINE
  5
80
  8
DETAIL
  6
CONTINUOUS
 62
     5
 10
48.0
 20
157.0
 30
0.0
 11
0.0
 21
157.0
 31
0.0
  0
LINE
  5
81
  8
DETAIL
  6
CONTINUOUS
 62
     5
 10
-17.5
 20
180.0
 30
0.0
 11
37.5
 21
180.0
 31
0.0
  0
ARC
  5
82
  8
DETAIL
  6
CONTINUOUS
 62
     5
 10
-17.5
 20
177.0
 30
0.0
 40
3.0
 50
90.0
 51
180.0
  0
LINE
  5
83
  8
DETAIL
  6
CONTINUOUS
 62
     5
 10
-20.5
 20
177.0
 30
0.0
 11
-20.5
 21
168.5
 31
0.0
  0
ARC
  5
84
  8
DETAIL
  6
CONTINUOUS
 62
     5
 10
37.5
 20
177.0
 30
0.0
 40
3.0
 50
0.0
 51
90.0
  0
LINE
  5
85
  8
DETAIL
  6
CONTINUOUS
 62
     5
 10
40.499999999999993
 20
177.0
 30
0.0
 11
40.499999999999993
 21
168.5
 31
0.0
  0
LINE
  5
86
  8
DETAIL
  6
CONTINUOUS
 62
     5
 10
-87.5
 20
140.5
 30
0.0
 11
-87.5
 21
2.0
 31
0.0
  0
LINE
  5
87
  8
DETAIL
  6
CONTINUOUS
 62
     5
 10
87.5
 20
140.5
 30
0.0
 11
87.5
 21
2.0
 31
0.0
  0
LINE
  5
88
  8
DETAIL
  6
CONTINOUS
 62
     5
 10
87.5
 20
140.5
 30
0.0
 11
85.5
 21
140.5
 31
0.0
  0
LINE
  5
89
  8
DETAIL
  6
CONTINOUS
 62
     5
 10
-85.5
 20
140.5
 30
0.0
 11
-87.5
 21
140.5
 31
0.0
  0
LINE
  5
8A
  8
DETAIL
  6
CONTINOUS
 62
     5
 10
87.5
 20
2.0
 30
0.0
 11
85.5
 21
2.0
 31
0.0
  0
LINE
  5
8B
  8
DETAIL
  6
CONTINOUS
 62
     5
 10
-85.5
 20
2.0
 30
0.0
 11
-87.5
 21
2.0
 31
0.0
  0
LINE
  5
8C
  8
DETAIL
  6
CONTINUOUS
 62
     5
 10
-85.5
 20
2.0
 30
0.0
 11
-85.5
 21
0.0
 31
0.0
  0
LINE
  5
8D
  8
DETAIL
  6
CONTINUOUS
 62
     5
 10
-85.5
 20
140.5
 30
0.0
 11
-85.5
 21
149.0
 31
0.0
  0
LINE
  5
8E
  8
DETAIL
  6
CONTINUOUS
 62
     5
 10
85.5
 20
2.0
 30
0.0
 11
85.5
 21
0.0
 31
0.0
  0
LINE
  5
8F
  8
DETAIL
  6
CONTINUOUS
 62
     5
 10
85.5
 20
140.5
 30
0.0
 11
85.5
 21
149.0
 31
0.0
  0
LINE
  5
90
  8
DETAIL
  6
CONTINUOUS
 62
     5
 10
82.0
 20
-15.0
 30
0.0
 11
-82.0
 21
-15.0
 31
0.0
  0
LINE
  5
91
  8
DETAIL
  6
CONTINUOUS
 62
     5
 10
-82.0
 20
-8.0
 30
0.0
 11
82.0
 21
-8.0
 31
0.0
  0
LINE
  5
92
  8
DETAIL
  6
CONTINUOUS
 62
     5
 10
125.0
 20
0.0
 30
0.0
 11
-125.0
 21
0.0
 31
0.0
  0
ARC
  5
93
  8
DETAIL
  6
CONTINUOUS
 62
     5
 10
-83.499999999999986
 20
165.0
 30
0.0
 40
180.0
 50
257.69778400000001
 51
270.0
  0
LINE
  5
94
  8
DETAIL
  6
CONTINUOUS
 62
     5
 10
-83.499999999999986
 20
-8.0
 30
0.0
 11
-118.28852999999999
 21
-8.0
 31
0.0
  0
LINE
  5
95
  8
DETAIL
  6
CONTINUOUS
 62
     5
 10
-125.0
 20
0.0
 30
0.0
 11
-125.0
 21
-6.9585710000000001
 31
0.0
  0
ARC
  5
96
  8
DETAIL
  6
CONTINUOUS
 62
     5
 10
-121.0
 20
-6.9585710000000001
 30
0.0
 40
4.0
 50
180.0
 51
257.69778400000001
  0
LINE
  5
97
  8
DETAIL
  6
CONTINUOUS
 62
     5
 10
-83.499999999999986
 20
-14.0
 30
0.0
 11
-82.0
 21
-14.0
 31
0.0
  0
LINE
  5
98
  8
DETAIL
  6
CONTINUOUS
 62
     5
 10
-82.0
 20
-15.0
 30
0.0
 11
-82.0
 21
0.0
 31
0.0
  0
LINE
  5
99
  8
DETAIL
  6
CONTINUOUS
 62
     5
 10
-83.499999999999986
 20
-15.0
 30
0.0
 11
-83.499999999999986
 21
0.0
 31
0.0
  0
LINE
  5
9A
  8
DETAIL
  6
CONTINUOUS
 62
     5
 10
83.499999999999986
 20
-14.0
 30
0.0
 11
82.0
 21
-14.0
 31
0.0
  0
LINE
  5
9B
  8
DETAIL
  6
CONTINUOUS
 62
     5
 10
82.0
 20
-15.0
 30
0.0
 11
82.0
 21
0.0
 31
0.0
  0
ARC
  5
9C
  8
DETAIL
  6
CONTINUOUS
 62
     5
 10
121.0
 20
-6.9585710000000001
 30
0.0
 40
4.0
 50
282.30221599999987
 51
0.0
  0
LINE
  5
9D
  8
DETAIL
  6
CONTINUOUS
 62
     5
 10
125.0
 20
0.0
 30
0.0
 11
125.0
 21
-6.9585710000000001
 31
0.0
  0
LINE
  5
9E
  8
DETAIL
  6
CONTINUOUS
 62
     5
 10
83.499999999999986
 20
-15.0
 30
0.0
 11
83.499999999999986
 21
0.0
 31
0.0
  0
LINE
  5
9F
  8
DETAIL
  6
CONTINUOUS
 62
     5
 10
83.499999999999986
 20
-8.0
 30
0.0
 11
118.28852999999999
 21
-8.0
 31
0.0
  0
ARC
  5
A0
  8
DETAIL
  6
CONTINUOUS
 62
     5
 10
83.499999999999986
 20
165.0
 30
0.0
 40
180.0
 50
270.0
 51
282.30221599999987
  0
LINE
  5
A5
  8
DETAIL
  6
CONTINUOUS
 62
     5
 10
42.5
 20
102.0
 30
0.0
 11
0.0
 21
102.0
 31
0.0
  0
ARC
  5
A6
  8
DETAIL
  6
CONTINUOUS
 62
     5
 10
0.0
 20
102.0
 30
0.0
 40
53.0
 50
270.0
 51
90.0
  0
ARC
  5
A7
  8
DETAIL
  6
CONTINUOUS
 62
     5
 10
0.0
 20
102.0
 30
0.0
 40
47.0
 50
270.0
 51
90.0
  0
ARC
  5
A8
  8
DETAIL
  6
CONTINUOUS
 62
     5
 10
0.0
 20
102.0
 30
0.0
 40
49.0
 50
270.0
 51
90.0
  0
CIRCLE
  5
A9
  8
DETAIL
  6
CONTINUOUS
 62
     5
 10
0.0
 20
102.0
 30
0.0
 40
52.5
  0
LINE
  5
AA
  8
DETAIL
  6
CONTINUOUS
 62
     5
 10
-42.5
 20
102.0
 30
0.0
 11
-42.5
 21
119.0
 31
0.0
  0
ARC
  5
AB
  8
DETAIL
  6
CONTINUOUS
 62
     5
 10
0.0
 20
102.0
 30
0.0
 40
49.0
 50
90.0
 51
270.0
  0
ARC
  5
AC
  8
DETAIL
  6
CONTINUOUS
 62
     5
 10
0.0
 20
102.0
 30
0.0
 40
47.0
 50
90.0
 51
270.0
  0
ARC
  5
AD
  8
DETAIL
  6
CONTINUOUS
 62
     5
 10
0.0
 20
102.0
 30
0.0
 40
53.0
 50
90.0
 51
270.0
  0
LINE
  5
AE
  8
DETAIL
  6
CONTINUOUS
 62
     5
 10
-42.5
 20
102.0
 30
0.0
 11
0.0
 21
102.0
 31
0.0
  0
ARC
  5
AF
  8
DETAIL
  6
CONTINUOUS
 62
     5
 10
-30.0
 20
78.676192
 30
0.0
 40
10.0
 50
180.0
 51
188.90862200000001
  0
LINE
  5
B0
  8
DETAIL
  6
CONTINUOUS
 62
     5
 10
-40.0
 20
97.669872999999995
 30
0.0
 11
-42.5
 21
102.0
 31
0.0
  0
LINE
  5
B1
  8
DETAIL
  6
CONTINUOUS
 62
     5
 10
-40.0
 20
78.676192
 30
0.0
 11
-40.0
 21
79.284367000000003
 31
0.0
  0
LINE
  5
B2
  8
DETAIL
  6
CONTINUOUS
 62
     5
 10
-40.0
 20
79.284367000000003
 30
0.0
 11
-40.0
 21
97.669872999999995
 31
0.0
  0
LINE
  5
B3
  8
DETAIL
  6
CONTINUOUS
 62
     5
 10
-42.5
 20
102.0
 30
0.0
 11
-47.0
 21
102.0
 31
0.0
  0
LINE
  5
B4
  8
DETAIL
  6
CONTINUOUS
 62
     5
 10
-41.264390999999989
 20
124.5
 30
0.0
 11
-26.0
 21
124.5
 31
0.0
  0
LINE
  5
B5
  8
DETAIL
  6
CONTINUOUS
 62
     5
 10
-24.699999999999999
 20
122.0
 30
0.0
 11
-39.5
 21
122.0
 31
0.0
  0
ARC
  5
B6
  8
DETAIL
  6
CONTINUOUS
 62
     5
 10
-39.5
 20
119.0
 30
0.0
 40
3.0
 50
90.0
 51
180.0
  0
LINE
  5
B7
  8
DETAIL
  6
CONTINUOUS
 62
     5
 10
-25.5
 20
129.0
 30
0.0
 11
-25.5
 21
135.0
 31
0.0
  0
LINE
  5
B8
  8
DETAIL
  6
CONTINUOUS
 62
     5
 10
-36.0
 20
127.5
 30
0.0
 11
-36.0
 21
129.0
 31
0.0
  0
LINE
  5
B9
  8
DETAIL
  6
CONTINUOUS
 62
     5
 10
-28.0
 20
127.5
 30
0.0
 11
-36.0
 21
127.5
 31
0.0
  0
LINE
  5
BA
  8
DETAIL
  6
CONTINUOUS
 62
     5
 10
-28.0
 20
129.0
 30
0.0
 11
-36.0
 21
129.0
 31
0.0
  0
LINE
  5
BB
  8
DETAIL
  6
CONTINUOUS
 62
     5
 10
-26.0
 20
129.0
 30
0.0
 11
-25.5
 21
129.0
 31
0.0
  0
LINE
  5
BC
  8
DETAIL
  6
CONTINUOUS
 62
     5
 10
-24.699999999999999
 20
134.0
 30
0.0
 11
-23.0
 21
134.0
 31
0.0
  0
LINE
  5
BD
  8
DETAIL
  6
CONTINUOUS
 62
     5
 10
-24.699999999999999
 20
130.0
 30
0.0
 11
-23.0
 21
130.0
 31
0.0
  0
ARC
  5
BE
  8
DETAIL
  6
CONTINUOUS
 62
     5
 10
-23.0
 20
132.0
 30
0.0
 40
2.0
 50
270.0
 51
90.0
  0
LINE
  5
BF
  8
DETAIL
  6
CONTINUOUS
 62
     5
 10
-25.5
 20
130.0
 30
0.0
 11
-25.0
 21
130.0
 31
0.0
  0
LINE
  5
C0
  8
DETAIL
  6
CONTINUOUS
 62
     5
 10
-25.5
 20
134.0
 30
0.0
 11
-25.0
 21
134.0
 31
0.0
  0
LINE
  5
C1
  8
DETAIL
  6
CONTINUOUS
 62
     5
 10
-26.0
 20
135.0
 30
0.0
 11
-25.5
 21
135.0
 31
0.0
  0
LINE
  5
C2
  8
DETAIL
  6
CONTINUOUS
 62
     5
 10
-24.699999999999999
 20
138.06875999999991
 30
0.0
 11
-25.0
 21
138.06875999999991
 31
0.0
  0
LINE
  5
C3
  8
DETAIL
  6
CONTINUOUS
 62
     5
 10
-25.0
 20
124.2645739999999
 30
0.0
 11
-24.699999999999999
 21
124.2645739999999
 31
0.0
  0
LINE
  5
C4
  8
DETAIL
  6
CONTINUOUS
 62
     5
 10
-28.0
 20
124.5
 30
0.0
 11
-28.0
 21
139.7491719999999
 31
0.0
  0
LINE
  5
C5
  8
DETAIL
  6
CONTINUOUS
 62
     5
 10
-26.0
 20
124.5
 30
0.0
 11
-26.0
 21
141.1535439999999
 31
0.0
  0
LINE
  5
C6
  8
DETAIL
  6
CONTINUOUS
 62
     5
 10
-24.699999999999999
 20
122.0
 30
0.0
 11
-24.699999999999999
 21
141.9863729999999
 31
0.0
  0
LINE
  5
C7
  8
DETAIL
  6
CONTINUOUS
 62
     5
 10
-25.0
 20
124.2645739999999
 30
0.0
 11
-25.0
 21
138.06875999999991
 31
0.0
  0
LINE
  5
C8
  8
DETAIL
  6
CONTINUOUS
 62
     5
 10
42.5
 20
102.0
 30
0.0
 11
42.5
 21
119.0
 31
0.0
  0
LINE
  5
C9
  8
DETAIL
  6
CONTINUOUS
 62
     5
 10
42.5
 20
102.0
 30
0.0
 11
47.0
 21
102.0
 31
0.0
  0
LINE
  5
CA
  8
DETAIL
  6
CONTINUOUS
 62
     5
 10
40.0
 20
79.284367000000003
 30
0.0
 11
40.0
 21
97.669872999999995
 31
0.0
  0
LINE
  5
CB
  8
DETAIL
  6
CONTINUOUS
 62
     5
 10
40.0
 20
78.676192
 30
0.0
 11
40.0
 21
79.284367000000003
 31
0.0
  0
LINE
  5
CC
  8
DETAIL
  6
CONTINUOUS
 62
     5
 10
40.0
 20
97.669872999999995
 30
0.0
 11
42.5
 21
102.0
 31
0.0
  0
ARC
  5
CD
  8
DETAIL
  6
CONTINUOUS
 62
     5
 10
30.0
 20
78.676192
 30
0.0
 40
10.0
 50
351.09137799999991
 51
0.0
  0
LINE
  5
CE
  8
DETAIL
  6
CONTINUOUS
 62
     5
 10
24.699999999999999
 20
138.06875999999991
 30
0.0
 11
25.0
 21
138.06875999999991
 31
0.0
  0
LINE
  5
CF
  8
DETAIL
  6
CONTINUOUS
 62
     5
 10
26.0
 20
135.0
 30
0.0
 11
25.5
 21
135.0
 31
0.0
  0
LINE
  5
D0
  8
DETAIL
  6
CONTINUOUS
 62
     5
 10
25.5
 20
134.0
 30
0.0
 11
25.0
 21
134.0
 31
0.0
  0
LINE
  5
D1
  8
DETAIL
  6
CONTINUOUS
 62
     5
 10
25.5
 20
130.0
 30
0.0
 11
25.0
 21
130.0
 31
0.0
  0
ARC
  5
D2
  8
DETAIL
  6
CONTINUOUS
 62
     5
 10
23.0
 20
132.0
 30
0.0
 40
2.0
 50
90.0
 51
270.0
  0
LINE
  5
D3
  8
DETAIL
  6
CONTINUOUS
 62
     5
 10
24.699999999999999
 20
130.0
 30
0.0
 11
23.0
 21
130.0
 31
0.0
  0
LINE
  5
D4
  8
DETAIL
  6
CONTINUOUS
 62
     5
 10
24.699999999999999
 20
134.0
 30
0.0
 11
23.0
 21
134.0
 31
0.0
  0
LINE
  5
D5
  8
DETAIL
  6
CONTINUOUS
 62
     5
 10
26.0
 20
129.0
 30
0.0
 11
25.5
 21
129.0
 31
0.0
  0
LINE
  5
D6
  8
DETAIL
  6
CONTINUOUS
 62
     5
 10
28.0
 20
129.0
 30
0.0
 11
36.0
 21
129.0
 31
0.0
  0
LINE
  5
D7
  8
DETAIL
  6
CONTINUOUS
 62
     5
 10
28.0
 20
127.5
 30
0.0
 11
36.0
 21
127.5
 31
0.0
  0
LINE
  5
D8
  8
DETAIL
  6
CONTINUOUS
 62
     5
 10
36.0
 20
127.5
 30
0.0
 11
36.0
 21
129.0
 31
0.0
  0
LINE
  5
D9
  8
DETAIL
  6
CONTINUOUS
 62
     5
 10
25.5
 20
129.0
 30
0.0
 11
25.5
 21
135.0
 31
0.0
  0
ARC
  5
DA
  8
DETAIL
  6
CONTINUOUS
 62
     5
 10
39.5
 20
119.0
 30
0.0
 40
3.0
 50
0.0
 51
90.0
  0
LINE
  5
DB
  8
DETAIL
  6
CONTINUOUS
 62
     5
 10
25.0
 20
124.2645739999999
 30
0.0
 11
24.699999999999999
 21
124.2645739999999
 31
0.0
  0
LINE
  5
DC
  8
DETAIL
  6
CONTINUOUS
 62
     5
 10
24.699999999999999
 20
122.0
 30
0.0
 11
39.5
 21
122.0
 31
0.0
  0
LINE
  5
DD
  8
DETAIL
  6
CONTINUOUS
 62
     5
 10
41.264390999999989
 20
124.5
 30
0.0
 11
26.0
 21
124.5
 31
0.0
  0
LINE
  5
DE
  8
DETAIL
  6
CONTINUOUS
 62
     5
 10
25.0
 20
124.2645739999999
 30
0.0
 11
25.0
 21
138.06875999999991
 31
0.0
  0
LINE
  5
DF
  8
DETAIL
  6
CONTINUOUS
 62
     5
 10
24.699999999999999
 20
117.0
 30
0.0
 11
24.699999999999999
 21
136.9863729999999
 31
0.0
  0
LINE
  5
E0
  8
DETAIL
  6
CONTINUOUS
 62
     5
 10
26.0
 20
124.5
 30
0.0
 11
26.0
 21
141.1535439999999
 31
0.0
  0
LINE
  5
E1
  8
DETAIL
  6
CONTINUOUS
 62
     5
 10
28.0
 20
124.5
 30
0.0
 11
28.0
 21
139.7491719999999
 31
0.0
  0
LINE
  5
E2
  8
SIZE
  6
CONTINUOUS
 62
    30
 10
125.0
 20
-26.958570999999999
 30
0.0
 11
125.0
 21
-495.64233999999999
 31
0.0
  0
LINE
  5
E3
  8
SIZE
  6
CONTINUOUS
 62
    30
 10
-125.0
 20
-26.958570999999999
 30
0.0
 11
-125.0
 21
-495.64233999999999
 31
0.0
  0
LINE
  5
E4
  8
SIZE
  6
CONTINUOUS
 62
    30
 10
137.0
 20
-475.64233999999999
 30
0.0
 11
149.0
 21
-475.64233999999999
 31
0.0
  0
LINE
  5
E5
  8
SIZE
  6
CONTINUOUS
 62
    30
 10
-137.0
 20
-475.64233999999999
 30
0.0
 11
-149.0
 21
-475.64233999999999
 31
0.0
  0
LINE
  5
E6
  8
SIZE
  6
CONTINUOUS
 62
    30
 10
125.0
 20
-475.64233999999999
 30
0.0
 11
-125.0
 21
-475.64233999999999
 31
0.0
  0
CIRCLE
  5
E7
  8
SIZE
  6
CONTINUOUS
 62
    30
 10
125.0
 20
-475.64233999999999
 30
0.0
 40
6.0
  0
LINE
  5
E8
  8
SIZE
  6
CONTINUOUS
 62
    30
 10
125.0
 20
-475.64233999999999
 30
0.0
 11
137.0
 21
-475.64233999999999
 31
0.0
  0
CIRCLE
  5
E9
  8
SIZE
  6
CONTINUOUS
 62
    30
 10
-125.0
 20
-475.64233999999999
 30
0.0
 40
6.0
  0
LINE
  5
EA
  8
SIZE
  6
CONTINUOUS
 62
    30
 10
-125.0
 20
-475.64233999999999
 30
0.0
 11
-137.0
 21
-475.64233999999999
 31
0.0
  0
TEXT
  5
EB
  8
SIZE
  6
CONTINUOUS
 62
    30
 10
-110.5371428571428
 20
-450.64233999999999
 30
0.0
 40
64.0
  1
üá250
 41
0.9
 72
     1
 11
0.0
 21
-450.64233999999999
 31
0.0
  0
LINE
  5
EF
  8
SIZE
  6
CONTINUOUS
 62
    30
 10
98.500000000000014
 20
-40.0
 30
0.0
 11
98.500000000000014
 21
-367.21926200000001
 31
0.0
  0
LINE
  5
F0
  8
SIZE
  6
CONTINUOUS
 62
    30
 10
-98.500000000000014
 20
-40.0
 30
0.0
 11
-98.500000000000014
 21
-367.21926200000001
 31
0.0
  0
LINE
  5
F1
  8
SIZE
  6
CONTINUOUS
 62
    30
 10
86.5
 20
-347.21926200000001
 30
0.0
 11
-86.5
 21
-347.21926200000001
 31
0.0
  0
CIRCLE
  5
F2
  8
SIZE
  6
CONTINUOUS
 62
    30
 10
98.500000000000014
 20
-347.21926200000001
 30
0.0
 40
6.0
  0
LINE
  5
F3
  8
SIZE
  6
CONTINUOUS
 62
    30
 10
98.500000000000014
 20
-347.21926200000001
 30
0.0
 11
86.5
 21
-347.21926200000001
 31
0.0
  0
CIRCLE
  5
F4
  8
SIZE
  6
CONTINUOUS
 62
    30
 10
-98.500000000000014
 20
-347.21926200000001
 30
0.0
 40
6.0
  0
LINE
  5
F5
  8
SIZE
  6
CONTINUOUS
 62
    30
 10
-98.500000000000014
 20
-347.21926200000001
 30
0.0
 11
-86.5
 21
-347.21926200000001
 31
0.0
  0
TEXT
  5
F6
  8
SIZE
  6
CONTINUOUS
 62
    30
 10
-68.571428571428569
 20
-322.21926200000001
 30
0.0
 40
64.0
  1
197
 41
0.9
 72
     1
 11
0.0
 21
-322.21926200000001
 31
0.0
  0
LINE
  5
FA
  8
SIZE
  6
CONTINUOUS
 62
    30
 10
65.0
 20
-40.0
 30
0.0
 11
65.0
 21
-239.893821
 31
0.0
  0
LINE
  5
FB
  8
SIZE
  6
CONTINUOUS
 62
    30
 10
-65.0
 20
-40.0
 30
0.0
 11
-65.0
 21
-239.893821
 31
0.0
  0
LINE
  5
FC
  8
SIZE
  6
CONTINUOUS
 62
    30
 10
77.0
 20
-219.893821
 30
0.0
 11
89.0
 21
-219.893821
 31
0.0
  0
LINE
  5
FD
  8
SIZE
  6
CONTINUOUS
 62
    30
 10
-77.0
 20
-219.893821
 30
0.0
 11
-89.0
 21
-219.893821
 31
0.0
  0
LINE
  5
FE
  8
SIZE
  6
CONTINUOUS
 62
    30
 10
65.0
 20
-219.893821
 30
0.0
 11
-65.0
 21
-219.893821
 31
0.0
  0
CIRCLE
  5
FF
  8
SIZE
  6
CONTINUOUS
 62
    30
 10
65.0
 20
-219.893821
 30
0.0
 40
6.0
  0
LINE
  5
100
  8
SIZE
  6
CONTINUOUS
 62
    30
 10
65.0
 20
-219.893821
 30
0.0
 11
77.0
 21
-219.893821
 31
0.0
  0
CIRCLE
  5
101
  8
SIZE
  6
CONTINUOUS
 62
    30
 10
-65.0
 20
-219.893821
 30
0.0
 40
6.0
  0
LINE
  5
102
  8
SIZE
  6
CONTINUOUS
 62
    30
 10
-65.0
 20
-219.893821
 30
0.0
 11
-77.0
 21
-219.893821
 31
0.0
  0
TEXT
  5
103
  8
SIZE
  6
CONTINUOUS
 62
    30
 10
-68.571428571428569
 20
-194.893821
 30
0.0
 40
64.0
  1
130
 41
0.9
 72
     1
 11
0.0
 21
-194.893821
 31
0.0
  0
LINE
  5
107
  8
SIZE
  6
CONTINUOUS
 62
    30
 10
145.0
 20
0.0
 30
0.0
 11
755.74901999999997
 21
0.0
 31
0.0
  0
LINE
  5
108
  8
SIZE
  6
CONTINUOUS
 62
    30
 10
107.4999999999999
 20
140.5
 30
0.0
 11
755.74901999999997
 21
140.5
 31
0.0
  0
LINE
  5
109
  8
SIZE
  6
CONTINUOUS
 62
    30
 10
735.74901999999986
 20
12.0
 30
0.0
 11
735.74901999999986
 21
128.49999999999989
 31
0.0
  0
LINE
  5
10A
  8
SIZE
  6
CONTINUOUS
 62
    30
 10
735.74901999999986
 20
424.59204499999998
 30
0.0
 11
735.74901999999986
 21
140.5
 31
0.0
  0
TEXT
  5
10B
  8
SIZE
  6
CONTINUOUS
 62
    30
 10
710.74901999999986
 20
180.16347328571419
 30
0.0
 40
64.0
  1
140.5
 50
90.0
 41
0.9
 72
     1
 11
710.74901999999986
 21
289.87775899999991
 31
0.0
  0
CIRCLE
  5
10C
  8
SIZE
  6
CONTINUOUS
 62
    30
 10
735.74901999999986
 20
0.0
 30
0.0
 40
6.0
  0
LINE
  5
10D
  8
SIZE
  6
CONTINUOUS
 62
    30
 10
735.74901999999986
 20
0.0
 30
0.0
 11
735.74901999999986
 21
12.0
 31
0.0
  0
CIRCLE
  5
10E
  8
SIZE
  6
CONTINUOUS
 62
    30
 10
735.74901999999986
 20
140.5
 30
0.0
 40
6.0
  0
LINE
  5
10F
  8
SIZE
  6
CONTINUOUS
 62
    30
 10
735.74901999999986
 20
140.5
 30
0.0
 11
735.74901999999986
 21
128.49999999999989
 31
0.0
  0
LINE
  5
113
  8
SIZE
  6
CONTINUOUS
 62
    30
 10
20.0
 20
151.0
 30
0.0
 11
521.82323399999996
 21
151.0
 31
0.0
  0
LINE
  5
114
  8
SIZE
  6
CONTINUOUS
 62
    30
 10
20.0
 20
53.0
 30
0.0
 11
521.82323399999996
 21
53.0
 31
0.0
  0
LINE
  5
115
  8
SIZE
  6
CONTINUOUS
 62
    30
 10
501.8232339999999
 20
139.0
 30
0.0
 11
501.8232339999999
 21
65.0
 31
0.0
  0
LINE
  5
116
  8
SIZE
  6
CONTINUOUS
 62
    30
 10
501.8232339999999
 20
358.88669900000002
 30
0.0
 11
501.8232339999999
 21
151.0
 31
0.0
  0
TEXT
  5
117
  8
SIZE
  6
CONTINUOUS
 62
    30
 10
476.8232339999999
 20
174.25241357142849
 30
0.0
 40
64.0
  1
âË98
 50
90.0
 41
0.9
 72
     1
 11
476.8232339999999
 21
261.200985
 31
0.0
  0
CIRCLE
  5
118
  8
SIZE
  6
CONTINUOUS
 62
    30
 10
501.8232339999999
 20
151.0
 30
0.0
 40
6.0
  0
LINE
  5
119
  8
SIZE
  6
CONTINUOUS
 62
    30
 10
501.8232339999999
 20
151.0
 30
0.0
 11
501.8232339999999
 21
139.0
 31
0.0
  0
CIRCLE
  5
11A
  8
SIZE
  6
CONTINUOUS
 62
    30
 10
501.8232339999999
 20
53.0
 30
0.0
 40
6.0
  0
LINE
  5
11B
  8
SIZE
  6
CONTINUOUS
 62
    30
 10
501.8232339999999
 20
53.0
 30
0.0
 11
501.8232339999999
 21
65.0
 31
0.0
  0
LINE
  5
11F
  8
SIZE
  6
CONTINUOUS
 62
    30
 10
20.0
 20
154.49999999999989
 30
0.0
 11
639.64552100000003
 21
154.49999999999989
 31
0.0
  0
LINE
  5
120
  8
SIZE
  6
CONTINUOUS
 62
    30
 10
20.0
 20
49.5
 30
0.0
 11
639.64552100000003
 21
49.5
 31
0.0
  0
LINE
  5
121
  8
SIZE
  6
CONTINUOUS
 62
    30
 10
619.64552100000003
 20
142.5
 30
0.0
 11
619.64552100000003
 21
61.5
 31
0.0
  0
LINE
  5
122
  8
SIZE
  6
CONTINUOUS
 62
    30
 10
619.64552100000003
 20
409.75475299999988
 30
0.0
 11
619.64552100000003
 21
154.49999999999989
 31
0.0
  0
TEXT
  5
123
  8
SIZE
  6
CONTINUOUS
 62
    30
 10
594.64552100000003
 20
181.23475342857139
 30
0.0
 40
64.0
  1
âË105
 50
90.0
 41
0.9
 72
     1
 11
594.64552100000003
 21
290.12618199999991
 31
0.0
  0
CIRCLE
  5
124
  8
SIZE
  6
CONTINUOUS
 62
    30
 10
619.64552100000003
 20
154.49999999999989
 30
0.0
 40
6.0
  0
LINE
  5
125
  8
SIZE
  6
CONTINUOUS
 62
    30
 10
619.64552100000003
 20
154.49999999999989
 30
0.0
 11
619.64552100000003
 21
142.5
 31
0.0
  0
CIRCLE
  5
126
  8
SIZE
  6
CONTINUOUS
 62
    30
 10
619.64552100000003
 20
49.5
 30
0.0
 40
6.0
  0
LINE
  5
127
  8
SIZE
  6
CONTINUOUS
 62
    30
 10
619.64552100000003
 20
49.5
 30
0.0
 11
619.64552100000003
 21
61.5
 31
0.0
  0
LINE
  5
12B
  8
SIZE
  6
CONTINUOUS
 62
    30
 10
-145.0
 20
0.0
 30
0.0
 11
-546.92171900000005
 21
0.0
 31
0.0
  0
LINE
  5
12C
  8
SIZE
  6
CONTINUOUS
 62
    30
 10
-37.5
 20
180.0
 30
0.0
 11
-546.92171900000005
 21
180.0
 31
0.0
  0
LINE
  5
12D
  8
SIZE
  6
CONTINUOUS
 62
    30
 10
-526.92171900000005
 20
-12.0
 30
0.0
 11
-526.92171900000005
 21
-24.0
 31
0.0
  0
LINE
  5
12E
  8
SIZE
  6
CONTINUOUS
 62
    30
 10
-526.92171900000005
 20
192.0
 30
0.0
 11
-526.92171900000005
 21
204.0
 31
0.0
  0
LINE
  5
12F
  8
SIZE
  6
CONTINUOUS
 62
    30
 10
-526.92171900000005
 20
0.0
 30
0.0
 11
-526.92171900000005
 21
180.0
 31
0.0
  0
CIRCLE
  5
130
  8
SIZE
  6
CONTINUOUS
 62
    30
 10
-526.92171900000005
 20
0.0
 30
0.0
 40
6.0
  0
LINE
  5
131
  8
SIZE
  6
CONTINUOUS
 62
    30
 10
-526.92171900000005
 20
0.0
 30
0.0
 11
-526.92171900000005
 21
-12.0
 31
0.0
  0
CIRCLE
  5
132
  8
SIZE
  6
CONTINUOUS
 62
    30
 10
-526.92171900000005
 20
180.0
 30
0.0
 40
6.0
  0
LINE
  5
133
  8
SIZE
  6
CONTINUOUS
 62
    30
 10
-526.92171900000005
 20
180.0
 30
0.0
 11
-526.92171900000005
 21
192.0
 31
0.0
  0
TEXT
  5
134
  8
SIZE
  6
CONTINUOUS
 62
    30
 10
-551.92171900000005
 20
21.428571428571441
 30
0.0
 40
64.0
  1
180
 50
90.0
 41
0.9
 72
     1
 11
-551.92171900000005
 21
90.0
 31
0.0
  0
LINE
  5
138
  8
SIZE
  6
CONTINUOUS
 62
    30
 10
-145.0
 20
0.0
 30
0.0
 11
-546.92171900000005
 21
0.0
 31
0.0
  0
LINE
  5
139
  8
SIZE
  6
CONTINUOUS
 62
    30
 10
-103.4999999999999
 20
-15.0
 30
0.0
 11
-546.92171900000005
 21
-15.0
 31
0.0
  0
LINE
  5
13A
  8
SIZE
  6
CONTINUOUS
 62
    30
 10
-526.92171900000005
 20
12.0
 30
0.0
 11
-526.92171900000005
 21
24.0
 31
0.0
  0
LINE
  5
13B
  8
SIZE
  6
CONTINUOUS
 62
    30
 10
-526.92171900000005
 20
-27.0
 30
0.0
 11
-526.92171900000005
 21
-39.0
 31
0.0
  0
LINE
  5
13C
  8
SIZE
  6
CONTINUOUS
 62
    30
 10
-526.92171900000005
 20
-182.70893499999991
 30
0.0
 11
-526.92171900000005
 21
-15.0
 31
0.0
  0
TEXT
  5
13D
  8
SIZE
  6
CONTINUOUS
 62
    30
 10
-551.92171900000005
 20
-157.70893514285709
 30
0.0
 40
64.0
  1
15
 50
90.0
 41
0.9
 72
     1
 11
-551.92171900000005
 21
-116.566078
 31
0.0
  0
LINE
  5
13E
  8
SIZE
  6
CONTINUOUS
 62
    30
 10
-526.92171900000005
 20
0.0
 30
0.0
 11
-526.92171900000005
 21
-15.0
 31
0.0
  0
LINE
  5
13F
  8
SIZE
  6
CONTINUOUS
 62
    30
 10
-526.92171900000005
 20
0.0
 30
0.0
 11
-526.92171900000005
 21
-15.0
 31
0.0
  0
CIRCLE
  5
140
  8
SIZE
  6
CONTINUOUS
 62
    30
 10
-526.92171900000005
 20
0.0
 30
0.0
 40
6.0
  0
LINE
  5
141
  8
SIZE
  6
CONTINUOUS
 62
    30
 10
-526.92171900000005
 20
0.0
 30
0.0
 11
-526.92171900000005
 21
12.0
 31
0.0
  0
CIRCLE
  5
142
  8
SIZE
  6
CONTINUOUS
 62
    30
 10
-526.92171900000005
 20
-15.0
 30
0.0
 40
6.0
  0
LINE
  5
143
  8
SIZE
  6
CONTINUOUS
 62
    30
 10
-526.92171900000005
 20
-15.0
 30
0.0
 11
-526.92171900000005
 21
-27.0
 31
0.0
  0
LINE
  5
147
  8
SIZE
  6
CONTINUOUS
 62
    30
 10
-145.0
 20
0.0
 30
0.0
 11
-362.12344999999988
 21
0.0
 31
0.0
  0
LINE
  5
148
  8
SIZE
  6
CONTINUOUS
 62
    30
 10
-101.533563
 20
102.0
 30
0.0
 11
-362.12344999999988
 21
102.0
 31
0.0
  0
LINE
  5
149
  8
SIZE
  6
CONTINUOUS
 62
    30
 10
-342.12344999999999
 20
12.0
 30
0.0
 11
-342.12344999999999
 21
90.0
 31
0.0
  0
LINE
  5
14A
  8
SIZE
  6
CONTINUOUS
 62
    30
 10
-342.12344999999999
 20
-213.77675300000001
 30
0.0
 11
-342.12344999999999
 21
0.0
 31
0.0
  0
TEXT
  5
14B
  8
SIZE
  6
CONTINUOUS
 62
    30
 10
-367.12344999999999
 20
-188.77675257142849
 30
0.0
 40
64.0
  1
102
 50
90.0
 41
0.9
 72
     1
 11
-367.12344999999999
 21
-120.205324
 31
0.0
  0
CIRCLE
  5
14C
  8
SIZE
  6
CONTINUOUS
 62
    30
 10
-342.12344999999999
 20
0.0
 30
0.0
 40
6.0
  0
LINE
  5
14D
  8
SIZE
  6
CONTINUOUS
 62
    30
 10
-342.12344999999999
 20
0.0
 30
0.0
 11
-342.12344999999999
 21
12.0
 31
0.0
  0
CIRCLE
  5
14E
  8
SIZE
  6
CONTINUOUS
 62
    30
 10
-342.12344999999999
 20
102.0
 30
0.0
 40
6.0
  0
LINE
  5
14F
  8
SIZE
  6
CONTINUOUS
 62
    30
 10
-342.12344999999999
 20
102.0
 30
0.0
 11
-342.12344999999999
 21
90.0
 31
0.0
  0
LINE
  5
153
  8
DETAIL
  6
CONTINUOUS
 62
     5
 10
-48.0
 20
47.0
 30
0.0
 11
0.0
 21
47.0
 31
0.0
  0
LINE
  5
154
  8
DETAIL
  6
CONTINUOUS
 62
     5
 10
48.0
 20
47.0
 30
0.0
 11
0.0
 21
47.0
 31
0.0
  0
LINE
  5
155
  8
SIZE
  6
CONTINUOUS
 62
    30
 10
-67.5
 20
157.0
 30
0.0
 11
-248.94488799999991
 21
157.0
 31
0.0
  0
LINE
  5
156
  8
SIZE
  6
CONTINUOUS
 62
    30
 10
-67.5
 20
47.0
 30
0.0
 11
-248.94488799999991
 21
47.0
 31
0.0
  0
LINE
  5
157
  8
SIZE
  6
CONTINUOUS
 62
    30
 10
-228.94488799999999
 20
145.0
 30
0.0
 11
-228.94488799999999
 21
59.0
 31
0.0
  0
LINE
  5
158
  8
SIZE
  6
CONTINUOUS
 62
    30
 10
-228.94488799999999
 20
362.45039300000002
 30
0.0
 11
-228.94488799999999
 21
157.0
 31
0.0
  0
TEXT
  5
159
  8
SIZE
  6
CONTINUOUS
 62
    30
 10
-253.94488799999999
 20
211.2789637142856
 30
0.0
 40
64.0
  1
110
 50
90.0
 41
0.9
 72
     1
 11
-253.94488799999999
 21
274.36467799999991
 31
0.0
  0
CIRCLE
  5
15A
  8
SIZE
  6
CONTINUOUS
 62
    30
 10
-228.94488799999999
 20
157.0
 30
0.0
 40
6.0
  0
LINE
  5
15B
  8
SIZE
  6
CONTINUOUS
 62
    30
 10
-228.94488799999999
 20
157.0
 30
0.0
 11
-228.94488799999999
 21
145.0
 31
0.0
  0
CIRCLE
  5
15C
  8
SIZE
  6
CONTINUOUS
 62
    30
 10
-228.94488799999999
 20
47.0
 30
0.0
 40
6.0
  0
LINE
  5
15D
  8
SIZE
  6
CONTINUOUS
 62
    30
 10
-228.94488799999999
 20
47.0
 30
0.0
 11
-228.94488799999999
 21
59.0
 31
0.0
  0
LINE
  5
161
  8
SIZE
  6
CONTINUOUS
 62
    30
 10
-85.5
 20
169.0
 30
0.0
 11
-428.62237299999998
 21
169.0
 31
0.0
  0
LINE
  5
162
  8
SIZE
  6
CONTINUOUS
 62
    30
 10
-145.0
 20
0.0
 30
0.0
 11
-428.62237299999998
 21
0.0
 31
0.0
  0
LINE
  5
163
  8
SIZE
  6
CONTINUOUS
 62
    30
 10
-408.62237299999993
 20
181.0
 30
0.0
 11
-408.62237299999993
 21
193.0
 31
0.0
  0
LINE
  5
164
  8
SIZE
  6
CONTINUOUS
 62
    30
 10
-408.62237299999993
 20
-12.0
 30
0.0
 11
-408.62237299999993
 21
-24.0
 31
0.0
  0
LINE
  5
165
  8
SIZE
  6
CONTINUOUS
 62
    30
 10
-408.62237299999993
 20
169.0
 30
0.0
 11
-408.62237299999993
 21
0.0
 31
0.0
  0
CIRCLE
  5
166
  8
SIZE
  6
CONTINUOUS
 62
    30
 10
-408.62237299999993
 20
169.0
 30
0.0
 40
6.0
  0
LINE
  5
167
  8
SIZE
  6
CONTINUOUS
 62
    30
 10
-408.62237299999993
 20
169.0
 30
0.0
 11
-408.62237299999993
 21
181.0
 31
0.0
  0
CIRCLE
  5
168
  8
SIZE
  6
CONTINUOUS
 62
    30
 10
-408.62237299999993
 20
0.0
 30
0.0
 40
6.0
  0
LINE
  5
169
  8
SIZE
  6
CONTINUOUS
 62
    30
 10
-408.62237299999993
 20
0.0
 30
0.0
 11
-408.62237299999993
 21
-12.0
 31
0.0
  0
TEXT
  5
16A
  8
SIZE
  6
CONTINUOUS
 62
    30
 10
-433.62237299999998
 20
17.300000000000011
 30
0.0
 40
64.0
  1
169
 50
90.0
 41
0.9
 72
     1
 11
-433.62237299999998
 21
84.500000000000014
 31
0.0
  0
LINE
  5
16E
  8
SIZE
  6
CONTINUOUS
 62
    30
 10
10.0
 20
216.27275899999989
 30
0.0
 11
10.0
 21
327.46234199999992
 31
0.0
  0
LINE
  5
16F
  8
SIZE
  6
CONTINUOUS
 62
    30
 10
0.0
 20
234.1921569999999
 30
0.0
 11
0.0
 21
327.46234199999992
 31
0.0
  0
LINE
  5
170
  8
SIZE
  6
CONTINUOUS
 62
    30
 10
22.0
 20
307.46234199999992
 30
0.0
 11
34.0
 21
307.46234199999992
 31
0.0
  0
LINE
  5
171
  8
SIZE
  6
CONTINUOUS
 62
    30
 10
-12.0
 20
307.46234199999992
 30
0.0
 11
-24.0
 21
307.46234199999992
 31
0.0
  0
LINE
  5
172
  8
SIZE
  6
CONTINUOUS
 62
    30
 10
244.39415899999989
 20
307.46234199999992
 30
0.0
 11
10.0
 21
307.46234199999992
 31
0.0
  0
TEXT
  5
173
  8
SIZE
  6
CONTINUOUS
 62
    30
 10
137.10844485714281
 20
332.46234199999992
 30
0.0
 40
64.0
  1
10
 41
0.9
 72
     1
 11
178.25130200000001
 21
332.46234199999992
 31
0.0
  0
LINE
  5
174
  8
SIZE
  6
CONTINUOUS
 62
    30
 10
10.0
 20
307.46234199999992
 30
0.0
 11
0.0
 21
307.46234199999992
 31
0.0
  0
LINE
  5
175
  8
SIZE
  6
CONTINUOUS
 62
    30
 10
10.0
 20
307.46234199999992
 30
0.0
 11
0.0
 21
307.46234199999992
 31
0.0
  0
CIRCLE
  5
176
  8
SIZE
  6
CONTINUOUS
 62
    30
 10
10.0
 20
307.46234199999992
 30
0.0
 40
6.0
  0
LINE
  5
177
  8
SIZE
  6
CONTINUOUS
 62
    30
 10
10.0
 20
307.46234199999992
 30
0.0
 11
22.0
 21
307.46234199999992
 31
0.0
  0
CIRCLE
  5
178
  8
SIZE
  6
CONTINUOUS
 62
    30
 10
0.0
 20
307.46234199999992
 30
0.0
 40
6.0
  0
LINE
  5
179
  8
SIZE
  6
CONTINUOUS
 62
    30
 10
0.0
 20
307.46234199999992
 30
0.0
 11
-12.0
 21
307.46234199999992
 31
0.0
  0
LINE
  5
17D
  8
SIZE
  6
CONTINUOUS
 62
    30
 10
40.499999999999993
 20
197.0
 30
0.0
 11
40.499999999999993
 21
442.20293299999992
 31
0.0
  0
LINE
  5
17E
  8
SIZE
  6
CONTINUOUS
 62
    30
 10
-20.5
 20
197.0
 30
0.0
 11
-20.5
 21
442.20293299999992
 31
0.0
  0
LINE
  5
17F
  8
SIZE
  6
CONTINUOUS
 62
    30
 10
52.5
 20
422.20293299999997
 30
0.0
 11
64.5
 21
422.20293299999997
 31
0.0
  0
LINE
  5
180
  8
SIZE
  6
CONTINUOUS
 62
    30
 10
-32.5
 20
422.20293299999997
 30
0.0
 11
-44.5
 21
422.20293299999997
 31
0.0
  0
LINE
  5
181
  8
SIZE
  6
CONTINUOUS
 62
    30
 10
280.295231
 20
422.20293299999997
 30
0.0
 11
40.499999999999993
 21
422.20293299999997
 31
0.0
  0
TEXT
  5
182
  8
SIZE
  6
CONTINUOUS
 62
    30
 10
120.3466587142856
 20
447.20293299999997
 30
0.0
 40
64.0
  1
âË61
 41
0.9
 72
     1
 11
194.95237299999991
 21
447.20293299999997
 31
0.0
  0
LINE
  5
183
  8
SIZE
  6
CONTINUOUS
 62
    30
 10
40.499999999999993
 20
422.20293299999997
 30
0.0
 11
-20.5
 21
422.20293299999997
 31
0.0
  0
LINE
  5
184
  8
SIZE
  6
CONTINUOUS
 62
    30
 10
40.499999999999993
 20
422.20293299999997
 30
0.0
 11
-20.5
 21
422.20293299999997
 31
0.0
  0
CIRCLE
  5
185
  8
SIZE
  6
CONTINUOUS
 62
    30
 10
40.499999999999993
 20
422.20293299999997
 30
0.0
 40
6.0
  0
LINE
  5
186
  8
SIZE
  6
CONTINUOUS
 62
    30
 10
40.499999999999993
 20
422.20293299999997
 30
0.0
 11
52.5
 21
422.20293299999997
 31
0.0
  0
CIRCLE
  5
187
  8
SIZE
  6
CONTINUOUS
 62
    30
 10
-20.5
 20
422.20293299999997
 30
0.0
 40
6.0
  0
LINE
  5
188
  8
SIZE
  6
CONTINUOUS
 62
    30
 10
-20.5
 20
422.20293299999997
 30
0.0
 11
-32.5
 21
422.20293299999997
 31
0.0
  0
LINE
  5
18C
  8
DETAIL
  6
CONTINUOUS
 62
     5
 10
-63.0
 20
62.0
 30
0.0
 11
-63.0
 21
142.0
 31
0.0
  0
LINE
  5
18D
  8
DETAIL
  6
CONTINUOUS
 62
     5
 10
63.0
 20
62.0
 30
0.0
 11
63.0
 21
142.0
 31
0.0
  0
ARC
  5
18E
  8
DETAIL
  6
CONTINUOUS
 62
     5
 10
-48.0
 20
142.0
 30
0.0
 40
15.0
 50
90.0
 51
180.0
  0
ARC
  5
18F
  8
DETAIL
  6
CONTINUOUS
 62
     5
 10
-48.0
 20
62.0
 30
0.0
 40
15.0
 50
180.0
 51
270.0
  0
ARC
  5
190
  8
DETAIL
  6
CONTINUOUS
 62
     5
 10
48.0
 20
62.0
 30
0.0
 40
15.0
 50
270.0
 51
0.0
  0
ARC
  5
191
  8
DETAIL
  6
CONTINUOUS
 62
     5
 10
48.0
 20
142.0
 30
0.0
 40
15.0
 50
0.0
 51
90.0
  0
LINE
  5
192
  8
SIZE
  6
CONTINUOUS
 62
    30
 10
63.0
 20
162.0
 30
0.0
 11
63.0
 21
555.67946799999993
 31
0.0
  0
LINE
  5
193
  8
SIZE
  6
CONTINUOUS
 62
    30
 10
-63.0
 20
162.0
 30
0.0
 11
-63.0
 21
555.67946799999993
 31
0.0
  0
LINE
  5
194
  8
SIZE
  6
CONTINUOUS
 62
    30
 10
75.0
 20
535.67946799999993
 30
0.0
 11
87.0
 21
535.67946799999993
 31
0.0
  0
LINE
  5
195
  8
SIZE
  6
CONTINUOUS
 62
    30
 10
-75.0
 20
535.67946799999993
 30
0.0
 11
-87.0
 21
535.67946799999993
 31
0.0
  0
LINE
  5
196
  8
SIZE
  6
CONTINUOUS
 62
    30
 10
63.0
 20
535.67946799999993
 30
0.0
 11
-63.0
 21
535.67946799999993
 31
0.0
  0
CIRCLE
  5
197
  8
SIZE
  6
CONTINUOUS
 62
    30
 10
63.0
 20
535.67946799999993
 30
0.0
 40
6.0
  0
LINE
  5
198
  8
SIZE
  6
CONTINUOUS
 62
    30
 10
63.0
 20
535.67946799999993
 30
0.0
 11
75.0
 21
535.67946799999993
 31
0.0
  0
CIRCLE
  5
199
  8
SIZE
  6
CONTINUOUS
 62
    30
 10
-63.0
 20
535.67946799999993
 30
0.0
 40
6.0
  0
LINE
  5
19A
  8
SIZE
  6
CONTINUOUS
 62
    30
 10
-63.0
 20
535.67946799999993
 30
0.0
 11
-75.0
 21
535.67946799999993
 31
0.0
  0
TEXT
  5
19B
  8
SIZE
  6
CONTINUOUS
 62
    30
 10
-67.200000000000003
 20
560.67946799999993
 30
0.0
 40
64.0
  1
126
 41
0.9
 72
     1
 11
0.0
 21
560.67946799999993
 31
0.0
  0
LINE
  5
19F
  8
SIZE
  6
CONTINUOUS
 62
    30
 10
85.5
 20
171.0
 30
0.0
 11
85.5
 21
670.83513600000003
 31
0.0
  0
LINE
  5
1A0
  8
SIZE
  6
CONTINUOUS
 62
    30
 10
-85.5
 20
169.0
 30
0.0
 11
-85.5
 21
670.83513600000003
 31
0.0
  0
LINE
  5
1A1
  8
SIZE
  6
CONTINUOUS
 62
    30
 10
97.5
 20
650.83513600000003
 30
0.0
 11
109.4999999999999
 21
650.83513600000003
 31
0.0
  0
LINE
  5
1A2
  8
SIZE
  6
CONTINUOUS
 62
    30
 10
-97.5
 20
650.83513600000003
 30
0.0
 11
-109.4999999999999
 21
650.83513600000003
 31
0.0
  0
LINE
  5
1A3
  8
SIZE
  6
CONTINUOUS
 62
    30
 10
85.5
 20
650.83513600000003
 30
0.0
 11
-85.5
 21
650.83513600000003
 31
0.0
  0
CIRCLE
  5
1A4
  8
SIZE
  6
CONTINUOUS
 62
    30
 10
85.5
 20
650.83513600000003
 30
0.0
 40
6.0
  0
LINE
  5
1A5
  8
SIZE
  6
CONTINUOUS
 62
    30
 10
85.5
 20
650.83513600000003
 30
0.0
 11
97.5
 21
650.83513600000003
 31
0.0
  0
CIRCLE
  5
1A6
  8
SIZE
  6
CONTINUOUS
 62
    30
 10
-85.5
 20
650.83513600000003
 30
0.0
 40
6.0
  0
LINE
  5
1A7
  8
SIZE
  6
CONTINUOUS
 62
    30
 10
-85.5
 20
650.83513600000003
 30
0.0
 11
-97.5
 21
650.83513600000003
 31
0.0
  0
TEXT
  5
1A8
  8
SIZE
  6
CONTINUOUS
 62
    30
 10
-92.708571428571446
 20
675.83513600000003
 30
0.0
 40
64.0
  1
üá171
 41
0.9
 72
     1
 11
0.0
 21
675.83513600000003
 31
0.0
  0
LINE
  5
1AC
  8
SIZE
  6
CONTINUOUS
 62
    30
 10
103.0
 20
226.5
 30
0.0
 11
103.0
 21
791.06347100000005
 31
0.0
  0
LINE
  5
1AD
  8
SIZE
  6
CONTINUOUS
 62
    30
 10
-103.0
 20
226.5
 30
0.0
 11
-103.0
 21
791.06347100000005
 31
0.0
  0
LINE
  5
1AE
  8
SIZE
  6
CONTINUOUS
 62
    30
 10
91.0
 20
771.06347100000005
 30
0.0
 11
-91.0
 21
771.06347100000005
 31
0.0
  0
CIRCLE
  5
1AF
  8
SIZE
  6
CONTINUOUS
 62
    30
 10
103.0
 20
771.06347100000005
 30
0.0
 40
6.0
  0
LINE
  5
1B0
  8
SIZE
  6
CONTINUOUS
 62
    30
 10
103.0
 20
771.06347100000005
 30
0.0
 11
91.0
 21
771.06347100000005
 31
0.0
  0
CIRCLE
  5
1B1
  8
SIZE
  6
CONTINUOUS
 62
    30
 10
-103.0
 20
771.06347100000005
 30
0.0
 40
6.0
  0
LINE
  5
1B2
  8
SIZE
  6
CONTINUOUS
 62
    30
 10
-103.0
 20
771.06347100000005
 30
0.0
 11
-91.0
 21
771.06347100000005
 31
0.0
  0
TEXT
  5
1B3
  8
SIZE
  6
CONTINUOUS
 62
    30
 10
-72.685714285714283
 20
796.06347100000005
 30
0.0
 40
64.0
  1
206
 41
0.9
 72
     1
 11
0.0
 21
796.06347100000005
 31
0.0
  0
LINE
  5
1B7
  8
DETAIL
  6
CONTINUOUS
 62
     5
 10
-85.5
 20
1.0
 30
0.0
 11
85.5
 21
1.0
 31
0.0
  0
LINE
  5
1B8
  8
SIZE
  6
CONTINUOUS
 62
    30
 10
-105.4999999999999
 20
1.0
 30
0.0
 11
-248.94488799999991
 21
1.0
 31
0.0
  0
LINE
  5
1B9
  8
SIZE
  6
CONTINUOUS
 62
    30
 10
-68.0
 20
47.0
 30
0.0
 11
-248.94488799999991
 21
47.0
 31
0.0
  0
LINE
  5
1BA
  8
SIZE
  6
CONTINUOUS
 62
    30
 10
-228.94488799999999
 20
-11.0
 30
0.0
 11
-228.94488799999999
 21
-23.0
 31
0.0
  0
LINE
  5
1BB
  8
SIZE
  6
CONTINUOUS
 62
    30
 10
-228.94488799999999
 20
59.0
 30
0.0
 11
-228.94488799999999
 21
71.0
 31
0.0
  0
LINE
  5
1BC
  8
SIZE
  6
CONTINUOUS
 62
    30
 10
-228.94488799999999
 20
-170.148392
 30
0.0
 11
-228.94488799999999
 21
1.0
 31
0.0
  0
TEXT
  5
1BD
  8
SIZE
  6
CONTINUOUS
 62
    30
 10
-253.94488799999999
 20
-145.1483918571428
 30
0.0
 40
64.0
  1
46
 50
90.0
 41
0.9
 72
     1
 11
-253.94488799999999
 21
-99.891249000000002
 31
0.0
  0
LINE
  5
1BE
  8
SIZE
  6
CONTINUOUS
 62
    30
 10
-228.94488799999999
 20
1.0
 30
0.0
 11
-228.94488799999999
 21
47.0
 31
0.0
  0
LINE
  5
1BF
  8
SIZE
  6
CONTINUOUS
 62
    30
 10
-228.94488799999999
 20
1.0
 30
0.0
 11
-228.94488799999999
 21
47.0
 31
0.0
  0
CIRCLE
  5
1C0
  8
SIZE
  6
CONTINUOUS
 62
    30
 10
-228.94488799999999
 20
1.0
 30
0.0
 40
6.0
  0
LINE
  5
1C1
  8
SIZE
  6
CONTINUOUS
 62
    30
 10
-228.94488799999999
 20
1.0
 30
0.0
 11
-228.94488799999999
 21
-11.0
 31
0.0
  0
CIRCLE
  5
1C2
  8
SIZE
  6
CONTINUOUS
 62
    30
 10
-228.94488799999999
 20
47.0
 30
0.0
 40
6.0
  0
LINE
  5
1C3
  8
SIZE
  6
CONTINUOUS
 62
    30
 10
-228.94488799999999
 20
47.0
 30
0.0
 11
-228.94488799999999
 21
59.0
 31
0.0
  0
LINE
  5
1C7
  8
NOTE
  6
CONTINUOUS
 62
     4
 10
98.500000000000014
 20
0.0
 30
0.0
 11
222.4790669999999
 21
-171.39785900000001
 31
0.0
  0
LINE
  5
1C8
  8
NOTE
  6
CONTINUOUS
 62
     4
 10
129.66521900000001
 20
-25.074472
 30
0.0
 11
98.500000000000014
 21
0.0
 31
0.0
  0
LINE
  5
1C9
  8
NOTE
  6
CONTINUOUS
 62
     4
 10
98.500000000000014
 20
0.0
 30
0.0
 11
112.952635
 21
-37.297739
 31
0.0
  0
LINE
  5
1CA
  8
NOTE
  6
CONTINUOUS
 62
     4
 10
-103.0
 20
186.5
 30
0.0
 11
-216.658287
 21
399.82408700000002
 31
0.0
  0
LINE
  5
1CB
  8
NOTE
  6
CONTINUOUS
 62
     4
 10
-131.03395599999999
 20
215.03239099999999
 30
0.0
 11
-103.0
 21
186.5
 31
0.0
  0
LINE
  5
1CC
  8
NOTE
  6
CONTINUOUS
 62
     4
 10
-103.0
 20
186.5
 30
0.0
 11
-113.011922
 21
225.22675299999989
 31
0.0
  0
LINE
  5
1CD
  8
SIZE
  6
CONTINUOUS
 62
    30
 10
107.4999999999999
 20
140.5
 30
0.0
 11
414.5699679999999
 21
140.5
 31
0.0
  0
LINE
  5
1CE
  8
SIZE
  6
CONTINUOUS
 62
    30
 10
143.0
 20
186.5
 30
0.0
 11
414.5699679999999
 21
186.5
 31
0.0
  0
LINE
  5
1CF
  8
SIZE
  6
CONTINUOUS
 62
    30
 10
394.56996800000002
 20
128.49999999999989
 30
0.0
 11
394.56996800000002
 21
116.5
 31
0.0
  0
LINE
  5
1D0
  8
SIZE
  6
CONTINUOUS
 62
    30
 10
394.56996800000002
 20
198.5
 30
0.0
 11
394.56996800000002
 21
210.49999999999989
 31
0.0
  0
LINE
  5
1D1
  8
SIZE
  6
CONTINUOUS
 62
    30
 10
394.56996800000002
 20
362.34943199999992
 30
0.0
 11
394.56996800000002
 21
186.5
 31
0.0
  0
TEXT
  5
1D2
  8
SIZE
  6
CONTINUOUS
 62
    30
 10
369.56996800000002
 20
246.8351461428571
 30
0.0
 40
64.0
  1
46
 50
90.0
 41
0.9
 72
     1
 11
369.56996800000002
 21
292.09228899999988
 31
0.0
  0
LINE
  5
1D3
  8
SIZE
  6
CONTINUOUS
 62
    30
 10
394.56996800000002
 20
140.5
 30
0.0
 11
394.56996800000002
 21
186.5
 31
0.0
  0
LINE
  5
1D4
  8
SIZE
  6
CONTINUOUS
 62
    30
 10
394.56996800000002
 20
140.5
 30
0.0
 11
394.56996800000002
 21
186.5
 31
0.0
  0
CIRCLE
  5
1D5
  8
SIZE
  6
CONTINUOUS
 62
    30
 10
394.56996800000002
 20
140.5
 30
0.0
 40
6.0
  0
LINE
  5
1D6
  8
SIZE
  6
CONTINUOUS
 62
    30
 10
394.56996800000002
 20
140.5
 30
0.0
 11
394.56996800000002
 21
128.49999999999989
 31
0.0
  0
CIRCLE
  5
1D7
  8
SIZE
  6
CONTINUOUS
 62
    30
 10
394.56996800000002
 20
186.5
 30
0.0
 40
6.0
  0
LINE
  5
1D8
  8
SIZE
  6
CONTINUOUS
 62
    30
 10
394.56996800000002
 20
186.5
 30
0.0
 11
394.56996800000002
 21
198.5
 31
0.0
  0
TEXT
  5
1E4
  8
ETC
  6
CONTINUOUS
 62
    61
 10
484.66879017379358
 20
622.1229909552269
 30
0.0
 40
50.0
  1
VD-10Z7
 41
0.9
  0
TEXT
  5
1E5
  8
ETC
  6
CONTINUOUS
 62
    61
 10
398.19766009603183
 20
790.45391873170058
 30
0.0
 40
64.0
  1
VD-10Z7_2
 41
0.9
  0
TEXT
  5
1E6
  8
ETC
  6
CONTINUOUS
 62
    61
 10
393.11963509603191
 20
694.50187773170069
 30
0.0
 40
64.0
  1
èÀïCÉ¯
 41
0.9
  0
LINE
  5
1E7
  8
OUTLINE
  6
CONTINUOUS
 62
     3
 10
85.5
 20
2.0
 30
0.0
 11
85.5
 21
0.0
 31
0.0
  0
LINE
  5
1E8
  8
BASIS
  6
DASHDOT
 62
     6
 10
0.0
 20
-49.328414000000002
 30
0.0
 11
0.0
 21
214.19215700000001
 31
0.0
  0
LINE
  5
1E9
  8
OUTLINE
  6
CONTINUOUS
 62
     3
 10
-85.5
 20
2.0
 30
0.0
 11
-85.5
 21
0.0
 31
0.0
  0
LINE
  5
1EA
  8
OUTLINE
  6
CONTINOUS
 62
     3
 10
125.0
 20
0.0
 30
0.0
 11
-125.0
 21
0.0
 31
0.0
  0
ARC
  5
1EB
  8
OUTLINE
  6
CONTINUOUS
 62
     3
 10
-65.5
 20
149.0
 30
0.0
 40
20.0
 50
90.0
 51
180.0
  0
LINE
  5
1EC
  8
BASIS
  6
DASHDOT
 62
     6
 10
10.0
 20
139.38262399999991
 30
0.0
 11
10.0
 21
196.27275900000001
 31
0.0
  0
ARC
  5
1ED
  8
OUTLINE
  6
CONTINUOUS
 62
     3
 10
65.5
 20
149.0
 30
0.0
 40
20.0
 50
0.0
 51
90.0
  0
LINE
  5
1EE
  8
BASIS
  6
DASHDOT
 62
     6
 10
81.375340000000051
 20
102.0
 30
0.0
 11
-81.533562999999958
 21
102.0
 31
0.0
  0
LINE
  5
1EF
  8
OUTLINE
  6
DASHED
 62
     3
 39
50.0
 10
-85.5
 20
140.5
 30
0.0
 11
-85.5
 21
2.0
 31
0.0
  0
LINE
  5
1F0
  8
OUTLINE
  6
CONTINUOUS
 62
     3
 10
-85.5
 20
149.000013
 30
0.0
 11
-85.5
 21
140.5
 31
0.0
  0
LINE
  5
1F1
  8
OUTLINE
  6
DASHED
 62
     3
 39
50.0
 10
85.5
 20
140.5
 30
0.0
 11
85.5
 21
2.0
 31
0.0
  0
LINE
  5
1F2
  8
OUTLINE
  6
CONTINUOUS
 62
     3
 10
85.5
 20
149.957087
 30
0.0
 11
85.5
 21
140.5
 31
0.0
  0
LINE
  5
1F3
  8
OUTLINE
  6
CONTINUOUS
 62
     3
 10
-65.5
 20
169.0
 30
0.0
 11
65.5
 21
169.0
 31
0.0
  0
ENDSEC
  0
EOF
