  0
SECTION
  2
HEADER
  9
$ACADVER
  1
AC1009
  9
$DWGCODEPAGE
  3
dos932
  9
$INSBASE
 10
0.0
 20
0.0
 30
0.0
  9
$EXTMIN
 10
-373.8784621514842
 20
-858.12376807225337
 30
-0.0015258207003583
  9
$EXTMAX
 10
1527.2369506271041
 20
708.16040854919629
 30
0.0000000349246037
  9
$LIMMIN
 10
-2970.0
 20
-2100.0
  9
$LIMMAX
 10
2970.0
 20
2100.0
  9
$ORTHOMODE
 70
     1
  9
$REGENMODE
 70
     1
  9
$FILLMODE
 70
     1
  9
$QTEXTMODE
 70
     0
  9
$MIRRTEXT
 70
     0
  9
$LTSCALE
 40
20.0
  9
$ATTMODE
 70
     1
  9
$TEXTSIZE
 40
64.0
  9
$TRACEWID
 40
0.05
  9
$TEXTSTYLE
  7
STANDARD
  9
$CLAYER
  8
SIZE
  9
$CELTYPE
  6
CONTINUOUS
  9
$CECOLOR
 62
     7
  9
$DIMSCALE
 40
1.0
  9
$DIMASZ
 40
12.0
  9
$DIMEXO
 40
20.0
  9
$DIMDLI
 40
200.0
  9
$DIMRND
 40
0.0
  9
$DIMDLE
 40
0.0
  9
$DIMEXE
 40
20.0
  9
$DIMTP
 40
0.0
  9
$DIMTM
 40
0.0
  9
$DIMTXT
 40
64.0
  9
$DIMCEN
 40
0.09
  9
$DIMTSZ
 40
0.0
  9
$DIMTOL
 70
     0
  9
$DIMLIM
 70
     0
  9
$DIMTIH
 70
     0
  9
$DIMTOH
 70
     0
  9
$DIMSE1
 70
     0
  9
$DIMSE2
 70
     0
  9
$DIMTAD
 70
     1
  9
$DIMZIN
 70
     8
  9
$DIMBLK
  1

  9
$DIMASO
 70
     1
  9
$DIMSHO
 70
     0
  9
$DIMPOST
  1

  9
$DIMAPOST
  1

  9
$DIMALT
 70
     0
  9
$DIMALTD
 70
     2
  9
$DIMALTF
 40
25.399999999999999
  9
$DIMLFAC
 40
1.0
  9
$DIMTOFL
 70
     1
  9
$DIMTVP
 40
0.0
  9
$DIMTIX
 70
     1
  9
$DIMSOXD
 70
     0
  9
$DIMSAH
 70
     0
  9
$DIMBLK1
  1

  9
$DIMBLK2
  1

  9
$DIMSTYLE
  2
STANDARD
  9
$DIMCLRD
 70
     7
  9
$DIMCLRE
 70
     7
  9
$DIMCLRT
 70
     7
  9
$DIMTFAC
 40
1.0
  9
$DIMGAP
 40
25.0
  9
$LUNITS
 70
     2
  9
$LUPREC
 70
     4
  9
$SKETCHINC
 40
0.1
  9
$FILLETRAD
 40
3.0
  9
$AUNITS
 70
     1
  9
$AUPREC
 70
     3
  9
$MENU
  1
ACAD
  9
$ELEVATION
 40
0.0
  9
$PELEVATION
 40
0.0
  9
$THICKNESS
 40
0.0
  9
$LIMCHECK
 70
     0
  9
$CHAMFERA
 40
0.0
  9
$CHAMFERB
 40
0.0
  9
$SKPOLY
 70
     0
  9
$TDCREATE
 40
2453019.62301037
  9
$TDUPDATE
 40
2459025.483385614
  9
$TDINDWG
 40
1.7131178356
  9
$TDUSRTIMER
 40
1.7131178356
  9
$USRTIMER
 70
     1
  9
$ANGBASE
 50
0.0
  9
$ANGDIR
 70
     0
  9
$PDMODE
 70
     3
  9
$PDSIZE
 40
-2.0
  9
$PLINEWID
 40
0.0
  9
$SPLFRAME
 70
     0
  9
$SPLINETYPE
 70
     6
  9
$SPLINESEGS
 70
     8
  9
$SURFTAB1
 70
     6
  9
$SURFTAB2
 70
     6
  9
$SURFTYPE
 70
     6
  9
$SURFU
 70
     6
  9
$SURFV
 70
     6
  9
$UCSNAME
  2

  9
$UCSORG
 10
0.0
 20
0.0
 30
0.0
  9
$UCSXDIR
 10
1.0
 20
0.0
 30
0.0
  9
$UCSYDIR
 10
0.0
 20
1.0
 30
0.0
  9
$PUCSNAME
  2

  9
$PUCSORG
 10
0.0
 20
0.0
 30
0.0
  9
$PUCSXDIR
 10
1.0
 20
0.0
 30
0.0
  9
$PUCSYDIR
 10
0.0
 20
1.0
 30
0.0
  9
$USERI1
 70
     0
  9
$USERI2
 70
     0
  9
$USERI3
 70
     0
  9
$USERI4
 70
     0
  9
$USERI5
 70
     0
  9
$USERR1
 40
20.0
  9
$USERR2
 40
0.0
  9
$USERR3
 40
0.0
  9
$USERR4
 40
0.0
  9
$USERR5
 40
0.0
  9
$WORLDVIEW
 70
     1
  9
$SHADEDGE
 70
     3
  9
$SHADEDIF
 70
    70
  9
$TILEMODE
 70
     1
  9
$MAXACTVP
 70
    48
  9
$PINSBASE
 10
0.0
 20
0.0
 30
0.0
  9
$PLIMCHECK
 70
     0
  9
$PEXTMIN
 10
-100000000000000000000.0
 20
-100000000000000000000.0
 30
-100000000000000000000.0
  9
$PEXTMAX
 10
100000000000000000000.0
 20
100000000000000000000.0
 30
100000000000000000000.0
  9
$PLIMMIN
 10
0.0
 20
0.0
  9
$PLIMMAX
 10
12.0
 20
9.0
  9
$UNITMODE
 70
     0
  9
$VISRETAIN
 70
     0
  9
$PLINEGEN
 70
     0
  9
$PSLTSCALE
 70
     0
  9
$TREEDEPTH
 70
  3020
  9
$ATTDIA
 70
     0
  9
$ATTREQ
 70
     1
  9
$BLIPMODE
 70
     1
  9
$COORDS
 70
     1
  9
$DRAGMODE
 70
     2
  9
$OSMODE
 70
     0
  9
$HANDLING
 70
     0
  9
$HANDSEED
  5
EF3E
  0
ENDSEC
  0
SECTION
  2
TABLES
  0
TABLE
  2
LTYPE
 70
     3
  0
LTYPE
  2
CONTINUOUS
 70
     0
  3
実線
 72
    65
 73
     0
 40
0.0
  0
LTYPE
  2
DASHDOT
 70
     0
  3
____ _ ____ _ ____ _ ____ _ ____ _ ____ _ ____
 72
    65
 73
     4
 40
5.5
 49
4.0
 49
-0.6
 49
0.3
 49
-0.6
  0
LTYPE
  2
CENTER
 70
     0
  3
Center ____ _ ____ _ ____ _ ____ _ ____ _ ____
 72
    65
 73
     4
 40
1.0
 49
0.5
 49
-0.25
 49
0.0
 49
-0.25
  0
ENDTAB
  0
TABLE
  2
LAYER
 70
    12
  0
LAYER
  2
0
 70
     0
 62
     7
  6
CONTINUOUS
  0
LAYER
  2
BASIS
 70
     0
 62
     6
  6
DASHDOT
  0
LAYER
  2
OUTLINE
 70
     0
 62
     3
  6
CONTINUOUS
  0
LAYER
  2
DETAIL
 70
     0
 62
     5
  6
CONTINUOUS
  0
LAYER
  2
SIZE
 70
     0
 62
    30
  6
CONTINUOUS
  0
LAYER
  2
ARRANGE
 70
     0
 62
     1
  6
CONTINUOUS
  0
LAYER
  2
DEFPOINTS
 70
     0
 62
     7
  6
CONTINUOUS
  0
LAYER
  2
ETC
 70
     0
 62
    61
  6
CONTINUOUS
  0
LAYER
  2
FIX
 70
     0
 62
    11
  6
CONTINUOUS
  0
LAYER
  2
NOTE
 70
     0
 62
     4
  6
CONTINUOUS
  0
LAYER
  2
SERVICESPACE
 70
    64
 62
     2
  6
DASHDOT
  0
LAYER
  2
SYMBOLLINE
 70
    64
 62
    15
  6
CONTINUOUS
  0
ENDTAB
  0
TABLE
  2
STYLE
 70
     1
  0
STYLE
  2
STANDARD
 70
     0
 40
64.0
 41
0.9
 50
0.0
 71
     0
 42
64.0
  3
SIMPLEX.shx
  4
BIGFONT.shx
  0
ENDTAB
  0
TABLE
  2
APPID
 70
    19
  0
APPID
  2
ACAD
 70
     0
  0
APPID
  2
AUTOCAD_POSTSCRIPT_FIGURE
 70
     0
  0
APPID
  2
ACAD_EXEMPT_FROM_CAD_STANDARDS
 70
     0
  0
APPID
  2
ACAD_PSEXT
 70
     0
  0
APPID
  2
ACAUTHENVIRON
 70
     0
  0
APPID
  2
GENIUS_GENOENT_13
 70
     0
  0
APPID
  2
GENIUS_GENCFG_13
 70
     0
  0
APPID
  2
GENIUS_GENCFG0_13
 70
     0
  0
APPID
  2
GENIUS_GENCFG1_13
 70
     0
  0
APPID
  2
GENIUS_GENCFG2_13
 70
     0
  0
APPID
  2
GENIUS_GENCFG3_13
 70
     0
  0
APPID
  2
GENIUS_GENCFG4_13
 70
     0
  0
APPID
  2
GENIUS_GEVCFG0_13
 70
     0
  0
APPID
  2
CONTENTBLOCKICON
 70
     0
  0
APPID
  2
CONTENTBLOCKDESCRIPTION
 70
     0
  0
APPID
  2
ACAD_NAV_VCDISPLAY
 70
     0
  0
APPID
  2
ACAD_MLEADERVER
 70
     0
  0
APPID
  2
ACDBDYNAMICBLOCKTRUENAME
 70
     0
  0
APPID
  2
ACDBDYNAMICBLOCKGUID
 70
     0
  0
ENDTAB
  0
TABLE
  2
DIMSTYLE
 70
     1
  0
DIMSTYLE
  2
STANDARD
 70
     0
  3

  4

  5
_ORIGIN
  6

  7

 40
1.0
 41
12.0
 42
20.0
 43
200.0
 44
20.0
 45
0.0
 46
0.0
 47
0.0
 48
0.0
140
64.0
141
0.09
142
0.0
143
25.399999999999999
144
1.0
145
0.0
146
1.0
147
25.0
 71
     0
 72
     0
 73
     0
 74
     0
 75
     0
 76
     0
 77
     1
 78
     8
170
     0
171
     2
172
     1
173
     0
174
     1
175
     0
176
     7
177
     7
178
     7
  0
ENDTAB
  0
TABLE
  2
VIEW
 70
     1
  0
VIEW
  2
ALL
 70
     0
 40
4282.6198079999986
 10
0.0
 20
41.309904000000003
 41
5940.0
 11
0.0
 21
0.0
 31
1.0
 12
0.0
 22
0.0
 32
0.0
 42
50.0
 43
0.0
 44
0.0
 50
0.0
 71
     0
  0
ENDTAB
  0
TABLE
  2
UCS
 70
     0
  0
ENDTAB
  0
TABLE
  2
VPORT
 70
     1
  0
VPORT
  2
*ACTIVE
 70
     0
 10
0.0
 20
0.0
 11
1.0
 21
1.0
 12
576.67924423781028
 22
-74.98167976152854
 13
0.0
 23
0.0
 14
1.0
 24
1.0
 15
0.0
 25
0.0
 16
0.0
 26
0.0
 36
1.0
 17
0.0
 27
0.0
 37
0.0
 40
1576.6683811073381
 41
1.747787610619469
 42
50.0
 43
0.0
 44
0.0
 50
0.0
 51
0.0
 71
     0
 72
  1000
 73
     1
 74
     3
 75
     0
 76
     0
 77
     0
 78
     0
  0
ENDTAB
  0
ENDSEC
  0
SECTION
  2
BLOCKS
  0
BLOCK
  8
0
  2
_ORIGIN
 70
     0
 10
0.0
 20
0.0
 30
0.0
  3
_ORIGIN
  1
_ORIGIN
  0
CIRCLE
  8
0
  6
CONTINUOUS
 62
     7
 10
0.0
 20
0.0
 30
0.0
 40
0.5
  0
LINE
  8
0
  6
CONTINUOUS
 62
     7
 10
0.0
 20
0.0
 30
0.0
 11
-1.0
 21
0.0
 31
0.0
  0
ENDBLK
  8
0
  0
ENDSEC
  0
SECTION
  2
ENTITIES
  0
TEXT
  8
ETC
  6
CONTINUOUS
 62
    61
 10
893.46144511949342
 20
626.1201180033554
 30
0.0
 40
64.0
  1
VD-10ZAC13_1
 41
0.9
  0
TEXT
  8
ETC
  6
CONTINUOUS
 62
    61
 10
889.27545111949303
 20
508.16480798852422
 30
0.0
 40
64.0
  1
換気扇
 41
0.9
  0
TEXT
  8
ETC
  6
CONTINUOUS
 62
    61
 10
939.97684936804899
 20
400.01603510229887
 30
0.0
 40
40.0
  1
VD-10ZAC13
 41
0.9
  0
TEXT
  8
NOTE
  6
CONTINUOUS
 62
     4
 10
-44.726985934042197
 20
-287.11926013663259
 30
0.0
 40
64.0
  1
EA
 41
0.9
  0
TEXT
  8
NOTE
  6
CONTINUOUS
 62
     4
 10
341.58396230099419
 20
453.51528810141508
 30
0.0
 40
64.0
  1
EL
 41
0.9
  0
LINE
  8
NOTE
  6
CONTINUOUS
 62
     4
 10
472.10912165482159
 20
438.31548760288803
 30
0.0
 11
331.53511513570362
 21
438.3154876028525
 31
0.0
  0
LINE
  8
NOTE
  6
CONTINUOUS
 62
     4
 10
68.99172499999986
 20
-46.494420000000098
 30
0.0
 11
331.53511513570362
 21
438.3154876028525
 31
0.0
  0
LINE
  8
NOTE
  6
CONTINUOUS
 62
     4
 10
68.99172499999986
 20
-46.494420000000098
 30
0.0
 11
97.065099044112685
 21
-19.850470812550039
 31
0.0
  0
LINE
  8
NOTE
  6
CONTINUOUS
 62
     4
 10
76.294287394578532
 20
-7.2363702961546323
 30
0.0
 11
68.99172499999986
 21
-46.494420000000098
 31
0.0
  0
CIRCLE
  8
ARRANGE
  6
CONTINUOUS
 62
     1
 10
0.0
 20
0.0
 30
0.0
 40
40.0
  0
POINT
  8
ARRANGE
  6
CONTINUOUS
 62
     1
 10
0.0
 20
0.0
 30
0.0
 50
90.0
  0
LINE
  8
BASIS
  6
DASHDOT
 62
     6
 10
-140.68038700000011
 20
0.0
 30
0.0
 11
131.94946399999981
 21
0.0
 31
0.0
  0
LINE
  8
BASIS
  6
DASHDOT
 62
     6
 10
0.0
 20
-208.1727470000001
 30
0.0
 11
0.0
 21
136.680791
 31
0.0
  0
CIRCLE
  8
FIX
  6
CONTINUOUS
 62
    11
 10
-64.992400000000089
 20
98.511999999999944
 30
0.0
 40
10.0
  0
CIRCLE
  8
FIX
  6
CONTINUOUS
 62
    11
 10
-98.511999999999944
 20
-65.008000000000038
 30
0.0
 40
10.0
  0
CIRCLE
  8
FIX
  6
CONTINUOUS
 62
    11
 10
-98.511999999999944
 20
65.007999999999925
 30
0.0
 40
10.0
  0
TEXT
  8
NOTE
  6
CONTINUOUS
 62
     4
 10
360.34545341017201
 20
644.13087651943852
 30
0.0
 40
63.999999999999993
  1
8-φ5
 41
0.9
  0
LINE
  8
NOTE
  6
CONTINUOUS
 62
     4
 10
646.02216971188955
 20
613.24570000000017
 30
0.0
 11
313.60306613981129
 21
613.24570023102342
 31
0.0
  0
LINE
  8
NOTE
  6
CONTINUOUS
 62
     4
 10
64.992400000000089
 20
98.511999999999944
 30
0.0
 11
313.60306613981129
 21
613.24570023102342
 31
0.0
  0
LINE
  8
NOTE
  6
CONTINUOUS
 62
     4
 10
64.992400000000089
 20
98.511999999999944
 30
0.0
 11
88.92418082017457
 21
128.88131906729151
 31
0.0
  0
LINE
  8
NOTE
  6
CONTINUOUS
 62
     4
 10
73.658068996161546
 20
137.55962609867979
 30
0.0
 11
64.992400000000089
 21
98.511999999999944
 31
0.0
  0
LINE
  8
SIZE
  6
CONTINUOUS
 62
    30
 10
121.5001199999997
 20
111.5001199999999
 30
0.0
 11
840.21786758307553
 21
111.5001199999997
 31
0.0
  0
LINE
  8
SIZE
  6
CONTINUOUS
 62
    30
 10
121.5001199999997
 20
-111.50012
 30
0.0
 11
840.21786758307553
 21
-111.50012000000019
 31
0.0
  0
LINE
  8
SIZE
  6
CONTINUOUS
 62
    30
 10
820.21786758307553
 20
99.500119999999697
 30
0.0
 11
820.21786758307553
 21
-99.500120000000265
 31
0.0
  0
CIRCLE
  8
SIZE
  6
CONTINUOUS
 62
    30
 10
820.21786758307553
 20
111.5001199999997
 30
0.0
 40
6.0
  0
LINE
  8
SIZE
  6
CONTINUOUS
 62
    30
 10
820.21786758307553
 20
111.5001199999997
 30
0.0
 11
820.21786758307553
 21
99.500119999999697
 31
0.0
  0
CIRCLE
  8
SIZE
  6
CONTINUOUS
 62
    30
 10
820.21786758307553
 20
-111.50012000000019
 30
0.0
 40
6.0
  0
LINE
  8
SIZE
  6
CONTINUOUS
 62
    30
 10
820.21786758307553
 20
-111.50012000000019
 30
0.0
 11
820.21786758307553
 21
-99.500120000000152
 31
0.0
  0
TEXT
  8
SIZE
  6
CONTINUOUS
 62
    30
 10
795.21786758307553
 20
-74.057142857142949
 30
0.0
 40
64.0
  1
223
 50
90.0
 41
0.9
 72
     1
 11
795.21786758307553
 21
-0.0000000000001137
 31
0.0
  0
POINT
  8
DEFPOINTS
  6
CONTINUOUS
 62
    30
 10
101.5001199999997
 20
111.5001199999999
 30
0.0
  0
POINT
  8
DEFPOINTS
  6
CONTINUOUS
 62
    30
 10
101.5001199999997
 20
-111.50012
 30
0.0
  0
POINT
  8
DEFPOINTS
  6
CONTINUOUS
 62
    30
 10
820.21786758307553
 20
-111.50012000000019
 30
0.0
  0
LINE
  8
SIZE
  6
CONTINUOUS
 62
    30
 10
144.0
 20
125.0
 30
0.0
 11
964.71655210018571
 21
124.9999999999998
 31
0.0
  0
LINE
  8
SIZE
  6
CONTINUOUS
 62
    30
 10
144.0
 20
-125.0
 30
0.0
 11
964.71655210018571
 21
-125.0000000000002
 31
0.0
  0
LINE
  8
SIZE
  6
CONTINUOUS
 62
    30
 10
944.71655210018571
 20
136.9999999999998
 30
0.0
 11
944.71655210018571
 21
148.9999999999998
 31
0.0
  0
LINE
  8
SIZE
  6
CONTINUOUS
 62
    30
 10
944.71655210018571
 20
-137.0000000000002
 30
0.0
 11
944.71655210018571
 21
-149.0000000000002
 31
0.0
  0
LINE
  8
SIZE
  6
CONTINUOUS
 62
    30
 10
944.71655210018571
 20
124.9999999999998
 30
0.0
 11
944.71655210018571
 21
-125.0000000000002
 31
0.0
  0
CIRCLE
  8
SIZE
  6
CONTINUOUS
 62
    30
 10
944.71655210018571
 20
124.9999999999998
 30
0.0
 40
6.0
  0
LINE
  8
SIZE
  6
CONTINUOUS
 62
    30
 10
944.71655210018571
 20
124.9999999999998
 30
0.0
 11
944.71655210018571
 21
136.9999999999998
 31
0.0
  0
CIRCLE
  8
SIZE
  6
CONTINUOUS
 62
    30
 10
944.71655210018571
 20
-125.0000000000002
 30
0.0
 40
6.0
  0
LINE
  8
SIZE
  6
CONTINUOUS
 62
    30
 10
944.71655210018571
 20
-125.0000000000002
 30
0.0
 11
944.71655210018571
 21
-137.0000000000002
 31
0.0
  0
TEXT
  8
SIZE
  6
CONTINUOUS
 62
    30
 10
919.71655210018571
 20
-110.537142857143
 30
0.0
 40
64.0
  1
□250
 50
90.0
 41
0.9
 72
     1
 11
919.71655210018571
 21
-0.0000000000001137
 31
0.0
  0
POINT
  8
DEFPOINTS
  6
CONTINUOUS
 62
    30
 10
124.0
 20
125.0
 30
0.0
  0
POINT
  8
DEFPOINTS
  6
CONTINUOUS
 62
    30
 10
124.0
 20
-125.0
 30
0.0
  0
POINT
  8
DEFPOINTS
  6
CONTINUOUS
 62
    30
 10
944.71655210018571
 20
-125.0000000000002
 30
0.0
  0
ARC
  8
DETAIL
  6
CONTINUOUS
 62
     5
 10
-72.0
 20
72.0
 30
0.0
 40
15.0
 50
90.0
 51
180.0
  0
ARC
  8
DETAIL
  6
CONTINUOUS
 62
     5
 10
72.0
 20
72.0
 30
0.0
 40
15.0
 50
0.0
 51
90.0
  0
LINE
  8
DETAIL
  6
CONTINUOUS
 62
     5
 10
65.109654999999748
 20
-87.0
 30
0.0
 11
85.0
 21
-87.0
 31
0.0
  0
ARC
  8
DETAIL
  6
CONTINUOUS
 62
     5
 10
-85.0
 20
-85.0
 30
0.0
 40
2.0
 50
180.0
 51
270.0
  0
ARC
  8
DETAIL
  6
CONTINUOUS
 62
     5
 10
85.0
 20
-85.0
 30
0.0
 40
2.0
 50
270.0
 51
0.0
  0
LINE
  8
DETAIL
  6
CONTINUOUS
 62
     5
 10
-85.0
 20
-87.0
 30
0.0
 11
-65.109656000000086
 21
-87.0
 31
0.0
  0
LINE
  8
DETAIL
  6
CONTINUOUS
 62
     5
 10
87.0
 20
-85.0
 30
0.0
 11
87.0
 21
72.0
 31
0.0
  0
LINE
  8
DETAIL
  6
CONTINUOUS
 62
     5
 10
-72.0
 20
87.0
 30
0.0
 11
72.0
 21
87.0
 31
0.0
  0
LINE
  8
DETAIL
  6
CONTINUOUS
 62
     5
 10
-87.0
 20
-85.0
 30
0.0
 11
-87.0
 21
72.0
 31
0.0
  0
LINE
  8
NOTE
  6
CENTER
 62
     4
 10
106.00327299999979
 20
-65.008000000000038
 30
0.0
 11
91.02072599999974
 21
-65.008000000000038
 31
0.0
  0
LINE
  8
NOTE
  6
CENTER
 62
     4
 10
98.511999999999716
 20
-57.516726000000062
 30
0.0
 11
98.511999999999716
 21
-72.49927300000013
 31
0.0
  0
LINE
  8
NOTE
  6
CENTER
 62
     4
 10
72.483672999999726
 20
-98.512000000000057
 30
0.0
 11
57.501126000000113
 21
-98.512000000000057
 31
0.0
  0
LINE
  8
NOTE
  6
CENTER
 62
     4
 10
64.992400000000089
 20
-91.020726000000082
 30
0.0
 11
64.992400000000089
 21
-106.00327299999999
 31
0.0
  0
LINE
  8
NOTE
  6
CENTER
 62
     4
 10
-57.501127000000217
 20
-98.512000000000057
 30
0.0
 11
-72.483674000000065
 21
-98.512000000000057
 31
0.0
  0
LINE
  8
NOTE
  6
CENTER
 62
     4
 10
-64.992400000000089
 20
-91.020726000000082
 30
0.0
 11
-64.992400000000089
 21
-106.00327299999999
 31
0.0
  0
LINE
  8
NOTE
  6
CENTER
 62
     4
 10
-91.020727000000079
 20
-65.008000000000038
 30
0.0
 11
-106.0032740000001
 21
-65.008000000000038
 31
0.0
  0
LINE
  8
NOTE
  6
CENTER
 62
     4
 10
-98.511999999999944
 20
-57.516726000000062
 30
0.0
 11
-98.511999999999944
 21
-72.49927300000013
 31
0.0
  0
LINE
  8
NOTE
  6
CENTER
 62
     4
 10
-91.020727000000079
 20
65.007999999999925
 30
0.0
 11
-106.0032740000001
 21
65.007999999999925
 31
0.0
  0
LINE
  8
NOTE
  6
CENTER
 62
     4
 10
-98.511999999999944
 20
72.4992739999999
 30
0.0
 11
-98.511999999999944
 21
57.516726999999953
 31
0.0
  0
LINE
  8
NOTE
  6
CENTER
 62
     4
 10
-57.501127000000217
 20
98.511999999999944
 30
0.0
 11
-72.483674000000065
 21
98.511999999999944
 31
0.0
  0
LINE
  8
NOTE
  6
CENTER
 62
     4
 10
-64.992400000000089
 20
106.00327399999991
 30
0.0
 11
-64.992400000000089
 21
91.020726999999965
 31
0.0
  0
LINE
  8
NOTE
  6
CENTER
 62
     4
 10
72.483672999999726
 20
98.511999999999944
 30
0.0
 11
57.501126000000113
 21
98.511999999999944
 31
0.0
  0
LINE
  8
NOTE
  6
CENTER
 62
     4
 10
64.992400000000089
 20
106.00327399999991
 30
0.0
 11
64.992400000000089
 21
91.020726999999965
 31
0.0
  0
LINE
  8
NOTE
  6
CENTER
 62
     4
 10
106.00327299999979
 20
65.007999999999925
 30
0.0
 11
91.02072599999974
 21
65.007999999999925
 31
0.0
  0
LINE
  8
NOTE
  6
CENTER
 62
     4
 10
98.511999999999716
 20
72.4992739999999
 30
0.0
 11
98.511999999999716
 21
57.516726999999953
 31
0.0
  0
LINE
  8
OUTLINE
  6
CONTINUOUS
 62
     3
 10
-53.378188000000137
 20
-124.9999999999999
 30
0.0
 11
-124.0
 21
-124.9999999999999
 31
0.0
  0
LINE
  8
OUTLINE
  6
CONTINUOUS
 62
     3
 10
53.378823999999902
 20
-124.9999999999999
 30
0.0
 11
124.0
 21
-124.9999999999999
 31
0.0
  0
LINE
  8
OUTLINE
  6
CONTINUOUS
 62
     3
 10
-48.809043000000202
 20
-195.53015400000001
 30
0.0
 11
-49.168418000000202
 21
-154.34983099999991
 31
0.0
  0
ARC
  8
OUTLINE
  6
CONTINUOUS
 62
     3
 10
-51.164446000000233
 20
-154.36725000000001
 30
0.0
 40
1.996103
 50
0.5000000000044884
 51
19.999999999993829
  0
LINE
  8
OUTLINE
  6
CONTINUOUS
 62
     3
 10
-49.288722000000007
 20
-153.68454199999999
 30
0.0
 11
-52.283466000000089
 21
-145.45655099999991
 31
0.0
  0
ARC
  8
OUTLINE
  6
CONTINUOUS
 62
     3
 10
-50.40774300000021
 20
-144.77384299999991
 30
0.0
 40
1.996103
 50
180.99999999999531
 51
199.9999999999938
  0
LINE
  8
OUTLINE
  6
CONTINUOUS
 62
     3
 10
-52.403542000000023
 20
-144.80868000000001
 30
0.0
 11
-52.674531999999999
 21
-129.28368199999991
 31
0.0
  0
LINE
  8
OUTLINE
  6
CONTINUOUS
 62
     3
 10
52.403541000000132
 20
-144.80868000000001
 30
0.0
 11
52.674530999999661
 21
-129.28368199999991
 31
0.0
  0
ARC
  8
OUTLINE
  6
CONTINUOUS
 62
     3
 10
50.407741999999871
 20
-144.77384299999991
 30
0.0
 40
1.996103
 50
340.0000000000062
 51
358.99999999999818
  0
LINE
  8
OUTLINE
  6
CONTINUOUS
 62
     3
 10
49.288720999999903
 20
-153.68454199999999
 30
0.0
 11
52.283464999999978
 21
-145.45655099999991
 31
0.0
  0
ARC
  8
OUTLINE
  6
CONTINUOUS
 62
     3
 10
51.164444999999887
 20
-154.36725000000001
 30
0.0
 40
1.996103
 50
160.0000000000062
 51
179.49999999999551
  0
LINE
  8
OUTLINE
  6
CONTINUOUS
 62
     3
 10
48.809041999999863
 20
-195.53015400000001
 30
0.0
 11
49.168418000000202
 21
-154.34983099999991
 31
0.0
  0
ARC
  8
OUTLINE
  6
CONTINUOUS
 62
     3
 10
48.310035999999847
 20
-195.52579899999989
 30
0.0
 40
0.499026
 50
270.0
 51
359.49999999999551
  0
LINE
  8
OUTLINE
  6
CONTINUOUS
 62
     3
 10
48.310035999999847
 20
-196.02482499999999
 30
0.0
 11
-48.310036000000082
 21
-196.02482499999999
 31
0.0
  0
ARC
  8
OUTLINE
  6
CONTINUOUS
 62
     3
 10
-48.310036000000082
 20
-195.52579899999989
 30
0.0
 40
0.499026
 50
180.50000000000449
 51
270.0
  0
ARC
  8
OUTLINE
  6
CONTINUOUS
 62
     3
 10
-124.0
 20
124.0
 30
0.0
 40
1.0
 50
90.0
 51
180.0
  0
LINE
  8
OUTLINE
  6
CONTINUOUS
 62
     3
 10
-125.0
 20
124.0
 30
0.0
 11
-125.0
 21
0.0
 31
0.0
  0
LINE
  8
OUTLINE
  6
CONTINUOUS
 62
     3
 10
0.0
 20
125.0
 30
0.0
 11
-124.0
 21
125.0
 31
0.0
  0
ARC
  8
OUTLINE
  6
CONTINUOUS
 62
     3
 10
-124.0
 20
-123.9999999999999
 30
0.0
 40
1.0
 50
180.0
 51
270.0
  0
LINE
  8
OUTLINE
  6
CONTINUOUS
 62
     3
 10
-125.0
 20
-123.9999999999999
 30
0.0
 11
-125.0
 21
0.0
 31
0.0
  0
ARC
  8
OUTLINE
  6
CONTINUOUS
 62
     3
 10
124.0
 20
-123.9999999999999
 30
0.0
 40
1.0
 50
270.0
 51
0.0
  0
LINE
  8
OUTLINE
  6
CONTINUOUS
 62
     3
 10
125.0
 20
-123.9999999999999
 30
0.0
 11
125.0
 21
0.0
 31
0.0
  0
ARC
  8
OUTLINE
  6
CONTINUOUS
 62
     3
 10
124.0
 20
124.0
 30
0.0
 40
1.0
 50
0.0
 51
90.0
  0
LINE
  8
OUTLINE
  6
CONTINUOUS
 62
     3
 10
125.0
 20
124.0
 30
0.0
 11
125.0
 21
0.0
 31
0.0
  0
LINE
  8
OUTLINE
  6
CONTINUOUS
 62
     3
 10
0.0
 20
125.0
 30
0.0
 11
124.0
 21
125.0
 31
0.0
  0
ARC
  8
OUTLINE
  6
CONTINUOUS
 62
     3
 10
67.643025999999736
 20
-129.54495900000009
 30
0.0
 40
14.970775
 50
162.84334800000201
 51
178.99999999999829
  0
LINE
  8
OUTLINE
  6
CONTINUOUS
 62
     3
 10
53.338422999999693
 20
-125.128801
 30
0.0
 11
53.378186999999798
 21
-124.9999999999999
 31
0.0
  0
LINE
  8
OUTLINE
  6
CONTINUOUS
 62
     3
 10
-53.338424000000032
 20
-125.128801
 30
0.0
 11
-53.378188000000137
 21
-124.9999999999999
 31
0.0
  0
ARC
  8
OUTLINE
  6
CONTINUOUS
 62
     3
 10
-67.643026000000191
 20
-129.54495900000009
 30
0.0
 40
14.970775
 50
0.9999999999952488
 51
17.15665199999804
  0
LINE
  8
NOTE
  6
CENTER
 62
     4
 10
84.490464999999858
 20
-46.494420000000098
 30
0.0
 11
53.492984999999862
 21
-46.494420000000098
 31
0.0
  0
LINE
  8
NOTE
  6
CENTER
 62
     4
 10
68.99172499999986
 20
-30.99568000000011
 30
0.0
 11
68.99172499999986
 21
-61.993160000000103
 31
0.0
  0
LINE
  8
DETAIL
  6
CONTINUOUS
 62
     5
 10
-53.378188000000137
 20
-125.0
 30
0.0
 11
-124.0
 21
-125.0
 31
0.0
  0
LINE
  8
DETAIL
  6
CONTINUOUS
 62
     5
 10
53.378186999999798
 20
-125.0
 30
0.0
 11
124.0
 21
-125.0
 31
0.0
  0
LINE
  8
DETAIL
  6
CONTINUOUS
 62
     5
 10
-125.0
 20
-124.0
 30
0.0
 11
-125.0
 21
0.0
 31
0.0
  0
ARC
  8
DETAIL
  6
CONTINUOUS
 62
     5
 10
-124.0
 20
-124.0
 30
0.0
 40
1.0
 50
180.0
 51
270.0
  0
LINE
  8
DETAIL
  6
CONTINUOUS
 62
     5
 10
125.0
 20
-124.0
 30
0.0
 11
125.0
 21
0.0
 31
0.0
  0
ARC
  8
DETAIL
  6
CONTINUOUS
 62
     5
 10
124.0
 20
-124.0
 30
0.0
 40
1.0
 50
270.0
 51
0.0
  0
LINE
  8
DETAIL
  6
CONTINUOUS
 62
     5
 10
125.0
 20
124.0
 30
0.0
 11
125.0
 21
0.0
 31
0.0
  0
LINE
  8
DETAIL
  6
CONTINUOUS
 62
     5
 10
0.0
 20
125.0
 30
0.0
 11
124.0
 21
125.0
 31
0.0
  0
ARC
  8
DETAIL
  6
CONTINUOUS
 62
     5
 10
124.0
 20
124.0
 30
0.0
 40
1.0
 50
0.0
 51
90.0
  0
LINE
  8
DETAIL
  6
CONTINUOUS
 62
     5
 10
-125.0
 20
124.0
 30
0.0
 11
-125.0
 21
0.0
 31
0.0
  0
LINE
  8
DETAIL
  6
CONTINUOUS
 62
     5
 10
0.0
 20
125.0
 30
0.0
 11
-124.0
 21
125.0
 31
0.0
  0
ARC
  8
DETAIL
  6
CONTINUOUS
 62
     5
 10
-124.0
 20
124.0
 30
0.0
 40
1.0
 50
90.0
 51
180.0
  0
LINE
  8
DETAIL
  6
CONTINUOUS
 62
     5
 10
0.0
 20
111.5001199999999
 30
0.0
 11
-101.50012000000019
 21
111.5001199999999
 31
0.0
  0
LINE
  8
DETAIL
  6
CONTINUOUS
 62
     5
 10
0.0
 20
111.5001199999999
 30
0.0
 11
101.5001199999997
 21
111.5001199999999
 31
0.0
  0
LINE
  8
DETAIL
  6
CONTINUOUS
 62
     5
 10
-111.50012000000019
 20
101.5001199999999
 30
0.0
 11
-111.50012000000019
 21
0.0
 31
0.0
  0
CIRCLE
  8
DETAIL
  6
CONTINUOUS
 62
     5
 10
-98.511999999999944
 20
65.007999999999925
 30
0.0
 40
2.4912740000000002
  0
CIRCLE
  8
DETAIL
  6
CONTINUOUS
 62
     5
 10
-64.992400000000089
 20
98.511999999999944
 30
0.0
 40
2.4912740000000002
  0
ARC
  8
DETAIL
  6
CONTINUOUS
 62
     5
 10
-101.50012000000019
 20
101.5001199999999
 30
0.0
 40
10.0
 50
90.0
 51
180.0
  0
LINE
  8
DETAIL
  6
CONTINUOUS
 62
     5
 10
111.5001199999997
 20
101.5001199999999
 30
0.0
 11
111.5001199999997
 21
0.0
 31
0.0
  0
CIRCLE
  8
DETAIL
  6
CONTINUOUS
 62
     5
 10
98.511999999999716
 20
65.007999999999925
 30
0.0
 40
2.4912740000000002
  0
CIRCLE
  8
DETAIL
  6
CONTINUOUS
 62
     5
 10
64.992400000000089
 20
98.511999999999944
 30
0.0
 40
2.4912740000000002
  0
ARC
  8
DETAIL
  6
CONTINUOUS
 62
     5
 10
101.5001199999997
 20
101.5001199999999
 30
0.0
 40
10.0
 50
0.0
 51
90.0
  0
LINE
  8
DETAIL
  6
CONTINUOUS
 62
     5
 10
111.5001199999997
 20
-101.50012
 30
0.0
 11
111.5001199999997
 21
0.0
 31
0.0
  0
CIRCLE
  8
DETAIL
  6
CONTINUOUS
 62
     5
 10
98.511999999999716
 20
-65.008000000000038
 30
0.0
 40
2.4912740000000002
  0
LINE
  8
DETAIL
  6
CONTINUOUS
 62
     5
 10
57.545908000000047
 20
-111.50012
 30
0.0
 11
101.5001199999997
 21
-111.50012
 31
0.0
  0
CIRCLE
  8
DETAIL
  6
CONTINUOUS
 62
     5
 10
64.992400000000089
 20
-98.512000000000057
 30
0.0
 40
2.4912740000000002
  0
ARC
  8
DETAIL
  6
CONTINUOUS
 62
     5
 10
101.5001199999997
 20
-101.50012
 30
0.0
 40
10.0
 50
270.0
 51
0.0
  0
LINE
  8
DETAIL
  6
CONTINUOUS
 62
     5
 10
-111.50012000000019
 20
-101.50012
 30
0.0
 11
-111.50012000000019
 21
0.0
 31
0.0
  0
LINE
  8
DETAIL
  6
CONTINUOUS
 62
     5
 10
-57.545908999999938
 20
-111.50012
 30
0.0
 11
-101.50012000000019
 21
-111.50012
 31
0.0
  0
CIRCLE
  8
DETAIL
  6
CONTINUOUS
 62
     5
 10
-64.992400000000089
 20
-98.512000000000057
 30
0.0
 40
2.4912740000000002
  0
CIRCLE
  8
DETAIL
  6
CONTINUOUS
 62
     5
 10
-98.511999999999944
 20
-65.008000000000038
 30
0.0
 40
2.4912740000000002
  0
ARC
  8
DETAIL
  6
CONTINUOUS
 62
     5
 10
-101.50012000000019
 20
-101.50012
 30
0.0
 40
10.0
 50
180.0
 51
270.0
  0
CIRCLE
  8
DETAIL
  6
CONTINUOUS
 62
     5
 10
68.99172499999986
 20
-46.494420000000098
 30
0.0
 40
10.49874
  0
CIRCLE
  8
DETAIL
  6
CONTINUOUS
 62
     5
 10
9.9805160000000797
 20
4.9902589999999236
 30
0.0
 40
31.438627
  0
LINE
  8
DETAIL
  6
CONTINUOUS
 62
     5
 10
82.24268099999972
 20
-84.315999000000033
 30
0.0
 11
82.231404000000111
 21
-84.312290000000075
 31
0.0
  0
LINE
  8
DETAIL
  6
CONTINUOUS
 62
     5
 10
82.231404000000111
 20
-84.312290000000075
 30
0.0
 11
82.205339000000095
 21
-84.308622000000014
 31
0.0
  0
LINE
  8
DETAIL
  6
CONTINUOUS
 62
     5
 10
82.205339000000095
 20
-84.308622000000014
 30
0.0
 11
82.16436399999975
 21
-84.304984000000104
 31
0.0
  0
LINE
  8
DETAIL
  6
CONTINUOUS
 62
     5
 10
82.16436399999975
 20
-84.304984000000104
 30
0.0
 11
82.108838999999989
 21
-84.301406000000043
 31
0.0
  0
LINE
  8
DETAIL
  6
CONTINUOUS
 62
     5
 10
82.108838999999989
 20
-84.301406000000043
 30
0.0
 11
82.038931999999932
 21
-84.297904000000017
 31
0.0
  0
LINE
  8
DETAIL
  6
CONTINUOUS
 62
     5
 10
82.038931999999932
 20
-84.297904000000017
 30
0.0
 11
81.955098999999791
 21
-84.29449800000009
 31
0.0
  0
LINE
  8
DETAIL
  6
CONTINUOUS
 62
     5
 10
81.955098999999791
 20
-84.29449800000009
 30
0.0
 11
81.857657999999901
 21
-84.291202999999996
 31
0.0
  0
LINE
  8
DETAIL
  6
CONTINUOUS
 62
     5
 10
81.857657999999901
 20
-84.291202999999996
 30
0.0
 11
81.747188999999707
 21
-84.288036000000034
 31
0.0
  0
LINE
  8
DETAIL
  6
CONTINUOUS
 62
     5
 10
81.747188999999707
 20
-84.288036000000034
 30
0.0
 11
81.489230999999563
 21
-84.282150000000001
 31
0.0
  0
LINE
  8
DETAIL
  6
CONTINUOUS
 62
     5
 10
80.661339999999655
 20
-84.270686000000069
 30
0.0
 11
79.866600999999719
 21
-84.26557600000001
 31
0.0
  0
LINE
  8
DETAIL
  6
CONTINUOUS
 62
     5
 10
81.186375999999655
 20
-84.276956000000041
 30
0.0
 11
80.661339999999655
 21
-84.270686000000069
 31
0.0
  0
LINE
  8
DETAIL
  6
CONTINUOUS
 62
     5
 10
81.489230999999563
 20
-84.282150000000001
 30
0.0
 11
81.186375999999655
 21
-84.276956000000041
 31
0.0
  0
LINE
  8
DETAIL
  6
CONTINUOUS
 62
     5
 10
82.24268099999972
 20
-84.315999000000033
 30
0.0
 11
82.439218999999866
 21
-84.306285000000116
 31
0.0
  0
LINE
  8
DETAIL
  6
CONTINUOUS
 62
     5
 10
82.439218999999866
 20
-84.306285000000116
 30
0.0
 11
82.633864999999787
 21
-84.277358000000049
 31
0.0
  0
LINE
  8
DETAIL
  6
CONTINUOUS
 62
     5
 10
82.633864999999787
 20
-84.277358000000049
 30
0.0
 11
82.824745999999777
 21
-84.22949600000004
 31
0.0
  0
LINE
  8
DETAIL
  6
CONTINUOUS
 62
     5
 10
82.824745999999777
 20
-84.22949600000004
 30
0.0
 11
83.010022999999819
 21
-84.163160000000062
 31
0.0
  0
LINE
  8
DETAIL
  6
CONTINUOUS
 62
     5
 10
83.010022999999819
 20
-84.163160000000062
 30
0.0
 11
83.187912999999753
 21
-84.078989000000092
 31
0.0
  0
LINE
  8
DETAIL
  6
CONTINUOUS
 62
     5
 10
83.187912999999753
 20
-84.078989000000092
 30
0.0
 11
83.356702999999925
 21
-83.977792000000136
 31
0.0
  0
LINE
  8
DETAIL
  6
CONTINUOUS
 62
     5
 10
83.356702999999925
 20
-83.977792000000136
 30
0.0
 11
83.514768999999887
 21
-83.860544000000118
 31
0.0
  0
LINE
  8
DETAIL
  6
CONTINUOUS
 62
     5
 10
83.514768999999887
 20
-83.860544000000118
 30
0.0
 11
83.660589000000073
 21
-83.728374000000031
 31
0.0
  0
LINE
  8
DETAIL
  6
CONTINUOUS
 62
     5
 10
83.660589000000073
 20
-83.728374000000031
 30
0.0
 11
83.792758999999933
 21
-83.582554000000073
 31
0.0
  0
LINE
  8
DETAIL
  6
CONTINUOUS
 62
     5
 10
83.792758999999933
 20
-83.582554000000073
 30
0.0
 11
83.91000699999995
 21
-83.424486999999999
 31
0.0
  0
LINE
  8
DETAIL
  6
CONTINUOUS
 62
     5
 10
83.91000699999995
 20
-83.424486999999999
 30
0.0
 11
84.011203999999907
 21
-83.255697000000055
 31
0.0
  0
LINE
  8
DETAIL
  6
CONTINUOUS
 62
     5
 10
84.011203999999907
 20
-83.255697000000055
 30
0.0
 11
84.095376000000215
 21
-83.07780600000001
 31
0.0
  0
LINE
  8
DETAIL
  6
CONTINUOUS
 62
     5
 10
84.095376000000215
 20
-83.07780600000001
 30
0.0
 11
84.16171200000008
 21
-82.892528000000084
 31
0.0
  0
LINE
  8
DETAIL
  6
CONTINUOUS
 62
     5
 10
84.16171200000008
 20
-82.892528000000084
 30
0.0
 11
84.20957399999952
 21
-82.701647000000094
 31
0.0
  0
LINE
  8
DETAIL
  6
CONTINUOUS
 62
     5
 10
84.20957399999952
 20
-82.701647000000094
 30
0.0
 11
84.238500999999815
 21
-82.507000000000062
 31
0.0
  0
LINE
  8
DETAIL
  6
CONTINUOUS
 62
     5
 10
84.238500999999815
 20
-82.507000000000062
 30
0.0
 11
84.248214999999618
 21
-82.310461000000032
 31
0.0
  0
LINE
  8
DETAIL
  6
CONTINUOUS
 62
     5
 10
81.442152999999962
 20
-106.165418
 30
0.0
 11
81.783739999999852
 21
-106.152501
 31
0.0
  0
LINE
  8
DETAIL
  6
CONTINUOUS
 62
     5
 10
81.783739999999852
 20
-106.152501
 30
0.0
 11
82.12210099999993
 21
-106.11391999999999
 31
0.0
  0
LINE
  8
DETAIL
  6
CONTINUOUS
 62
     5
 10
82.12210099999993
 20
-106.11391999999999
 30
0.0
 11
82.458308000000216
 21
-106.049483
 31
0.0
  0
LINE
  8
DETAIL
  6
CONTINUOUS
 62
     5
 10
82.458308000000216
 20
-106.049483
 30
0.0
 11
82.789151999999831
 21
-105.9597660000001
 31
0.0
  0
LINE
  8
DETAIL
  6
CONTINUOUS
 62
     5
 10
82.789151999999831
 20
-105.9597660000001
 30
0.0
 11
83.112414999999601
 21
-105.844965
 31
0.0
  0
LINE
  8
DETAIL
  6
CONTINUOUS
 62
     5
 10
83.112414999999601
 20
-105.844965
 30
0.0
 11
83.426198999999542
 21
-105.7060180000001
 31
0.0
  0
LINE
  8
DETAIL
  6
CONTINUOUS
 62
     5
 10
83.426198999999542
 20
-105.7060180000001
 30
0.0
 11
83.728398999999627
 21
-105.54354500000009
 31
0.0
  0
LINE
  8
DETAIL
  6
CONTINUOUS
 62
     5
 10
83.728398999999627
 20
-105.54354500000009
 30
0.0
 11
84.017418999999791
 21
-105.3586990000001
 31
0.0
  0
LINE
  8
DETAIL
  6
CONTINUOUS
 62
     5
 10
84.017418999999791
 20
-105.3586990000001
 30
0.0
 11
84.291431999999986
 21
-105.1523880000001
 31
0.0
  0
LINE
  8
DETAIL
  6
CONTINUOUS
 62
     5
 10
84.291431999999986
 20
-105.1523880000001
 30
0.0
 11
84.549027000000024
 21
-104.925963
 31
0.0
  0
LINE
  8
DETAIL
  6
CONTINUOUS
 62
     5
 10
84.549027000000024
 20
-104.925963
 30
0.0
 11
84.78859199999988
 21
-104.680564
 31
0.0
  0
LINE
  8
DETAIL
  6
CONTINUOUS
 62
     5
 10
84.78859199999988
 20
-104.680564
 30
0.0
 11
85.008914999999888
 21
-104.4177360000001
 31
0.0
  0
LINE
  8
DETAIL
  6
CONTINUOUS
 62
     5
 10
85.008914999999888
 20
-104.4177360000001
 30
0.0
 11
85.208579999999984
 21
-104.13881600000011
 31
0.0
  0
LINE
  8
DETAIL
  6
CONTINUOUS
 62
     5
 10
85.208579999999984
 20
-104.13881600000011
 30
0.0
 11
85.386587999999847
 21
-103.8455730000001
 31
0.0
  0
LINE
  8
DETAIL
  6
CONTINUOUS
 62
     5
 10
85.386587999999847
 20
-103.8455730000001
 30
0.0
 11
85.541709999999966
 21
-103.539534
 31
0.0
  0
LINE
  8
DETAIL
  6
CONTINUOUS
 62
     5
 10
85.541709999999966
 20
-103.539534
 30
0.0
 11
85.673216000000139
 21
-103.2227640000001
 31
0.0
  0
LINE
  8
DETAIL
  6
CONTINUOUS
 62
     5
 10
85.673216000000139
 20
-103.2227640000001
 30
0.0
 11
85.780072999999902
 21
-102.897096
 31
0.0
  0
LINE
  8
DETAIL
  6
CONTINUOUS
 62
     5
 10
85.780072999999902
 20
-102.897096
 30
0.0
 11
85.861961999999949
 21
-102.5647450000001
 31
0.0
  0
LINE
  8
DETAIL
  6
CONTINUOUS
 62
     5
 10
85.861961999999949
 20
-102.5647450000001
 30
0.0
 11
85.918134000000009
 21
-102.22889000000011
 31
0.0
  0
LINE
  8
DETAIL
  6
CONTINUOUS
 62
     5
 10
85.918134000000009
 20
-102.22889000000011
 30
0.0
 11
85.948840000000018
 21
-101.8884710000001
 31
0.0
  0
LINE
  8
DETAIL
  6
CONTINUOUS
 62
     5
 10
59.192853000000007
 20
-106.165418
 30
0.0
 11
81.442152999999962
 21
-106.165418
 31
0.0
  0
LINE
  8
DETAIL
  6
CONTINUOUS
 62
     5
 10
62.731718999999877
 20
-54.943590000000093
 30
0.0
 11
79.364298999999846
 21
-73.966188000000102
 31
0.0
  0
LINE
  8
DETAIL
  6
CONTINUOUS
 62
     5
 10
83.951372999999876
 20
-74.325464000000011
 30
0.0
 11
83.900639999999839
 21
-74.278532000000041
 31
0.0
  0
LINE
  8
DETAIL
  6
CONTINUOUS
 62
     5
 10
83.900639999999839
 20
-74.278532000000041
 30
0.0
 11
83.841018000000076
 21
-74.230877000000078
 31
0.0
  0
LINE
  8
DETAIL
  6
CONTINUOUS
 62
     5
 10
83.841018000000076
 20
-74.230877000000078
 30
0.0
 11
83.780267999999978
 21
-74.189319000000069
 31
0.0
  0
LINE
  8
DETAIL
  6
CONTINUOUS
 62
     5
 10
83.780267999999978
 20
-74.189319000000069
 30
0.0
 11
83.71970999999985
 21
-74.153929000000062
 31
0.0
  0
LINE
  8
DETAIL
  6
CONTINUOUS
 62
     5
 10
83.71970999999985
 20
-74.153929000000062
 30
0.0
 11
83.660542999999961
 21
-74.12448900000004
 31
0.0
  0
LINE
  8
DETAIL
  6
CONTINUOUS
 62
     5
 10
83.660542999999961
 20
-74.12448900000004
 30
0.0
 11
83.604154999999992
 21
-74.100695000000087
 31
0.0
  0
LINE
  8
DETAIL
  6
CONTINUOUS
 62
     5
 10
83.604154999999992
 20
-74.100695000000087
 30
0.0
 11
83.551931999999852
 21
-74.082068000000049
 31
0.0
  0
LINE
  8
DETAIL
  6
CONTINUOUS
 62
     5
 10
83.551931999999852
 20
-74.082068000000049
 30
0.0
 11
83.504578000000038
 21
-74.067816000000107
 31
0.0
  0
LINE
  8
DETAIL
  6
CONTINUOUS
 62
     5
 10
83.504578000000038
 20
-74.067816000000107
 30
0.0
 11
83.463404999999966
 21
-74.057333000000085
 31
0.0
  0
LINE
  8
DETAIL
  6
CONTINUOUS
 62
     5
 10
83.463404999999966
 20
-74.057333000000085
 30
0.0
 11
83.427204999999958
 21
-74.0494920000001
 31
0.0
  0
LINE
  8
DETAIL
  6
CONTINUOUS
 62
     5
 10
83.427204999999958
 20
-74.0494920000001
 30
0.0
 11
83.395319999999629
 21
-74.043575000000033
 31
0.0
  0
LINE
  8
DETAIL
  6
CONTINUOUS
 62
     5
 10
83.395319999999629
 20
-74.043575000000033
 30
0.0
 11
83.366705999999795
 21
-74.038990000000013
 31
0.0
  0
LINE
  8
DETAIL
  6
CONTINUOUS
 62
     5
 10
83.366705999999795
 20
-74.038990000000013
 30
0.0
 11
83.340185000000019
 21
-74.035290000000032
 31
0.0
  0
LINE
  8
DETAIL
  6
CONTINUOUS
 62
     5
 10
83.340185000000019
 20
-74.035290000000032
 30
0.0
 11
83.315241000000242
 21
-74.032234000000017
 31
0.0
  0
LINE
  8
DETAIL
  6
CONTINUOUS
 62
     5
 10
83.315241000000242
 20
-74.032234000000017
 30
0.0
 11
83.291191000000254
 21
-74.029624000000013
 31
0.0
  0
LINE
  8
DETAIL
  6
CONTINUOUS
 62
     5
 10
83.291191000000254
 20
-74.029624000000013
 30
0.0
 11
83.267559999999776
 21
-74.027331000000004
 31
0.0
  0
LINE
  8
DETAIL
  6
CONTINUOUS
 62
     5
 10
83.267559999999776
 20
-74.027331000000004
 30
0.0
 11
83.243840000000091
 21
-74.025257000000011
 31
0.0
  0
LINE
  8
DETAIL
  6
CONTINUOUS
 62
     5
 10
83.243840000000091
 20
-74.025257000000011
 30
0.0
 11
83.219662999999855
 21
-74.023337000000083
 31
0.0
  0
LINE
  8
DETAIL
  6
CONTINUOUS
 62
     5
 10
83.219662999999855
 20
-74.023337000000083
 30
0.0
 11
83.194563000000016
 21
-74.02151600000002
 31
0.0
  0
LINE
  8
DETAIL
  6
CONTINUOUS
 62
     5
 10
83.194563000000016
 20
-74.02151600000002
 30
0.0
 11
83.168346999999812
 21
-74.019770000000108
 31
0.0
  0
LINE
  8
DETAIL
  6
CONTINUOUS
 62
     5
 10
83.168346999999812
 20
-74.019770000000108
 30
0.0
 11
83.140714000000116
 21
-74.018073000000072
 31
0.0
  0
LINE
  8
DETAIL
  6
CONTINUOUS
 62
     5
 10
83.140714000000116
 20
-74.018073000000072
 30
0.0
 11
83.080581999999595
 21
-74.01477900000009
 31
0.0
  0
LINE
  8
DETAIL
  6
CONTINUOUS
 62
     5
 10
83.952298999999584
 20
-74.326378000000091
 30
0.0
 11
84.029551999999967
 21
-74.41254600000002
 31
0.0
  0
LINE
  8
DETAIL
  6
CONTINUOUS
 62
     5
 10
84.029551999999967
 20
-74.41254600000002
 30
0.0
 11
84.09461999999985
 21
-74.504267000000027
 31
0.0
  0
LINE
  8
DETAIL
  6
CONTINUOUS
 62
     5
 10
84.09461999999985
 20
-74.504267000000027
 30
0.0
 11
84.149004999999761
 21
-74.602701000000025
 31
0.0
  0
LINE
  8
DETAIL
  6
CONTINUOUS
 62
     5
 10
84.149004999999761
 20
-74.602701000000025
 30
0.0
 11
84.192022999999608
 21
-74.706609000000071
 31
0.0
  0
LINE
  8
DETAIL
  6
CONTINUOUS
 62
     5
 10
84.192022999999608
 20
-74.706609000000071
 30
0.0
 11
84.223132000000078
 21
-74.814685000000054
 31
0.0
  0
LINE
  8
DETAIL
  6
CONTINUOUS
 62
     5
 10
84.223132000000078
 20
-74.814685000000054
 30
0.0
 11
84.241942000000108
 21
-74.92556900000011
 31
0.0
  0
LINE
  8
DETAIL
  6
CONTINUOUS
 62
     5
 10
79.345523999999841
 20
-74.008816000000024
 30
0.0
 11
79.355776999999762
 21
-73.985959000000094
 31
0.0
  0
LINE
  8
DETAIL
  6
CONTINUOUS
 62
     5
 10
79.355776999999762
 20
-73.985959000000094
 30
0.0
 11
79.362354999999752
 21
-73.97161200000005
 31
0.0
  0
LINE
  8
DETAIL
  6
CONTINUOUS
 62
     5
 10
79.362354999999752
 20
-73.97161200000005
 30
0.0
 11
79.364298999999846
 21
-73.966188000000102
 31
0.0
  0
LINE
  8
DETAIL
  6
CONTINUOUS
 62
     5
 10
80.290340999999898
 20
-73.96860700000002
 30
0.0
 11
79.364297000000079
 21
-73.966186000000107
 31
0.0
  0
LINE
  8
DETAIL
  6
CONTINUOUS
 62
     5
 10
81.190643999999793
 20
-73.974992000000043
 30
0.0
 11
80.290340999999898
 21
-73.96860700000002
 31
0.0
  0
LINE
  8
DETAIL
  6
CONTINUOUS
 62
     5
 10
81.824812999999722
 20
-73.982597000000055
 30
0.0
 11
81.190643999999793
 21
-73.974992000000043
 31
0.0
  0
LINE
  8
DETAIL
  6
CONTINUOUS
 62
     5
 10
82.250716000000011
 20
-73.989811000000032
 30
0.0
 11
81.824812999999722
 21
-73.982597000000055
 31
0.0
  0
LINE
  8
DETAIL
  6
CONTINUOUS
 62
     5
 10
82.528025999999954
 20
-73.995887000000039
 30
0.0
 11
82.250716000000011
 21
-73.989811000000032
 31
0.0
  0
LINE
  8
DETAIL
  6
CONTINUOUS
 62
     5
 10
82.702467999999953
 20
-74.000539000000117
 30
0.0
 11
82.528025999999954
 21
-73.995887000000039
 31
0.0
  0
LINE
  8
DETAIL
  6
CONTINUOUS
 62
     5
 10
82.850914999999986
 20
-74.005238000000077
 30
0.0
 11
82.702467999999953
 21
-74.000539000000117
 31
0.0
  0
LINE
  8
DETAIL
  6
CONTINUOUS
 62
     5
 10
82.936709000000064
 20
-74.008391000000074
 30
0.0
 11
82.850914999999986
 21
-74.005238000000077
 31
0.0
  0
LINE
  8
DETAIL
  6
CONTINUOUS
 62
     5
 10
83.012936999999965
 20
-74.011565000000019
 30
0.0
 11
82.936709000000064
 21
-74.008391000000074
 31
0.0
  0
LINE
  8
DETAIL
  6
CONTINUOUS
 62
     5
 10
83.080581999999595
 20
-74.01477900000009
 30
0.0
 11
83.012936999999965
 21
-74.011565000000019
 31
0.0
  0
LINE
  8
DETAIL
  6
CONTINUOUS
 62
     5
 10
84.24821699999984
 20
-75.037867000000006
 30
0.0
 11
84.24821699999984
 21
-82.310463000000027
 31
0.0
  0
LINE
  8
DETAIL
  6
CONTINUOUS
 62
     5
 10
83.951375999999982
 20
-74.325462000000016
 30
0.0
 11
86.918556999999964
 21
-77.273308000000043
 31
0.0
  0
ARC
  8
DETAIL
  6
CONTINUOUS
 62
     5
 10
69.15276700000004
 20
-46.635852000000114
 30
0.0
 40
10.530676
 50
228.162116999993
 51
228.22040399999381
  0
ARC
  8
DETAIL
  6
CONTINUOUS
 62
     5
 10
69.15276700000004
 20
-46.635852000000114
 30
0.0
 40
10.530676
 50
232.80476100000311
 51
233.01266100000191
  0
ARC
  8
DETAIL
  6
CONTINUOUS
 62
     5
 10
61.221688999999969
 20
-56.26389800000004
 30
0.0
 40
2.005843
 50
41.165117000005282
 51
90.0
  0
ARC
  8
DETAIL
  6
CONTINUOUS
 62
     5
 10
-61.319328000000269
 20
-56.26389800000004
 30
0.0
 40
2.005843
 50
90.0
 51
138.8348829999947
  0
LINE
  8
DETAIL
  6
CONTINUOUS
 62
     5
 10
79.866600999999719
 20
-84.26557600000001
 30
0.0
 11
-82.136589000000185
 21
-84.264518000000066
 31
0.0
  0
LINE
  8
DETAIL
  6
CONTINUOUS
 62
     5
 10
-79.461938000000146
 20
-73.966188000000102
 30
0.0
 11
-62.829359000000068
 21
-54.943590000000093
 31
0.0
  0
LINE
  8
DETAIL
  6
CONTINUOUS
 62
     5
 10
-84.34585600000014
 20
-75.037867000000006
 30
0.0
 11
-84.345854000000145
 21
-82.310461000000032
 31
0.0
  0
LINE
  8
DETAIL
  6
CONTINUOUS
 62
     5
 10
-83.23666900000012
 20
-74.017973000000097
 30
0.0
 11
-83.265272000000095
 21
-74.01972400000011
 31
0.0
  0
LINE
  8
DETAIL
  6
CONTINUOUS
 62
     5
 10
-83.265272000000095
 20
-74.01972400000011
 30
0.0
 11
-83.2924280000002
 21
-74.021531000000095
 31
0.0
  0
LINE
  8
DETAIL
  6
CONTINUOUS
 62
     5
 10
-83.2924280000002
 20
-74.021531000000095
 30
0.0
 11
-83.318410000000085
 21
-74.023421000000099
 31
0.0
  0
LINE
  8
DETAIL
  6
CONTINUOUS
 62
     5
 10
-83.318410000000085
 20
-74.023421000000099
 30
0.0
 11
-83.343397999999979
 21
-74.025417000000061
 31
0.0
  0
LINE
  8
DETAIL
  6
CONTINUOUS
 62
     5
 10
-83.343397999999979
 20
-74.025417000000061
 30
0.0
 11
-83.367898000000196
 21
-74.027581000000055
 31
0.0
  0
LINE
  8
DETAIL
  6
CONTINUOUS
 62
     5
 10
-83.367898000000196
 20
-74.027581000000055
 30
0.0
 11
-83.39219600000024
 21
-74.029972000000043
 31
0.0
  0
LINE
  8
DETAIL
  6
CONTINUOUS
 62
     5
 10
-83.39219600000024
 20
-74.029972000000043
 30
0.0
 11
-83.417183000000023
 21
-74.032735000000002
 31
0.0
  0
LINE
  8
DETAIL
  6
CONTINUOUS
 62
     5
 10
-83.417183000000023
 20
-74.032735000000002
 30
0.0
 11
-83.443578000000116
 21
-74.036051000000043
 31
0.0
  0
LINE
  8
DETAIL
  6
CONTINUOUS
 62
     5
 10
-83.443578000000116
 20
-74.036051000000043
 30
0.0
 11
-83.472242000000051
 21
-74.04019100000005
 31
0.0
  0
LINE
  8
DETAIL
  6
CONTINUOUS
 62
     5
 10
-83.472242000000051
 20
-74.04019100000005
 30
0.0
 11
-83.504274000000123
 21
-74.045573000000104
 31
0.0
  0
LINE
  8
DETAIL
  6
CONTINUOUS
 62
     5
 10
-83.504274000000123
 20
-74.045573000000104
 30
0.0
 11
-83.539961000000176
 21
-74.052616000000057
 31
0.0
  0
LINE
  8
DETAIL
  6
CONTINUOUS
 62
     5
 10
-83.539961000000176
 20
-74.052616000000057
 30
0.0
 11
-83.58011300000021
 21
-74.061974000000077
 31
0.0
  0
LINE
  8
DETAIL
  6
CONTINUOUS
 62
     5
 10
-83.58011300000021
 20
-74.061974000000077
 30
0.0
 11
-83.62422400000014
 21
-74.074138000000062
 31
0.0
  0
LINE
  8
DETAIL
  6
CONTINUOUS
 62
     5
 10
-83.62422400000014
 20
-74.074138000000062
 30
0.0
 11
-83.671901000000162
 21
-74.089647000000014
 31
0.0
  0
LINE
  8
DETAIL
  6
CONTINUOUS
 62
     5
 10
-83.671901000000162
 20
-74.089647000000014
 30
0.0
 11
-83.722971000000143
 21
-74.10916700000007
 31
0.0
  0
LINE
  8
DETAIL
  6
CONTINUOUS
 62
     5
 10
-83.722971000000143
 20
-74.10916700000007
 30
0.0
 11
-83.777123000000074
 21
-74.133394000000067
 31
0.0
  0
LINE
  8
DETAIL
  6
CONTINUOUS
 62
     5
 10
-83.777123000000074
 20
-74.133394000000067
 30
0.0
 11
-83.833478000000241
 21
-74.162810000000036
 31
0.0
  0
LINE
  8
DETAIL
  6
CONTINUOUS
 62
     5
 10
-83.833478000000241
 20
-74.162810000000036
 30
0.0
 11
-83.89123399999994
 21
-74.197887000000037
 31
0.0
  0
LINE
  8
DETAIL
  6
CONTINUOUS
 62
     5
 10
-83.89123399999994
 20
-74.197887000000037
 30
0.0
 11
-83.949264999999968
 21
-74.23882500000002
 31
0.0
  0
LINE
  8
DETAIL
  6
CONTINUOUS
 62
     5
 10
-83.949264999999968
 20
-74.23882500000002
 30
0.0
 11
-84.006463000000167
 21
-74.285674000000085
 31
0.0
  0
LINE
  8
DETAIL
  6
CONTINUOUS
 62
     5
 10
-84.006463000000167
 20
-74.285674000000085
 30
0.0
 11
-84.049073000000135
 21
-74.325524000000087
 31
0.0
  0
LINE
  8
DETAIL
  6
CONTINUOUS
 62
     5
 10
-83.174446000000216
 20
-74.014588000000003
 30
0.0
 11
-83.23666900000012
 21
-74.017973000000097
 31
0.0
  0
LINE
  8
DETAIL
  6
CONTINUOUS
 62
     5
 10
-83.104546000000028
 20
-74.011298000000124
 30
0.0
 11
-83.174446000000216
 21
-74.014588000000003
 31
0.0
  0
LINE
  8
DETAIL
  6
CONTINUOUS
 62
     5
 10
-83.026114000000007
 20
-74.008071000000086
 30
0.0
 11
-83.104546000000028
 21
-74.011298000000124
 31
0.0
  0
LINE
  8
DETAIL
  6
CONTINUOUS
 62
     5
 10
-82.891255000000001
 20
-74.003326000000015
 30
0.0
 11
-83.026114000000007
 21
-74.008071000000086
 31
0.0
  0
LINE
  8
DETAIL
  6
CONTINUOUS
 62
     5
 10
-82.734879000000092
 20
-73.998707000000081
 30
0.0
 11
-82.891255000000001
 21
-74.003326000000015
 31
0.0
  0
LINE
  8
DETAIL
  6
CONTINUOUS
 62
     5
 10
-82.491822000000184
 20
-73.992785000000026
 30
0.0
 11
-82.734879000000092
 21
-73.998707000000081
 31
0.0
  0
LINE
  8
DETAIL
  6
CONTINUOUS
 62
     5
 10
-82.130588000000216
 20
-73.985859000000119
 30
0.0
 11
-82.491822000000184
 21
-73.992785000000026
 31
0.0
  0
LINE
  8
DETAIL
  6
CONTINUOUS
 62
     5
 10
-81.612170000000106
 20
-73.978487000000086
 30
0.0
 11
-82.130588000000216
 21
-73.985859000000119
 31
0.0
  0
LINE
  8
DETAIL
  6
CONTINUOUS
 62
     5
 10
-80.895288000000164
 20
-73.97165700000005
 30
0.0
 11
-81.612170000000106
 21
-73.978487000000086
 31
0.0
  0
LINE
  8
DETAIL
  6
CONTINUOUS
 62
     5
 10
-79.948338000000149
 20
-73.966977000000043
 30
0.0
 11
-80.895288000000164
 21
-73.97165700000005
 31
0.0
  0
LINE
  8
DETAIL
  6
CONTINUOUS
 62
     5
 10
-79.461936000000151
 20
-73.966186000000107
 30
0.0
 11
-79.948338000000149
 21
-73.966977000000043
 31
0.0
  0
LINE
  8
DETAIL
  6
CONTINUOUS
 62
     5
 10
-79.461938000000146
 20
-73.966188000000102
 30
0.0
 11
-79.459987000000183
 21
-73.971641000000091
 31
0.0
  0
LINE
  8
DETAIL
  6
CONTINUOUS
 62
     5
 10
-79.459987000000183
 20
-73.971641000000091
 30
0.0
 11
-79.453381000000036
 21
-73.986038000000008
 31
0.0
  0
LINE
  8
DETAIL
  6
CONTINUOUS
 62
     5
 10
-79.453381000000036
 20
-73.986038000000008
 30
0.0
 11
-79.443101000000297
 21
-74.00894900000003
 31
0.0
  0
LINE
  8
DETAIL
  6
CONTINUOUS
 62
     5
 10
-82.136589000000185
 20
-84.297905000000014
 30
0.0
 11
-82.206490000000031
 21
-84.301406000000043
 31
0.0
  0
LINE
  8
DETAIL
  6
CONTINUOUS
 62
     5
 10
-84.345854000000145
 20
-75.037865000000011
 30
0.0
 11
-84.33958100000018
 21
-74.92556900000011
 31
0.0
  0
LINE
  8
DETAIL
  6
CONTINUOUS
 62
     5
 10
-82.206490000000031
 20
-84.301406000000043
 30
0.0
 11
-82.262010000000146
 21
-84.304985000000102
 31
0.0
  0
LINE
  8
DETAIL
  6
CONTINUOUS
 62
     5
 10
-84.33958100000018
 20
-74.92556900000011
 30
0.0
 11
-84.32077100000015
 21
-74.814685000000054
 31
0.0
  0
LINE
  8
DETAIL
  6
CONTINUOUS
 62
     5
 10
-82.262010000000146
 20
-84.304985000000102
 30
0.0
 11
-82.302982000000156
 21
-84.308622000000014
 31
0.0
  0
LINE
  8
DETAIL
  6
CONTINUOUS
 62
     5
 10
-84.32077100000015
 20
-74.814685000000054
 30
0.0
 11
-84.289662000000135
 21
-74.706609000000071
 31
0.0
  0
LINE
  8
DETAIL
  6
CONTINUOUS
 62
     5
 10
-82.302982000000156
 20
-84.308622000000014
 30
0.0
 11
-82.329045000000178
 21
-84.312291000000073
 31
0.0
  0
LINE
  8
DETAIL
  6
CONTINUOUS
 62
     5
 10
-84.289662000000135
 20
-74.706609000000071
 30
0.0
 11
-84.246644000000288
 21
-74.602701000000025
 31
0.0
  0
LINE
  8
DETAIL
  6
CONTINUOUS
 62
     5
 10
-82.329045000000178
 20
-84.312291000000073
 30
0.0
 11
-82.340320000000247
 21
-84.315999000000033
 31
0.0
  0
LINE
  8
DETAIL
  6
CONTINUOUS
 62
     5
 10
-84.246644000000288
 20
-74.602701000000025
 30
0.0
 11
-84.192258999999922
 21
-74.504267000000027
 31
0.0
  0
LINE
  8
DETAIL
  6
CONTINUOUS
 62
     5
 10
-84.192258999999922
 20
-74.504267000000027
 30
0.0
 11
-84.127191000000039
 21
-74.41254600000002
 31
0.0
  0
LINE
  8
DETAIL
  6
CONTINUOUS
 62
     5
 10
-82.340320000000247
 20
-84.315999000000033
 30
0.0
 11
-82.536859000000049
 21
-84.306285000000116
 31
0.0
  0
LINE
  8
DETAIL
  6
CONTINUOUS
 62
     5
 10
-84.127191000000039
 20
-74.41254600000002
 30
0.0
 11
-84.049938000000111
 21
-74.326378000000091
 31
0.0
  0
LINE
  8
DETAIL
  6
CONTINUOUS
 62
     5
 10
-82.536859000000049
 20
-84.306285000000116
 30
0.0
 11
-82.731505000000197
 21
-84.277358000000049
 31
0.0
  0
LINE
  8
DETAIL
  6
CONTINUOUS
 62
     5
 10
-82.731505000000197
 20
-84.277358000000049
 30
0.0
 11
-82.922386000000188
 21
-84.22949600000004
 31
0.0
  0
LINE
  8
DETAIL
  6
CONTINUOUS
 62
     5
 10
-82.922386000000188
 20
-84.22949600000004
 30
0.0
 11
-83.10766300000023
 21
-84.163160000000062
 31
0.0
  0
LINE
  8
DETAIL
  6
CONTINUOUS
 62
     5
 10
-83.10766300000023
 20
-84.163160000000062
 30
0.0
 11
-83.285553000000164
 21
-84.078988000000095
 31
0.0
  0
LINE
  8
DETAIL
  6
CONTINUOUS
 62
     5
 10
-83.285553000000164
 20
-84.078988000000095
 30
0.0
 11
-83.454344000000219
 21
-83.977791000000025
 31
0.0
  0
LINE
  8
DETAIL
  6
CONTINUOUS
 62
     5
 10
-83.454344000000219
 20
-83.977791000000025
 30
0.0
 11
-83.612410000000182
 21
-83.860543000000007
 31
0.0
  0
LINE
  8
DETAIL
  6
CONTINUOUS
 62
     5
 10
-83.612410000000182
 20
-83.860543000000007
 30
0.0
 11
-83.75823000000014
 21
-83.728373000000033
 31
0.0
  0
LINE
  8
DETAIL
  6
CONTINUOUS
 62
     5
 10
-83.75823000000014
 20
-83.728373000000033
 30
0.0
 11
-83.8904
 21
-83.582553000000075
 31
0.0
  0
LINE
  8
DETAIL
  6
CONTINUOUS
 62
     5
 10
-83.8904
 20
-83.582553000000075
 30
0.0
 11
-84.007647000000134
 21
-83.424486999999999
 31
0.0
  0
LINE
  8
DETAIL
  6
CONTINUOUS
 62
     5
 10
-84.007647000000134
 20
-83.424486999999999
 30
0.0
 11
-84.10884400000009
 21
-83.255696000000057
 31
0.0
  0
LINE
  8
DETAIL
  6
CONTINUOUS
 62
     5
 10
-84.10884400000009
 20
-83.255696000000057
 30
0.0
 11
-84.193015000000059
 21
-83.077805000000126
 31
0.0
  0
LINE
  8
DETAIL
  6
CONTINUOUS
 62
     5
 10
-84.193015000000059
 20
-83.077805000000126
 30
0.0
 11
-84.259351000000152
 21
-82.892528000000084
 31
0.0
  0
LINE
  8
DETAIL
  6
CONTINUOUS
 62
     5
 10
-84.259351000000152
 20
-82.892528000000084
 30
0.0
 11
-84.307213000000047
 21
-82.701647000000094
 31
0.0
  0
LINE
  8
DETAIL
  6
CONTINUOUS
 62
     5
 10
-84.307213000000047
 20
-82.701647000000094
 30
0.0
 11
-84.336140000000114
 21
-82.507000000000062
 31
0.0
  0
LINE
  8
DETAIL
  6
CONTINUOUS
 62
     5
 10
-84.336140000000114
 20
-82.507000000000062
 30
0.0
 11
-84.345854000000145
 21
-82.310461000000032
 31
0.0
  0
LINE
  8
DETAIL
  6
CONTINUOUS
 62
     5
 10
-81.539793000000145
 20
-106.165418
 30
0.0
 11
-59.192853000000241
 21
-106.165418
 31
0.0
  0
ARC
  8
DETAIL
  6
CONTINUOUS
 62
     5
 10
-48.310036000000082
 20
-195.52579900000001
 30
0.0
 40
0.499026
 50
180.50000000000449
 51
270.0
  0
ARC
  8
DETAIL
  6
CONTINUOUS
 62
     5
 10
-67.643026000000191
 20
-129.54495800000009
 30
0.0
 40
14.970775
 50
0.9999999999952488
 51
16.97860699999821
  0
LINE
  8
DETAIL
  6
CONTINUOUS
 62
     5
 10
-86.04647900000009
 20
-101.8884710000001
 30
0.0
 11
-86.015773000000081
 21
-102.22889000000011
 31
0.0
  0
LINE
  8
DETAIL
  6
CONTINUOUS
 62
     5
 10
53.338422999999693
 20
-125.1288010000001
 30
0.0
 11
65.953861999999845
 21
-84.265485000000126
 31
0.0
  0
LINE
  8
DETAIL
  6
CONTINUOUS
 62
     5
 10
-86.015773000000081
 20
-102.22889000000011
 30
0.0
 11
-85.959601000000248
 21
-102.5647450000001
 31
0.0
  0
LINE
  8
DETAIL
  6
CONTINUOUS
 62
     5
 10
52.36947599999985
 20
-145.14266200000009
 30
0.0
 11
-52.369477000000188
 21
-145.14266200000009
 31
0.0
  0
LINE
  8
DETAIL
  6
CONTINUOUS
 62
     5
 10
-85.959601000000248
 20
-102.5647450000001
 30
0.0
 11
-85.877713000000085
 21
-102.897096
 31
0.0
  0
LINE
  8
DETAIL
  6
CONTINUOUS
 62
     5
 10
48.310035999999847
 20
-196.02482500000011
 30
0.0
 11
-48.310036000000082
 21
-196.02482500000011
 31
0.0
  0
LINE
  8
DETAIL
  6
CONTINUOUS
 62
     5
 10
-84.049938000000111
 20
-74.326378000000091
 30
0.0
 11
-87.016196000000036
 21
-77.273308000000043
 31
0.0
  0
LINE
  8
DETAIL
  6
CONTINUOUS
 62
     5
 10
-85.877713000000085
 20
-102.897096
 30
0.0
 11
-85.770855000000211
 21
-103.2227640000001
 31
0.0
  0
ARC
  8
DETAIL
  6
CONTINUOUS
 62
     5
 10
48.310035999999847
 20
-195.52579900000001
 30
0.0
 40
0.499026
 50
270.0
 51
359.49999999999551
  0
LINE
  8
DETAIL
  6
CONTINUOUS
 62
     5
 10
-85.770855000000211
 20
-103.2227640000001
 30
0.0
 11
-85.639349000000038
 21
-103.539534
 31
0.0
  0
LINE
  8
DETAIL
  6
CONTINUOUS
 62
     5
 10
48.809041999999863
 20
-195.53015400000001
 30
0.0
 11
49.168418000000202
 21
-154.34983000000011
 31
0.0
  0
LINE
  8
DETAIL
  6
CONTINUOUS
 62
     5
 10
-85.639349000000038
 20
-103.539534
 30
0.0
 11
-85.484227000000146
 21
-103.8455730000001
 31
0.0
  0
ARC
  8
DETAIL
  6
CONTINUOUS
 62
     5
 10
51.164444999999887
 20
-154.3672490000001
 30
0.0
 40
1.996103
 50
160.0000000000062
 51
179.49999999999551
  0
LINE
  8
DETAIL
  6
CONTINUOUS
 62
     5
 10
-85.484227000000146
 20
-103.8455730000001
 30
0.0
 11
-85.306220000000167
 21
-104.13881600000011
 31
0.0
  0
LINE
  8
DETAIL
  6
CONTINUOUS
 62
     5
 10
49.288720999999903
 20
-153.68454200000019
 30
0.0
 11
52.283464999999978
 21
-145.45655000000011
 31
0.0
  0
LINE
  8
DETAIL
  6
CONTINUOUS
 62
     5
 10
-85.306220000000167
 20
-104.13881600000011
 30
0.0
 11
-85.106554000000187
 21
-104.4177360000001
 31
0.0
  0
LINE
  8
DETAIL
  6
CONTINUOUS
 62
     5
 10
-49.201147000000219
 20
-154.0068500000001
 30
0.0
 11
49.201146999999757
 21
-154.0068500000001
 31
0.0
  0
LINE
  8
DETAIL
  6
CONTINUOUS
 62
     5
 10
-85.106554000000187
 20
-104.4177360000001
 30
0.0
 11
-84.88623100000018
 21
-104.680564
 31
0.0
  0
ARC
  8
DETAIL
  6
CONTINUOUS
 62
     5
 10
50.407741999999871
 20
-144.7738430000002
 30
0.0
 40
1.996103
 50
340.0000000000062
 51
358.99999999999818
  0
LINE
  8
DETAIL
  6
CONTINUOUS
 62
     5
 10
-84.88623100000018
 20
-104.680564
 30
0.0
 11
-84.646666999999979
 21
-104.925963
 31
0.0
  0
LINE
  8
DETAIL
  6
CONTINUOUS
 62
     5
 10
52.403541000000132
 20
-144.80868000000009
 30
0.0
 11
52.674530999999661
 21
-129.283682
 31
0.0
  0
LINE
  8
DETAIL
  6
CONTINUOUS
 62
     5
 10
-84.646666999999979
 20
-104.925963
 30
0.0
 11
-84.389071000000058
 21
-105.1523880000001
 31
0.0
  0
ARC
  8
DETAIL
  6
CONTINUOUS
 62
     5
 10
67.643025999999736
 20
-129.54495800000009
 30
0.0
 40
14.970775
 50
162.84334800000201
 51
178.99999999999829
  0
LINE
  8
DETAIL
  6
CONTINUOUS
 62
     5
 10
-84.389071000000058
 20
-105.1523880000001
 30
0.0
 11
-84.115058999999974
 21
-105.3586990000001
 31
0.0
  0
LINE
  8
DETAIL
  6
CONTINUOUS
 62
     5
 10
-52.895293000000272
 20
-127.159126
 30
0.0
 11
52.863583999999719
 21
-127.159126
 31
0.0
  0
LINE
  8
DETAIL
  6
CONTINUOUS
 62
     5
 10
-84.115058999999974
 20
-105.3586990000001
 30
0.0
 11
-83.826038000000153
 21
-105.54354500000009
 31
0.0
  0
LINE
  8
DETAIL
  6
CONTINUOUS
 62
     5
 10
-52.403542000000023
 20
-144.80868000000009
 30
0.0
 11
-52.674531999999999
 21
-129.283682
 31
0.0
  0
LINE
  8
DETAIL
  6
CONTINUOUS
 62
     5
 10
-83.826038000000153
 20
-105.54354500000009
 30
0.0
 11
-83.523838000000069
 21
-105.7060180000001
 31
0.0
  0
LINE
  8
DETAIL
  6
CONTINUOUS
 62
     5
 10
-61.319328000000269
 20
-54.258055000000013
 30
0.0
 11
61.221688999999969
 21
-54.258055000000013
 31
0.0
  0
ARC
  8
DETAIL
  6
CONTINUOUS
 62
     5
 10
-50.40774300000021
 20
-144.7738430000002
 30
0.0
 40
1.996103
 50
180.99999999999531
 51
199.9999999999938
  0
LINE
  8
DETAIL
  6
CONTINUOUS
 62
     5
 10
-83.523838000000069
 20
-105.7060180000001
 30
0.0
 11
-83.210054000000127
 21
-105.844965
 31
0.0
  0
LINE
  8
DETAIL
  6
CONTINUOUS
 62
     5
 10
-49.288722000000007
 20
-153.68454200000019
 30
0.0
 11
-52.283466000000089
 21
-145.45655000000011
 31
0.0
  0
LINE
  8
DETAIL
  6
CONTINUOUS
 62
     5
 10
-83.210054000000127
 20
-105.844965
 30
0.0
 11
-82.88679100000013
 21
-105.9597660000001
 31
0.0
  0
ARC
  8
DETAIL
  6
CONTINUOUS
 62
     5
 10
-51.164446000000233
 20
-154.3672490000001
 30
0.0
 40
1.996103
 50
0.5000000000044884
 51
19.999999999993829
  0
LINE
  8
DETAIL
  6
CONTINUOUS
 62
     5
 10
-82.88679100000013
 20
-105.9597660000001
 30
0.0
 11
-82.55594700000006
 21
-106.049483
 31
0.0
  0
LINE
  8
DETAIL
  6
CONTINUOUS
 62
     5
 10
-48.809043000000202
 20
-195.53015400000001
 30
0.0
 11
-49.168418000000202
 21
-154.34983000000011
 31
0.0
  0
LINE
  8
DETAIL
  6
CONTINUOUS
 62
     5
 10
-82.55594700000006
 20
-106.049483
 30
0.0
 11
-82.219741000000113
 21
-106.11391999999999
 31
0.0
  0
LINE
  8
DETAIL
  6
CONTINUOUS
 62
     5
 10
-53.338424000000032
 20
-125.1288010000001
 30
0.0
 11
-65.954129000000194
 21
-84.26462400000014
 31
0.0
  0
LINE
  8
DETAIL
  6
CONTINUOUS
 62
     5
 10
-82.219741000000113
 20
-106.11391999999999
 30
0.0
 11
-81.881379000000152
 21
-106.152501
 31
0.0
  0
LINE
  8
DETAIL
  6
CONTINUOUS
 62
     5
 10
-81.881379000000152
 20
-106.152501
 30
0.0
 11
-81.539793000000145
 21
-106.165418
 31
0.0
  0
LINE
  8
DETAIL
  6
CONTINUOUS
 62
     5
 10
-86.894404000000122
 20
-85.641275000000064
 30
0.0
 11
-86.04647900000009
 21
-101.8884710000001
 31
0.0
  0
LINE
  8
DETAIL
  6
CONTINUOUS
 62
     5
 10
85.948840000000018
 20
-101.8884710000001
 30
0.0
 11
86.782960999999887
 21
-85.906117000000108
 31
0.0
  0
CIRCLE
  8
FIX
  6
CONTINUOUS
 62
    11
 10
-64.992400000000089
 20
-98.512000000000057
 30
0.0
 40
10.0
  0
CIRCLE
  8
FIX
  6
CONTINUOUS
 62
    11
 10
64.992400000000089
 20
98.511999999999944
 30
0.0
 40
10.0
  0
CIRCLE
  8
FIX
  6
CONTINUOUS
 62
    11
 10
98.511999999999716
 20
-65.008000000000038
 30
0.0
 40
10.0
  0
CIRCLE
  8
FIX
  6
CONTINUOUS
 62
    11
 10
98.511999999999716
 20
65.007999999999925
 30
0.0
 40
10.0
  0
CIRCLE
  8
FIX
  6
CONTINUOUS
 62
    11
 10
64.992400000000089
 20
-98.512000000000057
 30
0.0
 40
10.0
  0
LINE
  8
SIZE
  6
CONTINUOUS
 62
    30
 10
-64.992400000000089
 20
-126.00327299999999
 30
0.0
 11
-64.992400000000089
 21
-606.17663429347976
 31
0.0
  0
LINE
  8
SIZE
  6
CONTINUOUS
 62
    30
 10
64.992400000000089
 20
-126.00327299999999
 30
0.0
 11
64.992400000000089
 21
-606.17663429347976
 31
0.0
  0
LINE
  8
SIZE
  6
CONTINUOUS
 62
    30
 10
-52.992400000000089
 20
-586.17663429347976
 30
0.0
 11
52.992400000000089
 21
-586.17663429347976
 31
0.0
  0
CIRCLE
  8
SIZE
  6
CONTINUOUS
 62
    30
 10
-64.992400000000089
 20
-586.17663429347976
 30
0.0
 40
6.0
  0
LINE
  8
SIZE
  6
CONTINUOUS
 62
    30
 10
-64.992400000000089
 20
-586.17663429347976
 30
0.0
 11
-52.992400000000089
 21
-586.17663429347976
 31
0.0
  0
CIRCLE
  8
SIZE
  6
CONTINUOUS
 62
    30
 10
64.992400000000089
 20
-586.17663429347976
 30
0.0
 40
6.0
  0
LINE
  8
SIZE
  6
CONTINUOUS
 62
    30
 10
64.992400000000089
 20
-586.17663429347976
 30
0.0
 11
52.992400000000089
 21
-586.17663429347976
 31
0.0
  0
TEXT
  8
SIZE
  6
CONTINUOUS
 62
    30
 10
-68.571428571428569
 20
-561.17663429347976
 30
0.0
 40
64.0
  1
130
 41
0.9
 72
     1
 11
0.0
 21
-561.17663429347976
 31
0.0
  0
POINT
  8
DEFPOINTS
  6
CONTINUOUS
 62
    30
 10
-64.992400000000089
 20
-106.00327299999999
 30
0.0
  0
POINT
  8
DEFPOINTS
  6
CONTINUOUS
 62
    30
 10
64.992400000000089
 20
-106.00327299999999
 30
0.0
  0
POINT
  8
DEFPOINTS
  6
CONTINUOUS
 62
    30
 10
64.992400000000089
 20
-586.17663429347976
 30
0.0
  0
LINE
  8
SIZE
  6
CONTINUOUS
 62
    30
 10
-98.511999999999944
 20
-92.49927300000013
 30
0.0
 11
-98.511999999999944
 21
-737.07277953693347
 31
0.0
  0
LINE
  8
SIZE
  6
CONTINUOUS
 62
    30
 10
98.511999999999716
 20
-92.49927300000013
 30
0.0
 11
98.511999999999716
 21
-737.07277953693347
 31
0.0
  0
LINE
  8
SIZE
  6
CONTINUOUS
 62
    30
 10
-86.511999999999944
 20
-717.07277953693347
 30
0.0
 11
86.511999999999716
 21
-717.07277953693347
 31
0.0
  0
CIRCLE
  8
SIZE
  6
CONTINUOUS
 62
    30
 10
-98.511999999999944
 20
-717.07277953693347
 30
0.0
 40
6.0
  0
LINE
  8
SIZE
  6
CONTINUOUS
 62
    30
 10
-98.511999999999944
 20
-717.07277953693347
 30
0.0
 11
-86.511999999999944
 21
-717.07277953693347
 31
0.0
  0
CIRCLE
  8
SIZE
  6
CONTINUOUS
 62
    30
 10
98.511999999999716
 20
-717.07277953693347
 30
0.0
 40
6.0
  0
LINE
  8
SIZE
  6
CONTINUOUS
 62
    30
 10
98.511999999999716
 20
-717.07277953693347
 30
0.0
 11
86.511999999999716
 21
-717.07277953693347
 31
0.0
  0
TEXT
  8
SIZE
  6
CONTINUOUS
 62
    30
 10
-68.571428571428569
 20
-692.07277953693347
 30
0.0
 40
64.0
  1
197
 41
0.9
 72
     1
 11
0.0
 21
-692.07277953693347
 31
0.0
  0
POINT
  8
DEFPOINTS
  6
CONTINUOUS
 62
    30
 10
-98.511999999999944
 20
-72.49927300000013
 30
0.0
  0
POINT
  8
DEFPOINTS
  6
CONTINUOUS
 62
    30
 10
98.511999999999716
 20
-72.49927300000013
 30
0.0
  0
POINT
  8
DEFPOINTS
  6
CONTINUOUS
 62
    30
 10
98.511999999999716
 20
-717.07277953693347
 30
0.0
  0
LINE
  8
SIZE
  6
CONTINUOUS
 62
    30
 10
-111.50012000000019
 20
-121.50012
 30
0.0
 11
-111.50012000000019
 21
-858.08567576459211
 31
0.0
  0
LINE
  8
SIZE
  6
CONTINUOUS
 62
    30
 10
111.5001199999997
 20
-121.50012
 30
0.0
 11
111.5001199999997
 21
-858.08567576459211
 31
0.0
  0
LINE
  8
SIZE
  6
CONTINUOUS
 62
    30
 10
-99.500120000000152
 20
-838.08567576459211
 30
0.0
 11
99.500119999999697
 21
-838.08567576459211
 31
0.0
  0
CIRCLE
  8
SIZE
  6
CONTINUOUS
 62
    30
 10
-111.50012000000019
 20
-838.08567576459211
 30
0.0
 40
6.0
  0
LINE
  8
SIZE
  6
CONTINUOUS
 62
    30
 10
-111.50012000000019
 20
-838.08567576459211
 30
0.0
 11
-99.500120000000152
 21
-838.08567576459211
 31
0.0
  0
CIRCLE
  8
SIZE
  6
CONTINUOUS
 62
    30
 10
111.5001199999997
 20
-838.08567576459211
 30
0.0
 40
6.0
  0
LINE
  8
SIZE
  6
CONTINUOUS
 62
    30
 10
111.5001199999997
 20
-838.08567576459211
 30
0.0
 11
99.500119999999697
 21
-838.08567576459211
 31
0.0
  0
TEXT
  8
SIZE
  6
CONTINUOUS
 62
    30
 10
-74.057142857142836
 20
-813.08567576459211
 30
0.0
 40
64.0
  1
223
 41
0.9
 72
     1
 11
0.0
 21
-813.08567576459211
 31
0.0
  0
POINT
  8
DEFPOINTS
  6
CONTINUOUS
 62
    30
 10
-111.50012000000019
 20
-101.50012
 30
0.0
  0
POINT
  8
DEFPOINTS
  6
CONTINUOUS
 62
    30
 10
111.5001199999997
 20
-101.50012
 30
0.0
  0
POINT
  8
DEFPOINTS
  6
CONTINUOUS
 62
    30
 10
111.5001199999997
 20
-838.08567576459211
 30
0.0
  0
LINE
  8
SIZE
  6
CONTINUOUS
 62
    30
 10
-48.809042998619127
 20
-215.53015376810359
 30
0.0
 11
-48.809042998619127
 21
-344.2628607766037
 31
0.0
  0
LINE
  8
SIZE
  6
CONTINUOUS
 62
    30
 10
48.809042998618679
 20
-215.53015376810359
 30
0.0
 11
48.809042998618679
 21
-344.2628607766037
 31
0.0
  0
LINE
  8
SIZE
  6
CONTINUOUS
 62
    30
 10
36.809042998618679
 20
-324.2628607766037
 30
0.0
 11
-36.809042998619127
 21
-324.2628607766037
 31
0.0
  0
LINE
  8
SIZE
  6
CONTINUOUS
 62
    30
 10
-48.809042998619127
 20
-324.2628607766037
 30
0.0
 11
-328.41642150908871
 21
-324.2628607766037
 31
0.0
  0
CIRCLE
  8
SIZE
  6
CONTINUOUS
 62
    30
 10
48.809042998618679
 20
-324.2628607766037
 30
0.0
 40
6.0
  0
LINE
  8
SIZE
  6
CONTINUOUS
 62
    30
 10
48.809042998618679
 20
-324.2628607766037
 30
0.0
 11
36.809042998618679
 21
-324.2628607766037
 31
0.0
  0
CIRCLE
  8
SIZE
  6
CONTINUOUS
 62
    30
 10
-48.809042998619127
 20
-324.2628607766037
 30
0.0
 40
6.0
  0
LINE
  8
SIZE
  6
CONTINUOUS
 62
    30
 10
-48.809042998619127
 20
-324.2628607766037
 30
0.0
 11
-36.809042998619127
 21
-324.2628607766037
 31
0.0
  0
TEXT
  8
SIZE
  6
CONTINUOUS
 62
    30
 10
-313.56499293765989
 20
-288.59619410993707
 30
0.0
 40
64.0
  1
φ98
 41
0.9
 72
     1
 11
-226.6164215090885
 21
-288.59619410993707
 31
0.0
  0
POINT
  8
DEFPOINTS
  6
CONTINUOUS
 62
    30
 10
-48.809042998619127
 20
-195.53015376810359
 30
0.0
  0
POINT
  8
DEFPOINTS
  6
CONTINUOUS
 62
    30
 10
48.809042998618679
 20
-195.53015376810359
 30
0.0
  0
POINT
  8
DEFPOINTS
  6
CONTINUOUS
 62
    30
 10
48.809042998618679
 20
-324.2628607766037
 30
0.0
  0
LINE
  8
SIZE
  6
CONTINUOUS
 62
    30
 10
-52.403542000000023
 20
-164.80868000000009
 30
0.0
 11
-52.403542000000023
 21
-471.53207868679772
 31
0.0
  0
LINE
  8
SIZE
  6
CONTINUOUS
 62
    30
 10
52.403541000000132
 20
-164.80868000000009
 30
0.0
 11
52.403541000000132
 21
-471.53207868679772
 31
0.0
  0
LINE
  8
SIZE
  6
CONTINUOUS
 62
    30
 10
40.403541000000132
 20
-451.53207868679772
 30
0.0
 11
-40.403542000000023
 21
-451.53207868679772
 31
0.0
  0
LINE
  8
SIZE
  6
CONTINUOUS
 62
    30
 10
-52.403542000000023
 20
-451.53207868679772
 30
0.0
 11
-373.60333575641198
 21
-451.53207868679772
 31
0.0
  0
CIRCLE
  8
SIZE
  6
CONTINUOUS
 62
    30
 10
52.403541000000132
 20
-451.53207868679772
 30
0.0
 40
6.0
  0
LINE
  8
SIZE
  6
CONTINUOUS
 62
    30
 10
52.403541000000132
 20
-451.53207868679772
 30
0.0
 11
40.403541000000132
 21
-451.53207868679772
 31
0.0
  0
CIRCLE
  8
SIZE
  6
CONTINUOUS
 62
    30
 10
-52.403542000000023
 20
-451.53207868679772
 30
0.0
 40
6.0
  0
LINE
  8
SIZE
  6
CONTINUOUS
 62
    30
 10
-52.403542000000023
 20
-451.53207868679772
 30
0.0
 11
-40.403542000000023
 21
-451.53207868679772
 31
0.0
  0
TEXT
  8
SIZE
  6
CONTINUOUS
 62
    30
 10
-358.75190718498328
 20
-415.8654120201312
 30
0.0
 40
64.0
  1
φ105
 41
0.9
 72
     1
 11
-249.8604786135547
 21
-415.8654120201312
 31
0.0
  0
POINT
  8
DEFPOINTS
  6
CONTINUOUS
 62
    30
 10
-52.403542000000023
 20
-144.80868000000009
 30
0.0
  0
POINT
  8
DEFPOINTS
  6
CONTINUOUS
 62
    30
 10
52.403541000000132
 20
-144.80868000000009
 30
0.0
  0
POINT
  8
DEFPOINTS
  6
CONTINUOUS
 62
    30
 10
52.403541000000132
 20
-451.53207868679772
 30
0.0
  0
LINE
  8
SIZE
  6
CONTINUOUS
 62
    30
 10
68.310035999999855
 20
-196.02482499999999
 30
0.0
 11
288.23733346359222
 21
-196.02482499999999
 31
0.0
  0
LINE
  8
SIZE
  6
CONTINUOUS
 62
    30
 10
69.200198411305792
 20
-154.012056355049
 30
0.0
 11
288.23733346359222
 21
-154.01205635504911
 31
0.0
  0
LINE
  8
SIZE
  6
CONTINUOUS
 62
    30
 10
268.23733346359222
 20
-142.01205635504911
 30
0.0
 11
268.23733346359222
 21
-130.01205635504911
 31
0.0
  0
LINE
  8
SIZE
  6
CONTINUOUS
 62
    30
 10
268.23733346359222
 20
-208.02482499999999
 30
0.0
 11
268.23733346359222
 21
-377.672944066112
 31
0.0
  0
LINE
  8
SIZE
  6
CONTINUOUS
 62
    30
 10
268.23733346359222
 20
-154.01205635504911
 30
0.0
 11
268.23733346359222
 21
-196.02482499999999
 31
0.0
  0
CIRCLE
  8
SIZE
  6
CONTINUOUS
 62
    30
 10
268.23733346359222
 20
-154.01205635504911
 30
0.0
 40
6.0
  0
LINE
  8
SIZE
  6
CONTINUOUS
 62
    30
 10
268.23733346359222
 20
-154.01205635504911
 30
0.0
 11
268.23733346359222
 21
-142.01205635504911
 31
0.0
  0
CIRCLE
  8
SIZE
  6
CONTINUOUS
 62
    30
 10
268.23733346359222
 20
-196.02482499999999
 30
0.0
 40
6.0
  0
LINE
  8
SIZE
  6
CONTINUOUS
 62
    30
 10
268.23733346359222
 20
-196.02482499999999
 30
0.0
 11
268.23733346359222
 21
-208.02482499999999
 31
0.0
  0
TEXT
  8
SIZE
  6
CONTINUOUS
 62
    30
 10
243.23733346359219
 20
-352.67294406611211
 30
0.0
 40
64.0
  1
42
 50
90.0
 41
0.9
 72
     1
 11
243.23733346359219
 21
-306.04437263754062
 31
0.0
  0
POINT
  8
DEFPOINTS
  6
CONTINUOUS
 62
    30
 10
48.310035999999847
 20
-196.02482499999999
 30
0.0
  0
POINT
  8
DEFPOINTS
  6
CONTINUOUS
 62
    30
 10
49.200198411305792
 20
-154.012056355049
 30
0.0
  0
POINT
  8
DEFPOINTS
  6
CONTINUOUS
 62
    30
 10
268.23733346359222
 20
-154.01205635504911
 30
0.0
  0
LINE
  8
SIZE
  6
CONTINUOUS
 62
    30
 10
68.310035999999855
 20
-196.02482500000011
 30
0.0
 11
412.73789869944181
 21
-196.02482500000019
 31
0.0
  0
LINE
  8
SIZE
  6
CONTINUOUS
 62
    30
 10
72.863583999999719
 20
-127.159126
 30
0.0
 11
412.73789869944181
 21
-127.1591260000001
 31
0.0
  0
LINE
  8
SIZE
  6
CONTINUOUS
 62
    30
 10
392.73789869944181
 20
-115.1591260000001
 30
0.0
 11
392.73789869944181
 21
-103.1591260000001
 31
0.0
  0
LINE
  8
SIZE
  6
CONTINUOUS
 62
    30
 10
392.73789869944181
 20
-208.02482500000019
 30
0.0
 11
392.73789869944181
 21
-373.18988895716421
 31
0.0
  0
LINE
  8
SIZE
  6
CONTINUOUS
 62
    30
 10
392.73789869944181
 20
-127.1591260000001
 30
0.0
 11
392.73789869944181
 21
-196.02482500000019
 31
0.0
  0
CIRCLE
  8
SIZE
  6
CONTINUOUS
 62
    30
 10
392.73789869944181
 20
-127.1591260000001
 30
0.0
 40
6.0
  0
LINE
  8
SIZE
  6
CONTINUOUS
 62
    30
 10
392.73789869944181
 20
-127.1591260000001
 30
0.0
 11
392.73789869944181
 21
-115.1591260000001
 31
0.0
  0
CIRCLE
  8
SIZE
  6
CONTINUOUS
 62
    30
 10
392.73789869944181
 20
-196.02482500000019
 30
0.0
 40
6.0
  0
LINE
  8
SIZE
  6
CONTINUOUS
 62
    30
 10
392.73789869944181
 20
-196.02482500000019
 30
0.0
 11
392.73789869944181
 21
-208.02482500000019
 31
0.0
  0
TEXT
  8
SIZE
  6
CONTINUOUS
 62
    30
 10
367.73789869944181
 20
-348.18988895716399
 30
0.0
 40
64.0
  1
69
 50
90.0
 41
0.9
 72
     1
 11
367.73789869944181
 21
-302.93274610002118
 31
0.0
  0
POINT
  8
DEFPOINTS
  6
CONTINUOUS
 62
    30
 10
48.310035999999847
 20
-196.02482500000011
 30
0.0
  0
POINT
  8
DEFPOINTS
  6
CONTINUOUS
 62
    30
 10
52.863583999999719
 20
-127.159126
 30
0.0
  0
POINT
  8
DEFPOINTS
  6
CONTINUOUS
 62
    30
 10
392.73789869944181
 20
-127.1591260000001
 30
0.0
  0
LINE
  8
SIZE
  6
CONTINUOUS
 62
    30
 10
105.0
 20
-87.0
 30
0.0
 11
585.03998171008334
 21
-87.000000000000114
 31
0.0
  0
LINE
  8
SIZE
  6
CONTINUOUS
 62
    30
 10
68.310035999999855
 20
-196.02482500000011
 30
0.0
 11
585.03998171008334
 21
-196.02482500000019
 31
0.0
  0
LINE
  8
SIZE
  6
CONTINUOUS
 62
    30
 10
565.03998171008334
 20
-99.000000000000114
 30
0.0
 11
565.03998171008334
 21
-184.02482500000019
 31
0.0
  0
LINE
  8
SIZE
  6
CONTINUOUS
 62
    30
 10
565.03998171008334
 20
-196.02482500000019
 30
0.0
 11
565.03998171008334
 21
-392.42482500000023
 31
0.0
  0
CIRCLE
  8
SIZE
  6
CONTINUOUS
 62
    30
 10
565.03998171008334
 20
-87.000000000000114
 30
0.0
 40
6.0
  0
LINE
  8
SIZE
  6
CONTINUOUS
 62
    30
 10
565.03998171008334
 20
-87.000000000000114
 30
0.0
 11
565.03998171008334
 21
-99.000000000000114
 31
0.0
  0
CIRCLE
  8
SIZE
  6
CONTINUOUS
 62
    30
 10
565.03998171008334
 20
-196.02482500000019
 30
0.0
 40
6.0
  0
LINE
  8
SIZE
  6
CONTINUOUS
 62
    30
 10
565.03998171008334
 20
-196.02482500000019
 30
0.0
 11
565.03998171008334
 21
-184.02482500000019
 31
0.0
  0
TEXT
  8
SIZE
  6
CONTINUOUS
 62
    30
 10
540.03998171008334
 20
-367.42482500000023
 30
0.0
 40
64.0
  1
109
 50
90.0
 41
0.9
 72
     1
 11
540.03998171008334
 21
-300.22482500000018
 31
0.0
  0
POINT
  8
DEFPOINTS
  6
CONTINUOUS
 62
    30
 10
85.0
 20
-87.0
 30
0.0
  0
POINT
  8
DEFPOINTS
  6
CONTINUOUS
 62
    30
 10
48.310035999999847
 20
-196.02482500000011
 30
0.0
  0
POINT
  8
DEFPOINTS
  6
CONTINUOUS
 62
    30
 10
565.03998171008334
 20
-196.02482500000019
 30
0.0
  0
LINE
  8
SIZE
  6
CONTINUOUS
 62
    30
 10
105.0
 20
-87.0
 30
0.0
 11
585.03998171008334
 21
-87.000000000000114
 31
0.0
  0
LINE
  8
SIZE
  6
CONTINUOUS
 62
    30
 10
92.0
 20
87.0
 30
0.0
 11
585.03998171008334
 21
86.999999999999886
 31
0.0
  0
LINE
  8
SIZE
  6
CONTINUOUS
 62
    30
 10
565.03998171008334
 20
-75.000000000000114
 30
0.0
 11
565.03998171008334
 21
74.999999999999886
 31
0.0
  0
LINE
  8
SIZE
  6
CONTINUOUS
 62
    30
 10
565.03998171008334
 20
86.999999999999886
 30
0.0
 11
565.03998171008334
 21
385.23369828094337
 31
0.0
  0
CIRCLE
  8
SIZE
  6
CONTINUOUS
 62
    30
 10
565.03998171008334
 20
-87.000000000000114
 30
0.0
 40
6.0
  0
LINE
  8
SIZE
  6
CONTINUOUS
 62
    30
 10
565.03998171008334
 20
-87.000000000000114
 30
0.0
 11
565.03998171008334
 21
-75.000000000000114
 31
0.0
  0
CIRCLE
  8
SIZE
  6
CONTINUOUS
 62
    30
 10
565.03998171008334
 20
86.999999999999886
 30
0.0
 40
6.0
  0
LINE
  8
SIZE
  6
CONTINUOUS
 62
    30
 10
565.03998171008334
 20
86.999999999999886
 30
0.0
 11
565.03998171008334
 21
74.999999999999886
 31
0.0
  0
TEXT
  8
SIZE
  6
CONTINUOUS
 62
    30
 10
540.03998171008334
 20
151.22798399522929
 30
0.0
 40
64.0
  1
□174
 50
90.0
 41
0.9
 72
     1
 11
540.03998171008334
 21
257.65084113808638
 31
0.0
  0
POINT
  8
DEFPOINTS
  6
CONTINUOUS
 62
    30
 10
85.0
 20
-87.0
 30
0.0
  0
POINT
  8
DEFPOINTS
  6
CONTINUOUS
 62
    30
 10
72.0
 20
87.0
 30
0.0
  0
POINT
  8
DEFPOINTS
  6
CONTINUOUS
 62
    30
 10
565.03998171008334
 20
86.999999999999886
 30
0.0
  0
LINE
  8
SIZE
  6
CONTINUOUS
 62
    30
 10
126.00327299999979
 20
65.007999999999925
 30
0.0
 11
443.8583292123476
 21
65.007999999999811
 31
0.0
  0
LINE
  8
SIZE
  6
CONTINUOUS
 62
    30
 10
126.00327299999979
 20
-65.008000000000038
 30
0.0
 11
443.8583292123476
 21
-65.008000000000152
 31
0.0
  0
LINE
  8
SIZE
  6
CONTINUOUS
 62
    30
 10
423.8583292123476
 20
77.007999999999811
 30
0.0
 11
423.8583292123476
 21
89.007999999999811
 31
0.0
  0
LINE
  8
SIZE
  6
CONTINUOUS
 62
    30
 10
423.8583292123476
 20
-77.008000000000152
 30
0.0
 11
423.8583292123476
 21
-89.008000000000152
 31
0.0
  0
LINE
  8
SIZE
  6
CONTINUOUS
 62
    30
 10
423.8583292123476
 20
65.007999999999811
 30
0.0
 11
423.8583292123476
 21
-65.008000000000152
 31
0.0
  0
CIRCLE
  8
SIZE
  6
CONTINUOUS
 62
    30
 10
423.8583292123476
 20
65.007999999999811
 30
0.0
 40
6.0
  0
LINE
  8
SIZE
  6
CONTINUOUS
 62
    30
 10
423.8583292123476
 20
65.007999999999811
 30
0.0
 11
423.8583292123476
 21
77.007999999999811
 31
0.0
  0
CIRCLE
  8
SIZE
  6
CONTINUOUS
 62
    30
 10
423.8583292123476
 20
-65.008000000000152
 30
0.0
 40
6.0
  0
LINE
  8
SIZE
  6
CONTINUOUS
 62
    30
 10
423.8583292123476
 20
-65.008000000000152
 30
0.0
 11
423.8583292123476
 21
-77.008000000000152
 31
0.0
  0
TEXT
  8
SIZE
  6
CONTINUOUS
 62
    30
 10
398.8583292123476
 20
-68.571428571428683
 30
0.0
 40
64.0
  1
130
 50
90.0
 41
0.9
 72
     1
 11
398.8583292123476
 21
-0.0000000000001137
 31
0.0
  0
POINT
  8
DEFPOINTS
  6
CONTINUOUS
 62
    30
 10
106.00327299999979
 20
65.007999999999925
 30
0.0
  0
POINT
  8
DEFPOINTS
  6
CONTINUOUS
 62
    30
 10
106.00327299999979
 20
-65.008000000000038
 30
0.0
  0
POINT
  8
DEFPOINTS
  6
CONTINUOUS
 62
    30
 10
423.8583292123476
 20
-65.008000000000152
 30
0.0
  0
LINE
  8
SIZE
  6
CONTINUOUS
 62
    30
 10
92.483672999999726
 20
98.511999999999944
 30
0.0
 11
726.4117397356481
 21
98.51199999999983
 31
0.0
  0
LINE
  8
SIZE
  6
CONTINUOUS
 62
    30
 10
92.483672999999726
 20
-98.512000000000057
 30
0.0
 11
726.4117397356481
 21
-98.512000000000171
 31
0.0
  0
LINE
  8
SIZE
  6
CONTINUOUS
 62
    30
 10
706.4117397356481
 20
86.511999999999716
 30
0.0
 11
706.4117397356481
 21
-86.512000000000171
 31
0.0
  0
CIRCLE
  8
SIZE
  6
CONTINUOUS
 62
    30
 10
706.4117397356481
 20
98.51199999999983
 30
0.0
 40
6.0
  0
LINE
  8
SIZE
  6
CONTINUOUS
 62
    30
 10
706.4117397356481
 20
98.51199999999983
 30
0.0
 11
706.4117397356481
 21
86.511999999999716
 31
0.0
  0
CIRCLE
  8
SIZE
  6
CONTINUOUS
 62
    30
 10
706.4117397356481
 20
-98.512000000000171
 30
0.0
 40
6.0
  0
LINE
  8
SIZE
  6
CONTINUOUS
 62
    30
 10
706.4117397356481
 20
-98.512000000000171
 30
0.0
 11
706.4117397356481
 21
-86.512000000000171
 31
0.0
  0
TEXT
  8
SIZE
  6
CONTINUOUS
 62
    30
 10
681.4117397356481
 20
-68.571428571428683
 30
0.0
 40
64.0
  1
197
 50
90.0
 41
0.9
 72
     1
 11
681.4117397356481
 21
-0.0000000000001137
 31
0.0
  0
POINT
  8
DEFPOINTS
  6
CONTINUOUS
 62
    30
 10
72.483672999999726
 20
98.511999999999944
 30
0.0
  0
POINT
  8
DEFPOINTS
  6
CONTINUOUS
 62
    30
 10
72.483672999999726
 20
-98.512000000000057
 30
0.0
  0
POINT
  8
DEFPOINTS
  6
CONTINUOUS
 62
    30
 10
706.4117397356481
 20
-98.512000000000171
 30
0.0
  0
ENDSEC
  0
EOF
