  0
SECTION
  2
HEADER
  9
$ACADVER
  1
AC1009
  9
$DWGCODEPAGE
  3
dos932
  9
$INSBASE
 10
0.0
 20
0.0
 30
0.0
  9
$EXTMIN
 10
-369.79978783033039
 20
-425.85753221746751
 30
-0.0015258207003583
  9
$EXTMAX
 10
1327.8350949262201
 20
635.1013264328958
 30
0.0000000349246037
  9
$LIMMIN
 10
-2970.0
 20
-2100.0
  9
$LIMMAX
 10
2970.0
 20
2100.0
  9
$ORTHOMODE
 70
     1
  9
$REGENMODE
 70
     1
  9
$FILLMODE
 70
     1
  9
$QTEXTMODE
 70
     0
  9
$MIRRTEXT
 70
     0
  9
$LTSCALE
 40
20.0
  9
$ATTMODE
 70
     1
  9
$TEXTSIZE
 40
64.0
  9
$TRACEWID
 40
0.05
  9
$TEXTSTYLE
  7
STANDARD
  9
$CLAYER
  8
SIZE
  9
$CELTYPE
  6
CONTINUOUS
  9
$CECOLOR
 62
     7
  9
$DIMSCALE
 40
1.0
  9
$DIMASZ
 40
12.0
  9
$DIMEXO
 40
20.0
  9
$DIMDLI
 40
200.0
  9
$DIMRND
 40
0.0
  9
$DIMDLE
 40
0.0
  9
$DIMEXE
 40
20.0
  9
$DIMTP
 40
0.0
  9
$DIMTM
 40
0.0
  9
$DIMTXT
 40
64.0
  9
$DIMCEN
 40
0.09
  9
$DIMTSZ
 40
0.0
  9
$DIMTOL
 70
     0
  9
$DIMLIM
 70
     0
  9
$DIMTIH
 70
     0
  9
$DIMTOH
 70
     0
  9
$DIMSE1
 70
     0
  9
$DIMSE2
 70
     0
  9
$DIMTAD
 70
     1
  9
$DIMZIN
 70
     8
  9
$DIMBLK
  1

  9
$DIMASO
 70
     1
  9
$DIMSHO
 70
     0
  9
$DIMPOST
  1

  9
$DIMAPOST
  1

  9
$DIMALT
 70
     0
  9
$DIMALTD
 70
     2
  9
$DIMALTF
 40
25.399999999999999
  9
$DIMLFAC
 40
1.0
  9
$DIMTOFL
 70
     1
  9
$DIMTVP
 40
0.0
  9
$DIMTIX
 70
     1
  9
$DIMSOXD
 70
     0
  9
$DIMSAH
 70
     0
  9
$DIMBLK1
  1

  9
$DIMBLK2
  1

  9
$DIMSTYLE
  2
STANDARD
  9
$DIMCLRD
 70
     7
  9
$DIMCLRE
 70
     7
  9
$DIMCLRT
 70
     7
  9
$DIMTFAC
 40
1.0
  9
$DIMGAP
 40
25.0
  9
$LUNITS
 70
     2
  9
$LUPREC
 70
     4
  9
$SKETCHINC
 40
0.1
  9
$FILLETRAD
 40
3.0
  9
$AUNITS
 70
     1
  9
$AUPREC
 70
     3
  9
$MENU
  1
ACAD
  9
$ELEVATION
 40
0.0
  9
$PELEVATION
 40
0.0
  9
$THICKNESS
 40
0.0
  9
$LIMCHECK
 70
     0
  9
$CHAMFERA
 40
0.0
  9
$CHAMFERB
 40
0.0
  9
$SKPOLY
 70
     0
  9
$TDCREATE
 40
2453019.62301037
  9
$TDUPDATE
 40
2459025.484104433
  9
$TDINDWG
 40
1.7139858912
  9
$TDUSRTIMER
 40
1.7139858912
  9
$USRTIMER
 70
     1
  9
$ANGBASE
 50
0.0
  9
$ANGDIR
 70
     0
  9
$PDMODE
 70
     3
  9
$PDSIZE
 40
-2.0
  9
$PLINEWID
 40
0.0
  9
$SPLFRAME
 70
     0
  9
$SPLINETYPE
 70
     6
  9
$SPLINESEGS
 70
     8
  9
$SURFTAB1
 70
     6
  9
$SURFTAB2
 70
     6
  9
$SURFTYPE
 70
     6
  9
$SURFU
 70
     6
  9
$SURFV
 70
     6
  9
$UCSNAME
  2

  9
$UCSORG
 10
0.0
 20
0.0
 30
0.0
  9
$UCSXDIR
 10
1.0
 20
0.0
 30
0.0
  9
$UCSYDIR
 10
0.0
 20
1.0
 30
0.0
  9
$PUCSNAME
  2

  9
$PUCSORG
 10
0.0
 20
0.0
 30
0.0
  9
$PUCSXDIR
 10
1.0
 20
0.0
 30
0.0
  9
$PUCSYDIR
 10
0.0
 20
1.0
 30
0.0
  9
$USERI1
 70
     0
  9
$USERI2
 70
     0
  9
$USERI3
 70
     0
  9
$USERI4
 70
     0
  9
$USERI5
 70
     0
  9
$USERR1
 40
20.0
  9
$USERR2
 40
0.0
  9
$USERR3
 40
0.0
  9
$USERR4
 40
0.0
  9
$USERR5
 40
0.0
  9
$WORLDVIEW
 70
     1
  9
$SHADEDGE
 70
     3
  9
$SHADEDIF
 70
    70
  9
$TILEMODE
 70
     1
  9
$MAXACTVP
 70
    48
  9
$PINSBASE
 10
0.0
 20
0.0
 30
0.0
  9
$PLIMCHECK
 70
     0
  9
$PEXTMIN
 10
-100000000000000000000.0
 20
-100000000000000000000.0
 30
-100000000000000000000.0
  9
$PEXTMAX
 10
100000000000000000000.0
 20
100000000000000000000.0
 30
100000000000000000000.0
  9
$PLIMMIN
 10
0.0
 20
0.0
  9
$PLIMMAX
 10
12.0
 20
9.0
  9
$UNITMODE
 70
     0
  9
$VISRETAIN
 70
     0
  9
$PLINEGEN
 70
     0
  9
$PSLTSCALE
 70
     0
  9
$TREEDEPTH
 70
  3020
  9
$ATTDIA
 70
     0
  9
$ATTREQ
 70
     1
  9
$BLIPMODE
 70
     1
  9
$COORDS
 70
     1
  9
$DRAGMODE
 70
     2
  9
$OSMODE
 70
     0
  9
$HANDLING
 70
     0
  9
$HANDSEED
  5
F24C
  0
ENDSEC
  0
SECTION
  2
TABLES
  0
TABLE
  2
LTYPE
 70
     3
  0
LTYPE
  2
CONTINUOUS
 70
     0
  3
実線
 72
    65
 73
     0
 40
0.0
  0
LTYPE
  2
DASHDOT
 70
     0
  3
____ _ ____ _ ____ _ ____ _ ____ _ ____ _ ____
 72
    65
 73
     4
 40
5.5
 49
4.0
 49
-0.6
 49
0.3
 49
-0.6
  0
LTYPE
  2
CENTER
 70
     0
  3
Center ____ _ ____ _ ____ _ ____ _ ____ _ ____
 72
    65
 73
     4
 40
1.0
 49
0.5
 49
-0.25
 49
0.0
 49
-0.25
  0
ENDTAB
  0
TABLE
  2
LAYER
 70
    12
  0
LAYER
  2
0
 70
     0
 62
     7
  6
CONTINUOUS
  0
LAYER
  2
BASIS
 70
     0
 62
     6
  6
DASHDOT
  0
LAYER
  2
OUTLINE
 70
     0
 62
     3
  6
CONTINUOUS
  0
LAYER
  2
DETAIL
 70
     0
 62
     5
  6
CONTINUOUS
  0
LAYER
  2
SIZE
 70
     0
 62
    30
  6
CONTINUOUS
  0
LAYER
  2
ARRANGE
 70
     0
 62
     1
  6
CONTINUOUS
  0
LAYER
  2
DEFPOINTS
 70
     0
 62
     7
  6
CONTINUOUS
  0
LAYER
  2
ETC
 70
     0
 62
    61
  6
CONTINUOUS
  0
LAYER
  2
FIX
 70
     0
 62
    11
  6
CONTINUOUS
  0
LAYER
  2
NOTE
 70
     0
 62
     4
  6
CONTINUOUS
  0
LAYER
  2
SERVICESPACE
 70
    64
 62
     2
  6
DASHDOT
  0
LAYER
  2
SYMBOLLINE
 70
    64
 62
    15
  6
CONTINUOUS
  0
ENDTAB
  0
TABLE
  2
STYLE
 70
     1
  0
STYLE
  2
STANDARD
 70
     0
 40
64.0
 41
0.9
 50
0.0
 71
     0
 42
64.0
  3
SIMPLEX.shx
  4
BIGFONT.shx
  0
ENDTAB
  0
TABLE
  2
APPID
 70
    19
  0
APPID
  2
ACAD
 70
     0
  0
APPID
  2
AUTOCAD_POSTSCRIPT_FIGURE
 70
     0
  0
APPID
  2
ACAD_EXEMPT_FROM_CAD_STANDARDS
 70
     0
  0
APPID
  2
ACAD_PSEXT
 70
     0
  0
APPID
  2
ACAUTHENVIRON
 70
     0
  0
APPID
  2
GENIUS_GENOENT_13
 70
     0
  0
APPID
  2
GENIUS_GENCFG_13
 70
     0
  0
APPID
  2
GENIUS_GENCFG0_13
 70
     0
  0
APPID
  2
GENIUS_GENCFG1_13
 70
     0
  0
APPID
  2
GENIUS_GENCFG2_13
 70
     0
  0
APPID
  2
GENIUS_GENCFG3_13
 70
     0
  0
APPID
  2
GENIUS_GENCFG4_13
 70
     0
  0
APPID
  2
GENIUS_GEVCFG0_13
 70
     0
  0
APPID
  2
CONTENTBLOCKICON
 70
     0
  0
APPID
  2
CONTENTBLOCKDESCRIPTION
 70
     0
  0
APPID
  2
ACAD_NAV_VCDISPLAY
 70
     0
  0
APPID
  2
ACAD_MLEADERVER
 70
     0
  0
APPID
  2
ACDBDYNAMICBLOCKTRUENAME
 70
     0
  0
APPID
  2
ACDBDYNAMICBLOCKGUID
 70
     0
  0
ENDTAB
  0
TABLE
  2
DIMSTYLE
 70
     1
  0
DIMSTYLE
  2
STANDARD
 70
     0
  3

  4

  5
_ORIGIN
  6

  7

 40
1.0
 41
12.0
 42
20.0
 43
200.0
 44
20.0
 45
0.0
 46
0.0
 47
0.0
 48
0.0
140
64.0
141
0.09
142
0.0
143
25.399999999999999
144
1.0
145
0.0
146
1.0
147
25.0
 71
     0
 72
     0
 73
     0
 74
     0
 75
     0
 76
     0
 77
     1
 78
     8
170
     0
171
     2
172
     1
173
     0
174
     1
175
     0
176
     7
177
     7
178
     7
  0
ENDTAB
  0
TABLE
  2
VIEW
 70
     1
  0
VIEW
  2
ALL
 70
     0
 40
4282.6198079999986
 10
0.0
 20
41.309904000000003
 41
5940.0
 11
0.0
 21
0.0
 31
1.0
 12
0.0
 22
0.0
 32
0.0
 42
50.0
 43
0.0
 44
0.0
 50
0.0
 71
     0
  0
ENDTAB
  0
TABLE
  2
UCS
 70
     0
  0
ENDTAB
  0
TABLE
  2
VPORT
 70
     1
  0
VPORT
  2
*ACTIVE
 70
     0
 10
0.0
 20
0.0
 11
1.0
 21
1.0
 12
479.01765354794509
 22
104.6218971077142
 13
0.0
 23
0.0
 14
1.0
 24
1.0
 15
0.0
 25
0.0
 16
0.0
 26
0.0
 36
1.0
 17
0.0
 27
0.0
 37
0.0
 40
1067.992840033681
 41
1.747787610619469
 42
50.0
 43
0.0
 44
0.0
 50
0.0
 51
0.0
 71
     0
 72
  1000
 73
     1
 74
     3
 75
     0
 76
     0
 77
     0
 78
     0
  0
ENDTAB
  0
ENDSEC
  0
SECTION
  2
BLOCKS
  0
BLOCK
  8
0
  2
_ORIGIN
 70
     0
 10
0.0
 20
0.0
 30
0.0
  3
_ORIGIN
  1
_ORIGIN
  0
CIRCLE
  8
0
  6
CONTINUOUS
 62
     7
 10
0.0
 20
0.0
 30
0.0
 40
0.5
  0
LINE
  8
0
  6
CONTINUOUS
 62
     7
 10
0.0
 20
0.0
 30
0.0
 11
-1.0
 21
0.0
 31
0.0
  0
ENDBLK
  8
0
  0
ENDSEC
  0
SECTION
  2
ENTITIES
  0
TEXT
  8
NOTE
  6
CONTINUOUS
 62
     4
 10
-43.873879225403932
 20
70.986625103944903
 30
0.0
 40
64.0
  1
EA
 41
0.9
  0
LINE
  8
BASIS
  6
DASHDOT
 62
     6
 10
0.0
 20
195.20970600000001
 30
0.0
 11
0.0
 21
-32.073361999999968
 31
0.0
  0
CIRCLE
  8
FIX
  6
CONTINUOUS
 62
    11
 10
-98.5
 20
0.0
 30
0.0
 40
10.0
  0
CIRCLE
  8
FIX
  6
CONTINUOUS
 62
    11
 10
-65.0
 20
0.0
 30
0.0
 40
10.0
  0
CIRCLE
  8
ARRANGE
  6
CONTINUOUS
 62
     1
 10
0.0
 20
0.0
 30
0.0
 40
40.0
  0
POINT
  8
ARRANGE
  6
CONTINUOUS
 62
     1
 10
0.0
 20
0.0
 30
0.0
 50
90.0
  0
TEXT
  8
NOTE
  6
CONTINUOUS
 62
     4
 10
212.80378245062511
 20
411.92134532828851
 30
0.0
 40
64.0
  1
EL
 41
0.9
  0
LINE
  8
NOTE
  6
CONTINUOUS
 62
     4
 10
354.82094409062063
 20
389.32768560060151
 30
0.0
 11
186.29645256420159
 21
389.32768560055888
 31
0.0
  0
LINE
  8
NOTE
  6
CONTINUOUS
 62
     4
 10
69.000000000000114
 20
172.72927000000001
 30
0.0
 11
186.29645256420159
 21
389.32768560055888
 31
0.0
  0
LINE
  8
NOTE
  6
CONTINUOUS
 62
     4
 10
69.000000000000114
 20
172.72927000000001
 30
0.0
 11
97.073374044112711
 21
199.3732191874501
 31
0.0
  0
LINE
  8
NOTE
  6
CONTINUOUS
 62
     4
 10
76.302562394578558
 20
211.98731970384549
 30
0.0
 11
69.000000000000114
 21
172.72927000000001
 31
0.0
  0
LINE
  8
NOTE
  6
CONTINUOUS
 62
     4
 10
98.500000000000114
 20
0.0
 30
0.0
 11
333.78356798458663
 21
264.8116364789787
 31
0.0
  0
LINE
  8
NOTE
  6
CONTINUOUS
 62
     4
 10
98.500000000000114
 20
0.0
 30
0.0
 11
129.81274534757929
 21
22.683422418883421
 31
0.0
  0
LINE
  8
NOTE
  6
CONTINUOUS
 62
     4
 10
117.49527469402361
 20
35.19929633376114
 30
0.0
 11
98.500000000000114
 21
0.0
 31
0.0
  0
CIRCLE
  8
FIX
  6
CONTINUOUS
 62
    11
 10
98.500000000000114
 20
0.0
 30
0.0
 40
10.0
  0
CIRCLE
  8
FIX
  6
CONTINUOUS
 62
    11
 10
65.000000000000114
 20
0.0
 30
0.0
 40
10.0
  0
LINE
  8
SIZE
  6
CONTINUOUS
 62
    30
 10
-65.0
 20
-26.299110999999929
 30
0.0
 11
-65.0
 21
-159.80408375880609
 31
0.0
  0
LINE
  8
SIZE
  6
CONTINUOUS
 62
    30
 10
65.000000000000114
 20
-26.299110999999929
 30
0.0
 11
65.000000000000114
 21
-159.80408375880609
 31
0.0
  0
LINE
  8
SIZE
  6
CONTINUOUS
 62
    30
 10
-77.0
 20
-139.80408375880609
 30
0.0
 11
-89.0
 21
-139.80408375880609
 31
0.0
  0
LINE
  8
SIZE
  6
CONTINUOUS
 62
    30
 10
77.000000000000114
 20
-139.80408375880609
 30
0.0
 11
89.000000000000114
 21
-139.80408375880609
 31
0.0
  0
LINE
  8
SIZE
  6
CONTINUOUS
 62
    30
 10
-65.0
 20
-139.80408375880609
 30
0.0
 11
65.000000000000114
 21
-139.80408375880609
 31
0.0
  0
CIRCLE
  8
SIZE
  6
CONTINUOUS
 62
    30
 10
-65.0
 20
-139.80408375880609
 30
0.0
 40
6.0
  0
LINE
  8
SIZE
  6
CONTINUOUS
 62
    30
 10
-65.0
 20
-139.80408375880609
 30
0.0
 11
-77.0
 21
-139.80408375880609
 31
0.0
  0
CIRCLE
  8
SIZE
  6
CONTINUOUS
 62
    30
 10
65.000000000000114
 20
-139.80408375880609
 30
0.0
 40
6.0
  0
LINE
  8
SIZE
  6
CONTINUOUS
 62
    30
 10
65.000000000000114
 20
-139.80408375880609
 30
0.0
 11
77.000000000000114
 21
-139.80408375880609
 31
0.0
  0
TEXT
  8
SIZE
  6
CONTINUOUS
 62
    30
 10
-68.571428571428513
 20
-114.8040837588061
 30
0.0
 40
64.0
  1
130
 41
0.9
 72
     1
 11
0.0000000000000568
 21
-114.8040837588061
 31
0.0
  0
POINT
  8
DEFPOINTS
  6
CONTINUOUS
 62
    30
 10
-65.0
 20
-6.2991109999999253
 30
0.0
  0
POINT
  8
DEFPOINTS
  6
CONTINUOUS
 62
    30
 10
65.000000000000114
 20
-6.2991109999999253
 30
0.0
  0
POINT
  8
DEFPOINTS
  6
CONTINUOUS
 62
    30
 10
65.000000000000114
 20
-139.80408375880609
 30
0.0
  0
LINE
  8
SIZE
  6
CONTINUOUS
 62
    30
 10
-98.5
 20
-26.299110999999929
 30
0.0
 11
-98.5
 21
-302.52006728439221
 31
0.0
  0
LINE
  8
SIZE
  6
CONTINUOUS
 62
    30
 10
98.500000000000114
 20
-26.299110999999929
 30
0.0
 11
98.500000000000114
 21
-302.52006728439221
 31
0.0
  0
LINE
  8
SIZE
  6
CONTINUOUS
 62
    30
 10
-86.5
 20
-282.52006728439221
 30
0.0
 11
86.500000000000114
 21
-282.52006728439221
 31
0.0
  0
CIRCLE
  8
SIZE
  6
CONTINUOUS
 62
    30
 10
-98.5
 20
-282.52006728439221
 30
0.0
 40
6.0
  0
LINE
  8
SIZE
  6
CONTINUOUS
 62
    30
 10
-98.5
 20
-282.52006728439221
 30
0.0
 11
-86.5
 21
-282.52006728439221
 31
0.0
  0
CIRCLE
  8
SIZE
  6
CONTINUOUS
 62
    30
 10
98.500000000000114
 20
-282.52006728439221
 30
0.0
 40
6.0
  0
LINE
  8
SIZE
  6
CONTINUOUS
 62
    30
 10
98.500000000000114
 20
-282.52006728439221
 30
0.0
 11
86.500000000000114
 21
-282.52006728439221
 31
0.0
  0
TEXT
  8
SIZE
  6
CONTINUOUS
 62
    30
 10
-68.571428571428513
 20
-257.52006728439221
 30
0.0
 40
64.0
  1
197
 41
0.9
 72
     1
 11
0.0000000000000568
 21
-257.52006728439221
 31
0.0
  0
POINT
  8
DEFPOINTS
  6
CONTINUOUS
 62
    30
 10
-98.5
 20
-6.2991109999999253
 30
0.0
  0
POINT
  8
DEFPOINTS
  6
CONTINUOUS
 62
    30
 10
98.500000000000114
 20
-6.2991109999999253
 30
0.0
  0
POINT
  8
DEFPOINTS
  6
CONTINUOUS
 62
    30
 10
98.500000000000114
 20
-282.52006728439221
 30
0.0
  0
LINE
  8
SIZE
  6
CONTINUOUS
 62
    30
 10
-124.97242476737721
 20
-20.52616797812146
 30
0.0
 11
-124.97242476737721
 21
-425.55141442450002
 31
0.0
  0
LINE
  8
SIZE
  6
CONTINUOUS
 62
    30
 10
124.9724240000003
 20
-20.526167999999981
 30
0.0
 11
124.972424
 21
-425.55141442450002
 31
0.0
  0
LINE
  8
SIZE
  6
CONTINUOUS
 62
    30
 10
-112.97242476737721
 20
-405.55141442450002
 30
0.0
 11
112.972424
 21
-405.55141442450002
 31
0.0
  0
CIRCLE
  8
SIZE
  6
CONTINUOUS
 62
    30
 10
-124.97242476737721
 20
-405.55141442450002
 30
0.0
 40
6.0
  0
LINE
  8
SIZE
  6
CONTINUOUS
 62
    30
 10
-124.97242476737721
 20
-405.55141442450002
 30
0.0
 11
-112.97242476737721
 21
-405.55141442450002
 31
0.0
  0
CIRCLE
  8
SIZE
  6
CONTINUOUS
 62
    30
 10
124.972424
 20
-405.55141442450002
 30
0.0
 40
6.0
  0
LINE
  8
SIZE
  6
CONTINUOUS
 62
    30
 10
124.972424
 20
-405.55141442450002
 30
0.0
 11
112.972424
 21
-405.55141442450002
 31
0.0
  0
TEXT
  8
SIZE
  6
CONTINUOUS
 62
    30
 10
-120.5371432408315
 20
-380.55141442450002
 30
0.0
 40
64.0
  1
□250
 41
0.9
 72
     1
 11
-10.00000038368859
 21
-380.55141442450002
 31
0.0
  0
POINT
  8
DEFPOINTS
  6
CONTINUOUS
 62
    30
 10
-124.97242476737721
 20
-0.5261679781214639
 30
0.0
  0
POINT
  8
DEFPOINTS
  6
CONTINUOUS
 62
    30
 10
124.9724240000003
 20
-0.5261679999999842
 30
0.0
  0
POINT
  8
DEFPOINTS
  6
CONTINUOUS
 62
    30
 10
124.972424
 20
-405.55141442450002
 30
0.0
  0
LINE
  8
SIZE
  6
CONTINUOUS
 62
    30
 10
42.386977769350437
 20
184.52295045976231
 30
0.0
 11
593.70636827927672
 21
184.5229504597622
 31
0.0
  0
LINE
  8
SIZE
  6
CONTINUOUS
 62
    30
 10
144.47310899999999
 20
0.0
 30
0.0
 11
593.70636827927672
 21
-0.0000000000001137
 31
0.0
  0
LINE
  8
SIZE
  6
CONTINUOUS
 62
    30
 10
573.70636827927672
 20
196.5229504597622
 30
0.0
 11
573.70636827927672
 21
208.5229504597622
 31
0.0
  0
LINE
  8
SIZE
  6
CONTINUOUS
 62
    30
 10
573.70636827927672
 20
-12.00000000000011
 30
0.0
 11
573.70636827927672
 21
-24.00000000000011
 31
0.0
  0
LINE
  8
SIZE
  6
CONTINUOUS
 62
    30
 10
573.70636827927672
 20
184.5229504597622
 30
0.0
 11
573.70636827927672
 21
-0.0000000000001137
 31
0.0
  0
CIRCLE
  8
SIZE
  6
CONTINUOUS
 62
    30
 10
573.70636827927672
 20
184.5229504597622
 30
0.0
 40
6.0
  0
LINE
  8
SIZE
  6
CONTINUOUS
 62
    30
 10
573.70636827927672
 20
184.5229504597622
 30
0.0
 11
573.70636827927672
 21
196.5229504597622
 31
0.0
  0
CIRCLE
  8
SIZE
  6
CONTINUOUS
 62
    30
 10
573.70636827927672
 20
-0.0000000000001137
 30
0.0
 40
6.0
  0
LINE
  8
SIZE
  6
CONTINUOUS
 62
    30
 10
573.70636827927672
 20
-0.0000000000001137
 30
0.0
 11
573.70636827927672
 21
-12.00000000000011
 31
0.0
  0
TEXT
  8
SIZE
  6
CONTINUOUS
 62
    30
 10
548.70636827927683
 20
22.318618087024049
 30
0.0
 40
64.0
  1
184
 50
90.0
 41
0.9
 72
     1
 11
548.70636827927683
 21
92.261475229881171
 31
0.0
  0
POINT
  8
DEFPOINTS
  6
CONTINUOUS
 62
    30
 10
22.386977769350441
 20
184.52295045976231
 30
0.0
  0
POINT
  8
DEFPOINTS
  6
CONTINUOUS
 62
    30
 10
124.47310899999999
 20
0.0
 30
0.0
  0
POINT
  8
DEFPOINTS
  6
CONTINUOUS
 62
    30
 10
573.70636827927672
 20
-0.0000000000001137
 30
0.0
  0
LINE
  8
SIZE
  6
CONTINUOUS
 62
    30
 10
-86.989868999999885
 20
20.0
 30
0.0
 11
-86.989868999999885
 21
314.15852527823148
 31
0.0
  0
LINE
  8
SIZE
  6
CONTINUOUS
 62
    30
 10
86.989868000000229
 20
20.0
 30
0.0
 11
86.989868000000229
 21
314.15852527823148
 31
0.0
  0
LINE
  8
SIZE
  6
CONTINUOUS
 62
    30
 10
-74.989868999999885
 20
294.15852527823148
 30
0.0
 11
74.989868000000229
 21
294.15852527823148
 31
0.0
  0
CIRCLE
  8
SIZE
  6
CONTINUOUS
 62
    30
 10
-86.989868999999885
 20
294.15852527823148
 30
0.0
 40
6.0
  0
LINE
  8
SIZE
  6
CONTINUOUS
 62
    30
 10
-86.989868999999885
 20
294.15852527823148
 30
0.0
 11
-74.989868999999885
 21
294.15852527823148
 31
0.0
  0
CIRCLE
  8
SIZE
  6
CONTINUOUS
 62
    30
 10
86.989868000000229
 20
294.15852527823148
 30
0.0
 40
6.0
  0
LINE
  8
SIZE
  6
CONTINUOUS
 62
    30
 10
86.989868000000229
 20
294.15852527823148
 30
0.0
 11
74.989868000000229
 21
294.15852527823148
 31
0.0
  0
TEXT
  8
SIZE
  6
CONTINUOUS
 62
    30
 10
-106.422857642857
 20
319.15852527823148
 30
0.0
 40
64.0
  1
□174
 41
0.9
 72
     1
 11
-0.0000004999998282
 21
319.15852527823148
 31
0.0
  0
POINT
  8
DEFPOINTS
  6
CONTINUOUS
 62
    30
 10
-86.989868999999885
 20
0.0
 30
0.0
  0
POINT
  8
DEFPOINTS
  6
CONTINUOUS
 62
    30
 10
86.989868000000229
 20
0.0
 30
0.0
  0
POINT
  8
DEFPOINTS
  6
CONTINUOUS
 62
    30
 10
86.989868000000229
 20
294.15852527823148
 30
0.0
  0
LINE
  8
BASIS
  6
DASHDOT
 62
     6
 10
58.401251000000123
 20
102.0
 30
0.0
 11
-57.818663000000022
 21
102.0
 31
0.0
  0
LINE
  8
SIZE
  6
CONTINUOUS
 62
    30
 10
-312.5303469210113
 20
208.5317517116296
 30
0.0
 11
-57.737837153896407
 21
121.6810101567512
 31
0.0
  0
LINE
  8
SIZE
  6
CONTINUOUS
 62
    30
 10
57.737837153896407
 20
82.318989843248801
 30
0.0
 11
69.096100200564479
 21
78.447315714051911
 31
0.0
  0
TEXT
  8
SIZE
  6
CONTINUOUS
 62
    30
 10
-294.3014180734275
 20
228.7305732070638
 30
0.0
 40
64.0
  1
φ98
 50
341.17737335908782
 41
0.9
 72
     1
 11
-212.0026892552834
 21
200.67752865951121
 31
0.0
  0
LINE
  8
SIZE
  6
CONTINUOUS
 62
    30
 10
46.379574107228223
 20
86.190663972445805
 30
0.0
 11
-46.379574107228223
 21
117.8093360275542
 31
0.0
  0
CIRCLE
  8
SIZE
  6
CONTINUOUS
 62
    30
 10
46.379574107228223
 20
86.190663972445805
 30
0.0
 40
6.0
  0
LINE
  8
SIZE
  6
CONTINUOUS
 62
    30
 10
46.379574107228223
 20
86.190663972445805
 30
0.0
 11
57.737837153896351
 21
82.318989843248801
 31
0.0
  0
CIRCLE
  8
SIZE
  6
CONTINUOUS
 62
    30
 10
-46.379574107228223
 20
117.8093360275542
 30
0.0
 40
6.0
  0
LINE
  8
SIZE
  6
CONTINUOUS
 62
    30
 10
-46.379574107228223
 20
117.8093360275542
 30
0.0
 11
-57.737837153896407
 21
121.6810101567511
 31
0.0
  0
POINT
  8
DEFPOINTS
  6
CONTINUOUS
 62
    30
 10
-46.379574107228223
 20
117.8093360275542
 30
0.0
  0
POINT
  8
DEFPOINTS
  6
CONTINUOUS
 62
    30
 10
46.379574107228223
 20
86.190663972445805
 30
0.0
  0
LINE
  8
SIZE
  6
CONTINUOUS
 62
    30
 10
-367.19140240147323
 20
-60.747478265682162
 30
0.0
 11
-59.424669888372591
 21
75.661651368053754
 31
0.0
  0
LINE
  8
SIZE
  6
CONTINUOUS
 62
    30
 10
59.424669888372591
 20
128.33834863194619
 30
0.0
 11
70.395378175456813
 21
133.20081299476701
 31
0.0
  0
TEXT
  8
SIZE
  6
CONTINUOUS
 62
    30
 10
-368.06616949344539
 20
-22.122216787497191
 30
0.0
 40
64.0
  1
φ105
 50
23.903996917134009
 41
0.9
 72
     1
 11
-268.51482800836158
 21
22.001174116271329
 31
0.0
  0
LINE
  8
SIZE
  6
CONTINUOUS
 62
    30
 10
48.453961601288427
 20
123.4758842691253
 30
0.0
 11
-48.453961601288427
 21
80.524115730874598
 31
0.0
  0
CIRCLE
  8
SIZE
  6
CONTINUOUS
 62
    30
 10
48.453961601288427
 20
123.4758842691253
 30
0.0
 40
6.0
  0
LINE
  8
SIZE
  6
CONTINUOUS
 62
    30
 10
48.453961601288427
 20
123.4758842691253
 30
0.0
 11
59.424669888372591
 21
128.33834863194619
 31
0.0
  0
CIRCLE
  8
SIZE
  6
CONTINUOUS
 62
    30
 10
-48.453961601288427
 20
80.524115730874598
 30
0.0
 40
6.0
  0
LINE
  8
SIZE
  6
CONTINUOUS
 62
    30
 10
-48.453961601288427
 20
80.524115730874598
 30
0.0
 11
-59.424669888372591
 21
75.661651368053754
 31
0.0
  0
POINT
  8
DEFPOINTS
  6
CONTINUOUS
 62
    30
 10
-48.453961601288427
 20
80.524115730874598
 30
0.0
  0
POINT
  8
DEFPOINTS
  6
CONTINUOUS
 62
    30
 10
48.453961601288427
 20
123.4758842691253
 30
0.0
  0
LINE
  8
SIZE
  6
CONTINUOUS
 62
    30
 10
78.401251000000116
 20
102.0
 30
0.0
 11
464.78722232218928
 21
101.9999999999999
 31
0.0
  0
LINE
  8
SIZE
  6
CONTINUOUS
 62
    30
 10
124.47310899999999
 20
0.0
 30
0.0
 11
464.78722232218928
 21
-0.0000000000001137
 31
0.0
  0
LINE
  8
SIZE
  6
CONTINUOUS
 62
    30
 10
444.78722232218928
 20
89.999999999999886
 30
0.0
 11
444.78722232218928
 21
11.99999999999989
 31
0.0
  0
LINE
  8
SIZE
  6
CONTINUOUS
 62
    30
 10
444.78722232218928
 20
-0.0000000000001137
 30
0.0
 11
444.78722232218928
 21
-200.1656710383705
 31
0.0
  0
CIRCLE
  8
SIZE
  6
CONTINUOUS
 62
    30
 10
444.78722232218928
 20
101.9999999999999
 30
0.0
 40
6.0
  0
LINE
  8
SIZE
  6
CONTINUOUS
 62
    30
 10
444.78722232218928
 20
101.9999999999999
 30
0.0
 11
444.78722232218928
 21
89.999999999999886
 31
0.0
  0
CIRCLE
  8
SIZE
  6
CONTINUOUS
 62
    30
 10
444.78722232218928
 20
-0.0000000000001137
 30
0.0
 40
6.0
  0
LINE
  8
SIZE
  6
CONTINUOUS
 62
    30
 10
444.78722232218928
 20
-0.0000000000001137
 30
0.0
 11
444.78722232218928
 21
11.99999999999989
 31
0.0
  0
TEXT
  8
SIZE
  6
CONTINUOUS
 62
    30
 10
419.78722232218928
 20
-175.1656710383705
 30
0.0
 40
64.0
  1
102
 50
90.0
 41
0.9
 72
     1
 11
419.78722232218928
 21
-106.59424246694201
 31
0.0
  0
POINT
  8
DEFPOINTS
  6
CONTINUOUS
 62
    30
 10
58.401251000000123
 20
102.0
 30
0.0
  0
POINT
  8
DEFPOINTS
  6
CONTINUOUS
 62
    30
 10
104.47310899999999
 20
0.0
 30
0.0
  0
POINT
  8
DEFPOINTS
  6
CONTINUOUS
 62
    30
 10
444.78722232218928
 20
-0.0000000000001137
 30
0.0
  0
LINE
  8
OUTLINE
  6
CONTINUOUS
 62
     3
 10
61.992560000000033
 20
172.72927000000001
 30
0.0
 11
77.990640000000099
 21
172.72927000000001
 31
0.0
  0
LINE
  8
OUTLINE
  6
CONTINUOUS
 62
     3
 10
-61.992559999999912
 20
172.72927000000001
 30
0.0
 11
-77.990639999999985
 21
172.72927000000001
 31
0.0
  0
LINE
  8
OUTLINE
  6
CONTINUOUS
 62
     3
 10
-86.989868999999885
 20
0.0
 30
0.0
 11
-125.0
 21
0.0
 31
0.0
  0
LINE
  8
OUTLINE
  6
CONTINUOUS
 62
     3
 10
86.989868000000229
 20
0.0
 30
0.0
 11
125.0
 21
0.0
 31
0.0
  0
ARC
  8
OUTLINE
  6
CONTINUOUS
 62
     3
 10
79.042759000000046
 20
167.72987000000001
 30
0.0
 40
4.9993999999999996
 50
1.0051130000008119
 51
84.862227000001099
  0
LINE
  8
OUTLINE
  6
CONTINUOUS
 62
     3
 10
79.430722000000173
 20
172.69964999999999
 30
0.0
 11
79.456760000000145
 21
172.70357000000001
 31
0.0
  0
LINE
  8
OUTLINE
  6
CONTINUOUS
 62
     3
 10
79.398380000000202
 20
172.69503399999999
 30
0.0
 11
79.430722000000173
 21
172.69964999999999
 31
0.0
  0
LINE
  8
OUTLINE
  6
CONTINUOUS
 62
     3
 10
79.360174000000029
 20
172.69000399999999
 30
0.0
 11
79.398380000000202
 21
172.69503399999999
 31
0.0
  0
LINE
  8
OUTLINE
  6
CONTINUOUS
 62
     3
 10
79.316719000000035
 20
172.68481800000009
 30
0.0
 11
79.360174000000029
 21
172.69000399999999
 31
0.0
  0
LINE
  8
OUTLINE
  6
CONTINUOUS
 62
     3
 10
79.268507999999997
 20
172.6797369999999
 30
0.0
 11
79.316719000000035
 21
172.68481800000009
 31
0.0
  0
LINE
  8
OUTLINE
  6
CONTINUOUS
 62
     3
 10
79.215835000000084
 20
172.67502400000001
 30
0.0
 11
79.268507999999997
 21
172.6797369999999
 31
0.0
  0
LINE
  8
OUTLINE
  6
CONTINUOUS
 62
     3
 10
79.159901999999988
 20
172.67092600000001
 30
0.0
 11
79.215835000000084
 21
172.67502400000001
 31
0.0
  0
LINE
  8
OUTLINE
  6
CONTINUOUS
 62
     3
 10
79.101956000000087
 20
172.66781900000001
 30
0.0
 11
79.159901999999988
 21
172.67092600000001
 31
0.0
  0
LINE
  8
OUTLINE
  6
CONTINUOUS
 62
     3
 10
79.042759000000046
 20
172.66557599999999
 30
0.0
 11
79.101956000000087
 21
172.66781900000001
 31
0.0
  0
LINE
  8
OUTLINE
  6
CONTINUOUS
 62
     3
 10
79.029736999999955
 20
172.66527000000011
 30
0.0
 11
79.042759000000046
 21
172.66558000000001
 31
0.0
  0
LINE
  8
OUTLINE
  6
CONTINUOUS
 62
     3
 10
79.01669000000004
 20
172.6650480000001
 30
0.0
 11
79.029736999999955
 21
172.66527000000011
 31
0.0
  0
LINE
  8
OUTLINE
  6
CONTINUOUS
 62
     3
 10
79.003618000000074
 20
172.66491500000009
 30
0.0
 11
79.01669000000004
 21
172.6650480000001
 31
0.0
  0
LINE
  8
OUTLINE
  6
CONTINUOUS
 62
     3
 10
78.49058000000025
 20
172.66487000000009
 30
0.0
 11
79.003618000000074
 21
172.66491500000009
 31
0.0
  0
LINE
  8
OUTLINE
  6
CONTINUOUS
 62
     3
 10
78.435449000000176
 20
172.665708
 30
0.0
 11
78.49058000000025
 21
172.66487000000009
 31
0.0
  0
LINE
  8
OUTLINE
  6
CONTINUOUS
 62
     3
 10
78.3803979999999
 20
172.66802600000011
 30
0.0
 11
78.435449000000176
 21
172.665708
 31
0.0
  0
LINE
  8
OUTLINE
  6
CONTINUOUS
 62
     3
 10
78.325941000000171
 20
172.67195000000001
 30
0.0
 11
78.3803979999999
 21
172.66802600000011
 31
0.0
  0
LINE
  8
OUTLINE
  6
CONTINUOUS
 62
     3
 10
78.273440000000051
 20
172.67710099999999
 30
0.0
 11
78.325941000000171
 21
172.67195000000001
 31
0.0
  0
LINE
  8
OUTLINE
  6
CONTINUOUS
 62
     3
 10
78.224135000000047
 20
172.68326999999999
 30
0.0
 11
78.273440000000051
 21
172.67710099999999
 31
0.0
  0
LINE
  8
OUTLINE
  6
CONTINUOUS
 62
     3
 10
78.178430000000048
 20
172.69007500000001
 30
0.0
 11
78.224135000000047
 21
172.68326999999999
 31
0.0
  0
LINE
  8
OUTLINE
  6
CONTINUOUS
 62
     3
 10
78.136949000000072
 20
172.697169
 30
0.0
 11
78.178430000000048
 21
172.69007500000001
 31
0.0
  0
LINE
  8
OUTLINE
  6
CONTINUOUS
 62
     3
 10
78.099878999999987
 20
172.70424299999999
 30
0.0
 11
78.136949000000072
 21
172.697169
 31
0.0
  0
LINE
  8
OUTLINE
  6
CONTINUOUS
 62
     3
 10
78.067485000000147
 20
172.7109770000001
 30
0.0
 11
78.099878999999987
 21
172.70424299999999
 31
0.0
  0
LINE
  8
OUTLINE
  6
CONTINUOUS
 62
     3
 10
78.040266999999972
 20
172.7170620000002
 30
0.0
 11
78.067485000000147
 21
172.7109770000001
 31
0.0
  0
LINE
  8
OUTLINE
  6
CONTINUOUS
 62
     3
 10
78.018539000000033
 20
172.72214900000009
 30
0.0
 11
78.040266999999972
 21
172.7170620000002
 31
0.0
  0
LINE
  8
OUTLINE
  6
CONTINUOUS
 62
     3
 10
77.993689000000018
 20
172.72837000000001
 30
0.0
 11
78.018539000000033
 21
172.72214900000009
 31
0.0
  0
LINE
  8
OUTLINE
  6
CONTINUOUS
 62
     3
 10
79.486757000000011
 20
172.708437
 30
0.0
 11
79.490460000000098
 21
172.70917300000011
 31
0.0
  0
LINE
  8
OUTLINE
  6
CONTINUOUS
 62
     3
 10
79.456760000000145
 20
172.70357000000001
 30
0.0
 11
79.486757000000011
 21
172.708437
 31
0.0
  0
LINE
  8
OUTLINE
  6
CONTINUOUS
 62
     3
 10
84.083639999999946
 20
166.4800200000002
 30
0.0
 11
84.064890000000219
 21
166.4800200000002
 31
0.0
  0
LINE
  8
OUTLINE
  6
CONTINUOUS
 62
     3
 10
86.989868000000229
 20
0.0
 30
0.0
 11
84.041386999999872
 21
167.81769300000019
 31
0.0
  0
LINE
  8
OUTLINE
  6
CONTINUOUS
 62
     3
 10
77.990640000000099
 20
172.72926699999991
 30
0.0
 11
77.993689000000018
 21
172.72837000000001
 31
0.0
  0
ARC
  8
OUTLINE
  6
CONTINUOUS
 62
     3
 10
61.11266500000022
 20
176.8487749999999
 30
0.0
 40
0.8798940000000001
 50
0.0
 51
90.0
  0
LINE
  8
OUTLINE
  6
CONTINUOUS
 62
     3
 10
61.992560000000033
 20
172.72927000000001
 30
0.0
 11
61.992560000000033
 21
176.8487749999999
 31
0.0
  0
ARC
  8
OUTLINE
  6
CONTINUOUS
 62
     3
 10
-79.04275999999993
 20
167.72987000000001
 30
0.0
 40
4.9993999999999996
 50
95.137772999998916
 51
178.99488699999921
  0
LINE
  8
OUTLINE
  6
CONTINUOUS
 62
     3
 10
-79.430722999999944
 20
172.69964999999999
 30
0.0
 11
-79.456760999999915
 21
172.70357000000001
 31
0.0
  0
LINE
  8
OUTLINE
  6
CONTINUOUS
 62
     3
 10
-79.398380999999972
 20
172.69503399999999
 30
0.0
 11
-79.430722999999944
 21
172.69964999999999
 31
0.0
  0
LINE
  8
OUTLINE
  6
CONTINUOUS
 62
     3
 10
-79.360175000000027
 20
172.69000399999999
 30
0.0
 11
-79.398380999999972
 21
172.69503399999999
 31
0.0
  0
LINE
  8
OUTLINE
  6
CONTINUOUS
 62
     3
 10
-79.316719999999918
 20
172.68481800000009
 30
0.0
 11
-79.360175000000027
 21
172.69000399999999
 31
0.0
  0
LINE
  8
OUTLINE
  6
CONTINUOUS
 62
     3
 10
-79.268508999999995
 20
172.6797369999999
 30
0.0
 11
-79.316719999999918
 21
172.68481800000009
 31
0.0
  0
LINE
  8
OUTLINE
  6
CONTINUOUS
 62
     3
 10
-79.215835999999967
 20
172.67502400000001
 30
0.0
 11
-79.268508999999995
 21
172.6797369999999
 31
0.0
  0
LINE
  8
OUTLINE
  6
CONTINUOUS
 62
     3
 10
-79.159902999999872
 20
172.67092600000001
 30
0.0
 11
-79.215835999999967
 21
172.67502400000001
 31
0.0
  0
LINE
  8
OUTLINE
  6
CONTINUOUS
 62
     3
 10
-79.10195699999997
 20
172.66781900000001
 30
0.0
 11
-79.159902999999872
 21
172.67092600000001
 31
0.0
  0
LINE
  8
OUTLINE
  6
CONTINUOUS
 62
     3
 10
-79.04275999999993
 20
172.66557599999999
 30
0.0
 11
-79.10195699999997
 21
172.66781900000001
 31
0.0
  0
LINE
  8
OUTLINE
  6
CONTINUOUS
 62
     3
 10
-79.029737999999952
 20
172.66527000000011
 30
0.0
 11
-79.04275999999993
 21
172.66558000000001
 31
0.0
  0
LINE
  8
OUTLINE
  6
CONTINUOUS
 62
     3
 10
-79.016691000000037
 20
172.6650480000001
 30
0.0
 11
-79.029737999999952
 21
172.66527000000011
 31
0.0
  0
LINE
  8
OUTLINE
  6
CONTINUOUS
 62
     3
 10
-79.003618999999958
 20
172.66491500000009
 30
0.0
 11
-79.016691000000037
 21
172.6650480000001
 31
0.0
  0
LINE
  8
OUTLINE
  6
CONTINUOUS
 62
     3
 10
-78.490580000000023
 20
172.66487000000009
 30
0.0
 11
-79.003618999999958
 21
172.66491500000009
 31
0.0
  0
LINE
  8
OUTLINE
  6
CONTINUOUS
 62
     3
 10
-78.435449999999946
 20
172.665708
 30
0.0
 11
-78.490580000000023
 21
172.66487000000009
 31
0.0
  0
LINE
  8
OUTLINE
  6
CONTINUOUS
 62
     3
 10
-78.3803979999999
 20
172.66802600000011
 30
0.0
 11
-78.435449999999946
 21
172.665708
 31
0.0
  0
LINE
  8
OUTLINE
  6
CONTINUOUS
 62
     3
 10
-78.325941999999941
 20
172.67195000000001
 30
0.0
 11
-78.3803979999999
 21
172.66802600000011
 31
0.0
  0
LINE
  8
OUTLINE
  6
CONTINUOUS
 62
     3
 10
-78.273441000000048
 20
172.67710099999999
 30
0.0
 11
-78.325941999999941
 21
172.67195000000001
 31
0.0
  0
LINE
  8
OUTLINE
  6
CONTINUOUS
 62
     3
 10
-78.22413599999993
 20
172.68326999999999
 30
0.0
 11
-78.273441000000048
 21
172.67710099999999
 31
0.0
  0
LINE
  8
OUTLINE
  6
CONTINUOUS
 62
     3
 10
-78.178430999999932
 20
172.69007500000001
 30
0.0
 11
-78.22413599999993
 21
172.68326999999999
 31
0.0
  0
LINE
  8
OUTLINE
  6
CONTINUOUS
 62
     3
 10
-78.136949999999956
 20
172.697169
 30
0.0
 11
-78.178430999999932
 21
172.69007500000001
 31
0.0
  0
LINE
  8
OUTLINE
  6
CONTINUOUS
 62
     3
 10
-78.099879999999985
 20
172.70424299999999
 30
0.0
 11
-78.136949999999956
 21
172.697169
 31
0.0
  0
LINE
  8
OUTLINE
  6
CONTINUOUS
 62
     3
 10
-78.067485999999917
 20
172.7109770000001
 30
0.0
 11
-78.099879999999985
 21
172.70424299999999
 31
0.0
  0
LINE
  8
OUTLINE
  6
CONTINUOUS
 62
     3
 10
-78.040267999999969
 20
172.7170620000002
 30
0.0
 11
-78.067485999999917
 21
172.7109770000001
 31
0.0
  0
LINE
  8
OUTLINE
  6
CONTINUOUS
 62
     3
 10
-78.018539999999916
 20
172.72214900000009
 30
0.0
 11
-78.040267999999969
 21
172.7170620000002
 31
0.0
  0
LINE
  8
OUTLINE
  6
CONTINUOUS
 62
     3
 10
-77.993689999999901
 20
172.72837000000001
 30
0.0
 11
-78.018539999999916
 21
172.72214900000009
 31
0.0
  0
LINE
  8
OUTLINE
  6
CONTINUOUS
 62
     3
 10
-79.486758000000009
 20
172.708437
 30
0.0
 11
-79.490459999999985
 21
172.70917300000011
 31
0.0
  0
LINE
  8
OUTLINE
  6
CONTINUOUS
 62
     3
 10
-79.456760999999915
 20
172.70357000000001
 30
0.0
 11
-79.486758000000009
 21
172.708437
 31
0.0
  0
LINE
  8
OUTLINE
  6
CONTINUOUS
 62
     3
 10
-84.083641000000057
 20
166.4800200000002
 30
0.0
 11
-84.064890999999989
 21
166.4800200000002
 31
0.0
  0
LINE
  8
OUTLINE
  6
CONTINUOUS
 62
     3
 10
-86.989868999999885
 20
0.0
 30
0.0
 11
-84.041387999999984
 21
167.81769300000019
 31
0.0
  0
LINE
  8
OUTLINE
  6
CONTINUOUS
 62
     3
 10
-77.990639999999985
 20
172.72926699999991
 30
0.0
 11
-77.993689999999901
 21
172.72837000000001
 31
0.0
  0
ARC
  8
OUTLINE
  6
CONTINUOUS
 62
     3
 10
-61.11266599999999
 20
176.8487749999999
 30
0.0
 40
0.8798940000000001
 50
90.0
 51
180.0
  0
LINE
  8
OUTLINE
  6
CONTINUOUS
 62
     3
 10
-61.992559999999912
 20
172.72927000000001
 30
0.0
 11
-61.992559999999912
 21
176.8487749999999
 31
0.0
  0
LINE
  8
OUTLINE
  6
CONTINUOUS
 62
     3
 10
-61.11266599999999
 20
177.72866999999999
 30
0.0
 11
-20.400106859079639
 21
177.72866999999999
 31
0.0
  0
LINE
  8
OUTLINE
  6
CONTINUOUS
 62
     3
 10
61.11266500000022
 20
177.72866999999999
 30
0.0
 11
40.399428859079649
 21
177.72866999999999
 31
0.0
  0
LINE
  8
NOTE
  6
CENTER
 62
     4
 10
98.500000000000114
 20
6.965336000000093
 30
0.0
 11
98.500000000000114
 21
-6.2991109999999253
 31
0.0
  0
LINE
  8
NOTE
  6
CENTER
 62
     4
 10
65.000000000000114
 20
6.965336000000093
 30
0.0
 11
65.000000000000114
 21
-6.2991109999999253
 31
0.0
  0
LINE
  8
NOTE
  6
CENTER
 62
     4
 10
-98.5
 20
6.965336000000093
 30
0.0
 11
-98.5
 21
-6.2991109999999253
 31
0.0
  0
LINE
  8
NOTE
  6
CENTER
 62
     4
 10
-65.0
 20
6.965336000000093
 30
0.0
 11
-65.0
 21
-6.2991109999999253
 31
0.0
  0
LINE
  8
NOTE
  6
CENTER
 62
     4
 10
69.000000000000114
 20
184.05659800000001
 30
0.0
 11
69.000000000000114
 21
163.64902500000019
 31
0.0
  0
ARC
  8
DETAIL
  6
CONTINUOUS
 62
     5
 10
35.946823999999992
 20
174.5
 30
0.0
 40
5.5
 50
35.946594000000047
 51
90.0
  0
LINE
  8
DETAIL
  6
CONTINUOUS
 62
     5
 10
49.079622000000093
 20
156.10783599999999
 30
0.0
 11
0.0
 21
156.10783599999999
 31
0.0
  0
ARC
  8
DETAIL
  6
CONTINUOUS
 62
     5
 10
48.000000000000107
 20
139.14215300000001
 30
0.0
 40
17.0
 50
0.0
 51
86.35885500000056
  0
LINE
  8
DETAIL
  6
CONTINUOUS
 62
     5
 10
65.000000000000114
 20
60.387080999999966
 30
0.0
 11
65.000000000000114
 21
139.14215300000001
 31
0.0
  0
LINE
  8
DETAIL
  6
CONTINUOUS
 62
     5
 10
0.0
 20
45.387080999999966
 30
0.0
 11
50.000000000000107
 21
45.387080999999966
 31
0.0
  0
ARC
  8
DETAIL
  6
CONTINUOUS
 62
     5
 10
50.000000000000107
 20
60.387080999999966
 30
0.0
 40
15.0
 50
270.0
 51
0.0
  0
ARC
  8
DETAIL
  6
CONTINUOUS
 62
     5
 10
79.042759000000046
 20
167.72987000000001
 30
0.0
 40
4.9993999999999996
 50
1.0051130000008119
 51
84.862227000001099
  0
LINE
  8
DETAIL
  6
CONTINUOUS
 62
     5
 10
79.430722000000173
 20
172.69964999999999
 30
0.0
 11
79.456760000000145
 21
172.70357000000001
 31
0.0
  0
LINE
  8
DETAIL
  6
CONTINUOUS
 62
     5
 10
79.398380000000202
 20
172.69503399999999
 30
0.0
 11
79.430722000000173
 21
172.69964999999999
 31
0.0
  0
LINE
  8
DETAIL
  6
CONTINUOUS
 62
     5
 10
79.360174000000029
 20
172.69000399999999
 30
0.0
 11
79.398380000000202
 21
172.69503399999999
 31
0.0
  0
LINE
  8
DETAIL
  6
CONTINUOUS
 62
     5
 10
79.316719000000035
 20
172.68481800000009
 30
0.0
 11
79.360174000000029
 21
172.69000399999999
 31
0.0
  0
LINE
  8
DETAIL
  6
CONTINUOUS
 62
     5
 10
79.268507999999997
 20
172.6797369999999
 30
0.0
 11
79.316719000000035
 21
172.68481800000009
 31
0.0
  0
LINE
  8
DETAIL
  6
CONTINUOUS
 62
     5
 10
79.215835000000084
 20
172.67502400000001
 30
0.0
 11
79.268507999999997
 21
172.6797369999999
 31
0.0
  0
LINE
  8
DETAIL
  6
CONTINUOUS
 62
     5
 10
79.159901999999988
 20
172.67092600000001
 30
0.0
 11
79.215835000000084
 21
172.67502400000001
 31
0.0
  0
LINE
  8
DETAIL
  6
CONTINUOUS
 62
     5
 10
79.101956000000087
 20
172.66781900000001
 30
0.0
 11
79.159901999999988
 21
172.67092600000001
 31
0.0
  0
LINE
  8
DETAIL
  6
CONTINUOUS
 62
     5
 10
79.042759000000046
 20
172.66557599999999
 30
0.0
 11
79.101956000000087
 21
172.66781900000001
 31
0.0
  0
LINE
  8
DETAIL
  6
CONTINUOUS
 62
     5
 10
79.029736999999955
 20
172.66527000000011
 30
0.0
 11
79.042759000000046
 21
172.66558000000001
 31
0.0
  0
LINE
  8
DETAIL
  6
CONTINUOUS
 62
     5
 10
79.01669000000004
 20
172.6650480000001
 30
0.0
 11
79.029736999999955
 21
172.66527000000011
 31
0.0
  0
LINE
  8
DETAIL
  6
CONTINUOUS
 62
     5
 10
79.003618000000074
 20
172.66491500000009
 30
0.0
 11
79.01669000000004
 21
172.6650480000001
 31
0.0
  0
LINE
  8
DETAIL
  6
CONTINUOUS
 62
     5
 10
78.49058000000025
 20
172.66487000000009
 30
0.0
 11
79.003618000000074
 21
172.66491500000009
 31
0.0
  0
LINE
  8
DETAIL
  6
CONTINUOUS
 62
     5
 10
78.435449000000176
 20
172.665708
 30
0.0
 11
78.49058000000025
 21
172.66487000000009
 31
0.0
  0
LINE
  8
DETAIL
  6
CONTINUOUS
 62
     5
 10
78.3803979999999
 20
172.66802600000011
 30
0.0
 11
78.435449000000176
 21
172.665708
 31
0.0
  0
LINE
  8
DETAIL
  6
CONTINUOUS
 62
     5
 10
78.325941000000171
 20
172.67195000000001
 30
0.0
 11
78.3803979999999
 21
172.66802600000011
 31
0.0
  0
LINE
  8
DETAIL
  6
CONTINUOUS
 62
     5
 10
78.273440000000051
 20
172.67710100000011
 30
0.0
 11
78.325941000000171
 21
172.67195000000001
 31
0.0
  0
LINE
  8
DETAIL
  6
CONTINUOUS
 62
     5
 10
78.224135000000047
 20
172.68327000000011
 30
0.0
 11
78.273440000000051
 21
172.67710100000011
 31
0.0
  0
LINE
  8
DETAIL
  6
CONTINUOUS
 62
     5
 10
78.178430000000048
 20
172.69007500000009
 30
0.0
 11
78.224135000000047
 21
172.68327000000011
 31
0.0
  0
LINE
  8
DETAIL
  6
CONTINUOUS
 62
     5
 10
78.136949000000072
 20
172.697169
 30
0.0
 11
78.178430000000048
 21
172.69007500000009
 31
0.0
  0
LINE
  8
DETAIL
  6
CONTINUOUS
 62
     5
 10
78.099878999999987
 20
172.70424299999999
 30
0.0
 11
78.136949000000072
 21
172.697169
 31
0.0
  0
LINE
  8
DETAIL
  6
CONTINUOUS
 62
     5
 10
78.067485000000147
 20
172.7109770000001
 30
0.0
 11
78.099878999999987
 21
172.70424299999999
 31
0.0
  0
LINE
  8
DETAIL
  6
CONTINUOUS
 62
     5
 10
78.040266999999972
 20
172.7170620000002
 30
0.0
 11
78.067485000000147
 21
172.7109770000001
 31
0.0
  0
LINE
  8
DETAIL
  6
CONTINUOUS
 62
     5
 10
78.018539000000033
 20
172.72214900000009
 30
0.0
 11
78.040266999999972
 21
172.7170620000002
 31
0.0
  0
LINE
  8
DETAIL
  6
CONTINUOUS
 62
     5
 10
77.993689000000018
 20
172.72837000000001
 30
0.0
 11
78.018539000000033
 21
172.72214900000009
 31
0.0
  0
LINE
  8
DETAIL
  6
CONTINUOUS
 62
     5
 10
79.486757000000011
 20
172.708437
 30
0.0
 11
79.490460000000098
 21
172.70917300000011
 31
0.0
  0
LINE
  8
DETAIL
  6
CONTINUOUS
 62
     5
 10
79.456760000000145
 20
172.70357000000001
 30
0.0
 11
79.486757000000011
 21
172.708437
 31
0.0
  0
LINE
  8
DETAIL
  6
CONTINUOUS
 62
     5
 10
84.083639999999946
 20
166.4800200000002
 30
0.0
 11
84.064890000000219
 21
166.4800200000002
 31
0.0
  0
LINE
  8
DETAIL
  6
CONTINUOUS
 62
     5
 10
86.989868000000229
 20
0.0
 30
0.0
 11
84.041386999999872
 21
167.81769300000019
 31
0.0
  0
LINE
  8
DETAIL
  6
CONTINUOUS
 62
     5
 10
77.990640000000099
 20
172.72926699999991
 30
0.0
 11
77.993689000000018
 21
172.72837000000001
 31
0.0
  0
LINE
  8
DETAIL
  6
CONTINUOUS
 62
     5
 10
0.0
 20
172.72927000000001
 30
0.0
 11
77.990640000000099
 21
172.72927000000001
 31
0.0
  0
ARC
  8
DETAIL
  6
CONTINUOUS
 62
     5
 10
54.337832000000049
 20
182.97804000000011
 30
0.0
 40
0.9998799999999999
 50
23.498566000004491
 51
90.0
  0
ARC
  8
DETAIL
  6
CONTINUOUS
 62
     5
 10
61.11266500000022
 20
176.8487749999999
 30
0.0
 40
0.8798940000000001
 50
0.0
 51
90.0
  0
LINE
  8
DETAIL
  6
CONTINUOUS
 62
     5
 10
61.11266500000022
 20
177.72867000000011
 30
0.0
 11
0.0
 21
177.72867000000011
 31
0.0
  0
LINE
  8
DETAIL
  6
CONTINUOUS
 62
     5
 10
61.992560000000033
 20
172.72927000000001
 30
0.0
 11
61.992560000000033
 21
176.8487749999999
 31
0.0
  0
ARC
  8
DETAIL
  6
CONTINUOUS
 62
     5
 10
0.0
 20
102.0
 30
0.0
 40
46.899999999999999
 50
270.0
 51
90.0
  0
ARC
  8
DETAIL
  6
CONTINUOUS
 62
     5
 10
0.0
 20
102.0
 30
0.0
 40
52.813999999999993
 50
270.0
 51
90.0
  0
ARC
  8
DETAIL
  6
CONTINUOUS
 62
     5
 10
0.0
 20
102.0
 30
0.0
 40
48.899999999999999
 50
270.0
 51
90.0
  0
ARC
  8
DETAIL
  6
CONTINUOUS
 62
     5
 10
50.000000000000107
 20
60.399600000000078
 30
0.0
 40
15.0
 50
270.0
 51
0.0
  0
LINE
  8
DETAIL
  6
CONTINUOUS
 62
     5
 10
0.0
 20
45.399600000000078
 30
0.0
 11
50.000000000000107
 21
45.399600000000078
 31
0.0
  0
ARC
  8
DETAIL
  6
CONTINUOUS
 62
     5
 10
45.98579200000006
 20
182.97803400000001
 30
0.0
 40
0.9998799999999999
 50
90.0
 51
179.499691999996
  0
LINE
  8
DETAIL
  6
CONTINUOUS
 62
     5
 10
44.985949999999889
 20
182.98676499999999
 30
0.0
 11
44.940063000000123
 21
177.72867000000011
 31
0.0
  0
LINE
  8
DETAIL
  6
CONTINUOUS
 62
     5
 10
47.003009000000127
 20
182.98676499999999
 30
0.0
 11
47.0488959999999
 21
177.72867000000011
 31
0.0
  0
LINE
  8
DETAIL
  6
CONTINUOUS
 62
     5
 10
52.939103000000053
 20
177.72867000000011
 30
0.0
 11
52.984990000000039
 21
182.98676499999999
 31
0.0
  0
LINE
  8
DETAIL
  6
CONTINUOUS
 62
     5
 10
55.002049000000063
 20
182.98676499999999
 30
0.0
 11
55.04793600000005
 21
177.72867000000011
 31
0.0
  0
ARC
  8
DETAIL
  6
CONTINUOUS
 62
     5
 10
53.98483200000021
 20
182.97803500000001
 30
0.0
 40
0.9998799999999999
 50
90.0
 51
179.49972699999839
  0
LINE
  8
DETAIL
  6
CONTINUOUS
 62
     5
 10
55.254791999999838
 20
183.3767180000001
 30
0.0
 11
57.710464999999999
 21
177.72867000000011
 31
0.0
  0
ARC
  8
DETAIL
  6
CONTINUOUS
 62
     5
 10
46.003166999999962
 20
182.97803500000001
 30
0.0
 40
0.9998799999999999
 50
0.5002369999988841
 51
90.0
  0
LINE
  8
DETAIL
  6
CONTINUOUS
 62
     5
 10
45.98579200000006
 20
183.97792000000001
 30
0.0
 11
46.003166999999962
 21
183.97792000000001
 31
0.0
  0
ARC
  8
DETAIL
  6
CONTINUOUS
 62
     5
 10
54.002207000000112
 20
182.97803500000001
 30
0.0
 40
0.9998799999999999
 50
0.5002369999988841
 51
90.0
  0
LINE
  8
DETAIL
  6
CONTINUOUS
 62
     5
 10
54.337832000000049
 20
183.97792000000001
 30
0.0
 11
53.98483200000021
 21
183.97792000000001
 31
0.0
  0
LINE
  8
DETAIL
  6
CONTINUOUS
 62
     5
 10
0.0
 20
0.0
 30
0.0
 11
125.0
 21
0.0
 31
0.0
  0
LINE
  8
DETAIL
  6
CONTINUOUS
 62
     5
 10
49.079622000000093
 20
156.1999999999999
 30
0.0
 11
0.0
 21
156.1999999999999
 31
0.0
  0
ARC
  8
DETAIL
  6
CONTINUOUS
 62
     5
 10
48.000000000000107
 20
139.23431600000001
 30
0.0
 40
17.0
 50
0.0
 51
86.35885500000056
  0
LINE
  8
DETAIL
  6
CONTINUOUS
 62
     5
 10
65.000000000000114
 20
60.399600000000078
 30
0.0
 11
65.000000000000114
 21
139.23431600000001
 31
0.0
  0
LINE
  8
DETAIL
  6
CONTINUOUS
 62
     5
 10
117.0
 20
-20.0
 30
0.0
 11
-117.0
 21
-20.0
 31
0.0
  0
LINE
  8
DETAIL
  6
CONTINUOUS
 62
     5
 10
-49.07962299999997
 20
156.10783599999999
 30
0.0
 11
0.0
 21
156.10783599999999
 31
0.0
  0
ARC
  8
DETAIL
  6
CONTINUOUS
 62
     5
 10
-48.0
 20
139.14215300000001
 30
0.0
 40
17.0
 50
93.64114499999944
 51
180.0
  0
LINE
  8
DETAIL
  6
CONTINUOUS
 62
     5
 10
-65.0
 20
60.387080999999966
 30
0.0
 11
-65.0
 21
139.14215300000001
 31
0.0
  0
LINE
  8
DETAIL
  6
CONTINUOUS
 62
     5
 10
0.0
 20
45.387080999999966
 30
0.0
 11
-50.0
 21
45.387080999999966
 31
0.0
  0
ARC
  8
DETAIL
  6
CONTINUOUS
 62
     5
 10
-50.0
 20
60.387080999999966
 30
0.0
 40
15.0
 50
180.0
 51
270.0
  0
ARC
  8
DETAIL
  6
CONTINUOUS
 62
     5
 10
-79.04275999999993
 20
167.72987000000001
 30
0.0
 40
4.9993999999999996
 50
95.137772999998916
 51
178.99488699999921
  0
LINE
  8
DETAIL
  6
CONTINUOUS
 62
     5
 10
-79.430722999999944
 20
172.69964999999999
 30
0.0
 11
-79.456760999999915
 21
172.70357000000001
 31
0.0
  0
LINE
  8
DETAIL
  6
CONTINUOUS
 62
     5
 10
-79.398380999999972
 20
172.69503399999999
 30
0.0
 11
-79.430722999999944
 21
172.69964999999999
 31
0.0
  0
LINE
  8
DETAIL
  6
CONTINUOUS
 62
     5
 10
-79.360175000000027
 20
172.69000399999999
 30
0.0
 11
-79.398380999999972
 21
172.69503399999999
 31
0.0
  0
LINE
  8
DETAIL
  6
CONTINUOUS
 62
     5
 10
-79.316719999999918
 20
172.68481800000009
 30
0.0
 11
-79.360175000000027
 21
172.69000399999999
 31
0.0
  0
LINE
  8
DETAIL
  6
CONTINUOUS
 62
     5
 10
-79.268508999999995
 20
172.6797369999999
 30
0.0
 11
-79.316719999999918
 21
172.68481800000009
 31
0.0
  0
LINE
  8
DETAIL
  6
CONTINUOUS
 62
     5
 10
-79.215835999999967
 20
172.67502400000001
 30
0.0
 11
-79.268508999999995
 21
172.6797369999999
 31
0.0
  0
LINE
  8
DETAIL
  6
CONTINUOUS
 62
     5
 10
-79.159902999999872
 20
172.67092600000001
 30
0.0
 11
-79.215835999999967
 21
172.67502400000001
 31
0.0
  0
LINE
  8
DETAIL
  6
CONTINUOUS
 62
     5
 10
-79.10195699999997
 20
172.66781900000001
 30
0.0
 11
-79.159902999999872
 21
172.67092600000001
 31
0.0
  0
LINE
  8
DETAIL
  6
CONTINUOUS
 62
     5
 10
-79.04275999999993
 20
172.66557599999999
 30
0.0
 11
-79.10195699999997
 21
172.66781900000001
 31
0.0
  0
LINE
  8
DETAIL
  6
CONTINUOUS
 62
     5
 10
-79.029737999999952
 20
172.66527000000011
 30
0.0
 11
-79.04275999999993
 21
172.66558000000001
 31
0.0
  0
LINE
  8
DETAIL
  6
CONTINUOUS
 62
     5
 10
-79.016691000000037
 20
172.6650480000001
 30
0.0
 11
-79.029737999999952
 21
172.66527000000011
 31
0.0
  0
LINE
  8
DETAIL
  6
CONTINUOUS
 62
     5
 10
-79.003618999999958
 20
172.66491500000009
 30
0.0
 11
-79.016691000000037
 21
172.6650480000001
 31
0.0
  0
LINE
  8
DETAIL
  6
CONTINUOUS
 62
     5
 10
-78.490580000000023
 20
172.66487000000009
 30
0.0
 11
-79.003618999999958
 21
172.66491500000009
 31
0.0
  0
LINE
  8
DETAIL
  6
CONTINUOUS
 62
     5
 10
-78.435449999999946
 20
172.665708
 30
0.0
 11
-78.490580000000023
 21
172.66487000000009
 31
0.0
  0
LINE
  8
DETAIL
  6
CONTINUOUS
 62
     5
 10
-78.3803979999999
 20
172.66802600000011
 30
0.0
 11
-78.435449999999946
 21
172.665708
 31
0.0
  0
LINE
  8
DETAIL
  6
CONTINUOUS
 62
     5
 10
-78.325941999999941
 20
172.67195000000001
 30
0.0
 11
-78.3803979999999
 21
172.66802600000011
 31
0.0
  0
LINE
  8
DETAIL
  6
CONTINUOUS
 62
     5
 10
-78.273441000000048
 20
172.67710100000011
 30
0.0
 11
-78.325941999999941
 21
172.67195000000001
 31
0.0
  0
LINE
  8
DETAIL
  6
CONTINUOUS
 62
     5
 10
-78.22413599999993
 20
172.68327000000011
 30
0.0
 11
-78.273441000000048
 21
172.67710100000011
 31
0.0
  0
LINE
  8
DETAIL
  6
CONTINUOUS
 62
     5
 10
-78.178430999999932
 20
172.69007500000009
 30
0.0
 11
-78.22413599999993
 21
172.68327000000011
 31
0.0
  0
LINE
  8
DETAIL
  6
CONTINUOUS
 62
     5
 10
-78.136949999999956
 20
172.697169
 30
0.0
 11
-78.178430999999932
 21
172.69007500000009
 31
0.0
  0
LINE
  8
DETAIL
  6
CONTINUOUS
 62
     5
 10
-78.099879999999985
 20
172.70424299999999
 30
0.0
 11
-78.136949999999956
 21
172.697169
 31
0.0
  0
LINE
  8
DETAIL
  6
CONTINUOUS
 62
     5
 10
-78.067485999999917
 20
172.7109770000001
 30
0.0
 11
-78.099879999999985
 21
172.70424299999999
 31
0.0
  0
LINE
  8
DETAIL
  6
CONTINUOUS
 62
     5
 10
-78.040267999999969
 20
172.7170620000002
 30
0.0
 11
-78.067485999999917
 21
172.7109770000001
 31
0.0
  0
LINE
  8
DETAIL
  6
CONTINUOUS
 62
     5
 10
-78.018539999999916
 20
172.72214900000009
 30
0.0
 11
-78.040267999999969
 21
172.7170620000002
 31
0.0
  0
LINE
  8
DETAIL
  6
CONTINUOUS
 62
     5
 10
-77.993689999999901
 20
172.72837000000001
 30
0.0
 11
-78.018539999999916
 21
172.72214900000009
 31
0.0
  0
LINE
  8
DETAIL
  6
CONTINUOUS
 62
     5
 10
-79.486758000000009
 20
172.708437
 30
0.0
 11
-79.490459999999985
 21
172.70917300000011
 31
0.0
  0
LINE
  8
DETAIL
  6
CONTINUOUS
 62
     5
 10
-79.456760999999915
 20
172.70357000000001
 30
0.0
 11
-79.486758000000009
 21
172.708437
 31
0.0
  0
LINE
  8
DETAIL
  6
CONTINUOUS
 62
     5
 10
-84.083641000000057
 20
166.4800200000002
 30
0.0
 11
-84.064890999999989
 21
166.4800200000002
 31
0.0
  0
LINE
  8
DETAIL
  6
CONTINUOUS
 62
     5
 10
-86.989868999999885
 20
0.0
 30
0.0
 11
-84.041387999999984
 21
167.81769300000019
 31
0.0
  0
LINE
  8
DETAIL
  6
CONTINUOUS
 62
     5
 10
-77.990639999999985
 20
172.72926699999991
 30
0.0
 11
-77.993689999999901
 21
172.72837000000001
 31
0.0
  0
LINE
  8
DETAIL
  6
CONTINUOUS
 62
     5
 10
0.0
 20
172.72927000000001
 30
0.0
 11
-77.990639999999985
 21
172.72927000000001
 31
0.0
  0
ARC
  8
DETAIL
  6
CONTINUOUS
 62
     5
 10
-54.337833000000053
 20
182.97804000000011
 30
0.0
 40
0.9998799999999999
 50
90.0
 51
156.5014339999955
  0
ARC
  8
DETAIL
  6
CONTINUOUS
 62
     5
 10
-61.11266599999999
 20
176.8487749999999
 30
0.0
 40
0.8798940000000001
 50
90.0
 51
180.0
  0
LINE
  8
DETAIL
  6
CONTINUOUS
 62
     5
 10
-61.11266599999999
 20
177.72867000000011
 30
0.0
 11
0.0
 21
177.72867000000011
 31
0.0
  0
LINE
  8
DETAIL
  6
CONTINUOUS
 62
     5
 10
-61.992559999999912
 20
172.72927000000001
 30
0.0
 11
-61.992559999999912
 21
176.8487749999999
 31
0.0
  0
LINE
  8
DETAIL
  6
CONTINUOUS
 62
     5
 10
35.946823999999992
 20
180.0
 30
0.0
 11
-15.947501999999989
 21
180.0
 31
0.0
  0
ARC
  8
DETAIL
  6
CONTINUOUS
 62
     5
 10
-15.947501999999989
 20
174.5
 30
0.0
 40
5.5
 50
90.0
 51
144.053406
  0
ARC
  8
DETAIL
  6
CONTINUOUS
 62
     5
 10
0.0
 20
102.0
 30
0.0
 40
46.899999999999999
 50
90.0
 51
270.0
  0
ARC
  8
DETAIL
  6
CONTINUOUS
 62
     5
 10
0.0
 20
102.0
 30
0.0
 40
52.813999999999993
 50
90.0
 51
270.0
  0
ARC
  8
DETAIL
  6
CONTINUOUS
 62
     5
 10
0.0
 20
102.0
 30
0.0
 40
48.899999999999999
 50
90.0
 51
270.0
  0
ARC
  8
DETAIL
  6
CONTINUOUS
 62
     5
 10
-50.0
 20
60.399600000000078
 30
0.0
 40
15.0
 50
180.0
 51
270.0
  0
LINE
  8
DETAIL
  6
CONTINUOUS
 62
     5
 10
0.0
 20
45.399600000000078
 30
0.0
 11
-50.0
 21
45.399600000000078
 31
0.0
  0
ARC
  8
DETAIL
  6
CONTINUOUS
 62
     5
 10
-45.985792999999937
 20
182.97803400000001
 30
0.0
 40
0.9998799999999999
 50
0.5003080000040122
 51
90.0
  0
LINE
  8
DETAIL
  6
CONTINUOUS
 62
     5
 10
-44.985951
 20
182.98676499999999
 30
0.0
 11
-44.940064000000007
 21
177.72867000000011
 31
0.0
  0
LINE
  8
DETAIL
  6
CONTINUOUS
 62
     5
 10
-47.003009999999897
 20
182.98676499999999
 30
0.0
 11
-47.048897000000011
 21
177.72867000000011
 31
0.0
  0
LINE
  8
DETAIL
  6
CONTINUOUS
 62
     5
 10
-52.939104000000043
 20
177.72867000000011
 30
0.0
 11
-52.984991000000043
 21
182.98676499999999
 31
0.0
  0
LINE
  8
DETAIL
  6
CONTINUOUS
 62
     5
 10
-55.00204999999994
 20
182.98676499999999
 30
0.0
 11
-55.047937000000047
 21
177.72867000000011
 31
0.0
  0
ARC
  8
DETAIL
  6
CONTINUOUS
 62
     5
 10
-53.984832999999981
 20
182.97803500000001
 30
0.0
 40
0.9998799999999999
 50
0.5002730000015718
 51
90.0
  0
LINE
  8
DETAIL
  6
CONTINUOUS
 62
     5
 10
-55.25479299999995
 20
183.3767180000001
 30
0.0
 11
-57.710465999999997
 21
177.72867000000011
 31
0.0
  0
ARC
  8
DETAIL
  6
CONTINUOUS
 62
     5
 10
-46.00316799999996
 20
182.97803500000001
 30
0.0
 40
0.9998799999999999
 50
90.0
 51
179.49976300000111
  0
LINE
  8
DETAIL
  6
CONTINUOUS
 62
     5
 10
-45.985792999999937
 20
183.97792000000001
 30
0.0
 11
-46.00316799999996
 21
183.97792000000001
 31
0.0
  0
ARC
  8
DETAIL
  6
CONTINUOUS
 62
     5
 10
-54.002208000000003
 20
182.97803500000001
 30
0.0
 40
0.9998799999999999
 50
90.0
 51
179.49976300000111
  0
LINE
  8
DETAIL
  6
CONTINUOUS
 62
     5
 10
-54.337833000000053
 20
183.97792000000001
 30
0.0
 11
-53.984832999999981
 21
183.97792000000001
 31
0.0
  0
LINE
  8
DETAIL
  6
CONTINUOUS
 62
     5
 10
0.0
 20
0.0
 30
0.0
 11
-125.0
 21
0.0
 31
0.0
  0
LINE
  8
DETAIL
  6
CONTINUOUS
 62
     5
 10
-49.07962299999997
 20
156.1999999999999
 30
0.0
 11
0.0
 21
156.1999999999999
 31
0.0
  0
ARC
  8
DETAIL
  6
CONTINUOUS
 62
     5
 10
-48.0
 20
139.23431600000001
 30
0.0
 40
17.0
 50
93.64114499999944
 51
180.0
  0
LINE
  8
DETAIL
  6
CONTINUOUS
 62
     5
 10
-65.0
 20
60.399600000000078
 30
0.0
 11
-65.0
 21
139.23431600000001
 31
0.0
  0
LINE
  8
SIZE
  6
CONTINUOUS
 62
    30
 10
144.47310899999999
 20
0.0
 30
0.0
 11
357.21594481203238
 21
-0.0000000000000568
 31
0.0
  0
LINE
  8
SIZE
  6
CONTINUOUS
 62
    30
 10
70.000000000000114
 20
45.387080999999966
 30
0.0
 11
357.21594481203238
 21
45.38708099999991
 31
0.0
  0
LINE
  8
SIZE
  6
CONTINUOUS
 62
    30
 10
337.21594481203238
 20
57.38708099999991
 30
0.0
 11
337.21594481203238
 21
69.38708099999991
 31
0.0
  0
LINE
  8
SIZE
  6
CONTINUOUS
 62
    30
 10
337.21594481203238
 20
-12.00000000000006
 30
0.0
 11
337.21594481203238
 21
-170.7994615804752
 31
0.0
  0
LINE
  8
SIZE
  6
CONTINUOUS
 62
    30
 10
337.21594481203238
 20
45.38708099999991
 30
0.0
 11
337.21594481203238
 21
-0.0000000000000568
 31
0.0
  0
CIRCLE
  8
SIZE
  6
CONTINUOUS
 62
    30
 10
337.21594481203238
 20
45.38708099999991
 30
0.0
 40
6.0
  0
LINE
  8
SIZE
  6
CONTINUOUS
 62
    30
 10
337.21594481203238
 20
45.38708099999991
 30
0.0
 11
337.21594481203238
 21
57.38708099999991
 31
0.0
  0
CIRCLE
  8
SIZE
  6
CONTINUOUS
 62
    30
 10
337.21594481203238
 20
-0.0000000000000568
 30
0.0
 40
6.0
  0
LINE
  8
SIZE
  6
CONTINUOUS
 62
    30
 10
337.21594481203238
 20
-0.0000000000000568
 30
0.0
 11
337.21594481203238
 21
-12.00000000000006
 31
0.0
  0
TEXT
  8
SIZE
  6
CONTINUOUS
 62
    30
 10
312.21594481203238
 20
-145.79946158047511
 30
0.0
 40
64.0
  1
45
 50
90.0
 41
0.9
 72
     1
 11
312.21594481203238
 21
-99.170890151903677
 31
0.0
  0
POINT
  8
DEFPOINTS
  6
CONTINUOUS
 62
    30
 10
124.47310899999999
 20
0.0
 30
0.0
  0
POINT
  8
DEFPOINTS
  6
CONTINUOUS
 62
    30
 10
50.000000000000107
 20
45.387080999999966
 30
0.0
  0
POINT
  8
DEFPOINTS
  6
CONTINUOUS
 62
    30
 10
337.21594481203238
 20
45.38708099999991
 30
0.0
  0
LINE
  8
DETAIL
  6
CONTINUOUS
 62
     5
 10
-125.0
 20
0.0
 30
0.0
 11
-125.0
 21
-12.27462600000001
 31
0.0
  0
LINE
  8
DETAIL
  6
CONTINUOUS
 62
     5
 10
-125.0
 20
-12.27462600000001
 30
0.0
 11
-117.0
 21
-20.0
 31
0.0
  0
LINE
  8
DETAIL
  6
CONTINUOUS
 62
     5
 10
-125.0
 20
-12.27462600000001
 30
0.0
 11
125.0
 21
-12.27462600000001
 31
0.0
  0
LINE
  8
DETAIL
  6
CONTINUOUS
 62
     5
 10
125.0
 20
0.0
 30
0.0
 11
125.0
 21
-12.27462600000001
 31
0.0
  0
LINE
  8
DETAIL
  6
CONTINUOUS
 62
     5
 10
125.0
 20
-12.27462600000001
 30
0.0
 11
117.0
 21
-20.0
 31
0.0
  0
LINE
  8
OUTLINE
  6
CONTINUOUS
 62
     3
 10
117.0
 20
-20.0
 30
0.0
 11
-117.0
 21
-20.0
 31
0.0
  0
LINE
  8
OUTLINE
  6
CONTINUOUS
 62
     3
 10
-125.0
 20
0.0
 30
0.0
 11
-125.0
 21
-12.27462600000001
 31
0.0
  0
LINE
  8
OUTLINE
  6
CONTINUOUS
 62
     3
 10
-125.0
 20
-12.27462600000001
 30
0.0
 11
-117.0
 21
-20.0
 31
0.0
  0
LINE
  8
OUTLINE
  6
CONTINUOUS
 62
     3
 10
125.0
 20
0.0
 30
0.0
 11
125.0
 21
-12.27462600000001
 31
0.0
  0
LINE
  8
OUTLINE
  6
CONTINUOUS
 62
     3
 10
125.0
 20
-12.27462600000001
 30
0.0
 11
117.0
 21
-20.0
 31
0.0
  0
LINE
  8
SIZE
  6
CONTINUOUS
 62
    30
 10
137.0
 20
-20.0
 30
0.0
 11
249.22422626648091
 21
-20.00000000000006
 31
0.0
  0
LINE
  8
SIZE
  6
CONTINUOUS
 62
    30
 10
145.0
 20
0.0
 30
0.0
 11
249.22422626648091
 21
-0.0000000000000568
 31
0.0
  0
LINE
  8
SIZE
  6
CONTINUOUS
 62
    30
 10
229.22422626648091
 20
11.99999999999994
 30
0.0
 11
229.22422626648091
 21
23.99999999999994
 31
0.0
  0
LINE
  8
SIZE
  6
CONTINUOUS
 62
    30
 10
229.22422626648091
 20
-32.000000000000057
 30
0.0
 11
229.22422626648091
 21
-187.2571428571429
 31
0.0
  0
LINE
  8
SIZE
  6
CONTINUOUS
 62
    30
 10
229.22422626648091
 20
-0.0000000000000568
 30
0.0
 11
229.22422626648091
 21
-20.0
 31
0.0
  0
CIRCLE
  8
SIZE
  6
CONTINUOUS
 62
    30
 10
229.22422626648091
 20
-0.0000000000000568
 30
0.0
 40
6.0
  0
LINE
  8
SIZE
  6
CONTINUOUS
 62
    30
 10
229.22422626648091
 20
-0.0000000000000568
 30
0.0
 11
229.22422626648091
 21
11.99999999999994
 31
0.0
  0
CIRCLE
  8
SIZE
  6
CONTINUOUS
 62
    30
 10
229.22422626648091
 20
-20.0
 30
0.0
 40
6.0
  0
LINE
  8
SIZE
  6
CONTINUOUS
 62
    30
 10
229.22422626648091
 20
-20.0
 30
0.0
 11
229.22422626648091
 21
-32.000000000000057
 31
0.0
  0
TEXT
  8
SIZE
  6
CONTINUOUS
 62
    30
 10
204.22422626648091
 20
-162.2571428571429
 30
0.0
 40
64.0
  1
20
 50
90.0
 41
0.9
 72
     1
 11
204.22422626648091
 21
-115.62857142857141
 31
0.0
  0
POINT
  8
DEFPOINTS
  6
CONTINUOUS
 62
    30
 10
117.0
 20
-20.0
 30
0.0
  0
POINT
  8
DEFPOINTS
  6
CONTINUOUS
 62
    30
 10
125.0
 20
0.0
 30
0.0
  0
POINT
  8
DEFPOINTS
  6
CONTINUOUS
 62
    30
 10
229.22422626648091
 20
-0.0000000000000568
 30
0.0
  0
ARC
  8
OUTLINE
  6
CONTINUOUS
 62
     3
 10
35.946823999999992
 20
174.5
 30
0.0
 40
5.5
 50
35.946594000000047
 51
90.0
  0
LINE
  8
OUTLINE
  6
CONTINUOUS
 62
     3
 10
35.946823999999992
 20
180.0
 30
0.0
 11
-15.947501999999989
 21
180.0
 31
0.0
  0
ARC
  8
OUTLINE
  6
CONTINUOUS
 62
     3
 10
-15.947501999999989
 20
174.5
 30
0.0
 40
5.5
 50
90.0
 51
144.053406
  0
LINE
  8
DETAIL
  6
CONTINUOUS
 62
     5
 10
-3.6623099799504639
 20
180.64326600684171
 30
0.0
 11
-3.6070347720972218
 21
180.86165092707881
 31
0.0
  0
LINE
  8
DETAIL
  6
CONTINUOUS
 62
     5
 10
-3.6070347720972218
 20
180.86165092707881
 30
0.0
 11
-3.5036964905845021
 21
181.19150582349491
 31
0.0
  0
LINE
  8
DETAIL
  6
CONTINUOUS
 62
     5
 10
-3.5036964905845021
 20
181.19150582349491
 30
0.0
 11
-3.3784063758712359
 21
181.51318090870939
 31
0.0
  0
LINE
  8
DETAIL
  6
CONTINUOUS
 62
     5
 10
-3.3784063758712359
 20
181.51318090870939
 30
0.0
 11
-3.2316455933266748
 21
181.8253396122648
 31
0.0
  0
LINE
  8
DETAIL
  6
CONTINUOUS
 62
     5
 10
-3.2316455933266748
 20
181.8253396122648
 30
0.0
 11
-3.063922039720183
 21
182.12662397857511
 31
0.0
  0
LINE
  8
DETAIL
  6
CONTINUOUS
 62
     5
 10
-3.063922039720183
 20
182.12662397857511
 30
0.0
 11
-2.8758986540019582
 21
182.4156225892375
 31
0.0
  0
LINE
  8
DETAIL
  6
CONTINUOUS
 62
     5
 10
-2.8758986540019582
 20
182.4156225892375
 30
0.0
 11
-2.6682918379358398
 21
182.69094006469459
 31
0.0
  0
LINE
  8
DETAIL
  6
CONTINUOUS
 62
     5
 10
-2.6682918379358398
 20
182.69094006469459
 30
0.0
 11
-2.4419142263618601
 21
182.9512879510244
 31
0.0
  0
LINE
  8
DETAIL
  6
CONTINUOUS
 62
     5
 10
-2.4419142263618601
 20
182.9512879510244
 30
0.0
 11
-2.197642609497279
 21
183.19539383315109
 31
0.0
  0
LINE
  8
DETAIL
  6
CONTINUOUS
 62
     5
 10
-2.197642609497279
 20
183.19539383315109
 30
0.0
 11
-1.936444664357396
 21
183.42207618279031
 31
0.0
  0
LINE
  8
DETAIL
  6
CONTINUOUS
 62
     5
 10
-1.659346877049757
 20
183.6302015881937
 30
0.0
 11
-1.3674986981720849
 21
183.81871683184039
 31
0.0
  0
LINE
  8
DETAIL
  6
CONTINUOUS
 62
     5
 10
-1.3674986981720849
 20
183.81871683184039
 30
0.0
 11
-1.062103041133696
 21
183.9866221590286
 31
0.0
  0
LINE
  8
DETAIL
  6
CONTINUOUS
 62
     5
 10
-1.062103041133696
 20
183.9866221590286
 30
0.0
 11
-0.7444323210107768
 21
184.13303543325529
 31
0.0
  0
LINE
  8
DETAIL
  6
CONTINUOUS
 62
     5
 10
-0.7444323210107768
 20
184.13303543325529
 30
0.0
 11
-0.4158231082602697
 21
184.25714936596489
 31
0.0
  0
LINE
  8
DETAIL
  6
CONTINUOUS
 62
     5
 10
-0.4158231082602697
 20
184.25714936596489
 30
0.0
 11
-0.0776921675692392
 21
184.3582529016733
 31
0.0
  0
LINE
  8
DETAIL
  6
CONTINUOUS
 62
     5
 10
-0.0776921675692392
 20
184.3582529016733
 30
0.0
 11
0.2684956198401096
 21
184.43570983284209
 31
0.0
  0
LINE
  8
DETAIL
  6
CONTINUOUS
 62
     5
 10
0.2684956198401096
 20
184.43570983284209
 30
0.0
 11
0.6213609132570355
 21
184.48901226269851
 31
0.0
  0
LINE
  8
DETAIL
  6
CONTINUOUS
 62
     5
 10
0.6213609132570355
 20
184.48901226269851
 30
0.0
 11
0.9794922942782023
 21
184.51768971844049
 31
0.0
  0
LINE
  8
DETAIL
  6
CONTINUOUS
 62
     5
 10
0.9794922942782023
 20
184.51768971844049
 30
0.0
 11
1.2128307647959671
 21
184.52294511348029
 31
0.0
  0
LINE
  8
DETAIL
  6
CONTINUOUS
 62
     5
 10
22.38698311563121
 20
184.52295045976231
 30
0.0
 11
22.401466193111901
 21
184.5187055119882
 31
0.0
  0
LINE
  8
DETAIL
  6
CONTINUOUS
 62
     5
 10
22.38698311563121
 20
184.52294511348029
 30
0.0
 11
22.630960686993379
 21
184.51719786051191
 31
0.0
  0
LINE
  8
DETAIL
  6
CONTINUOUS
 62
     5
 10
22.630960686993379
 20
184.51719786051191
 30
0.0
 11
22.989054644041289
 21
184.48777727159541
 31
0.0
  0
LINE
  8
DETAIL
  6
CONTINUOUS
 62
     5
 10
22.989054644041289
 20
184.48777727159541
 30
0.0
 11
23.341813011822179
 21
184.4337317085643
 31
0.0
  0
LINE
  8
DETAIL
  6
CONTINUOUS
 62
     5
 10
23.341813011822179
 20
184.4337317085643
 30
0.0
 11
23.687840410778449
 21
184.35554233678479
 31
0.0
  0
LINE
  8
DETAIL
  6
CONTINUOUS
 62
     5
 10
23.687840410778449
 20
184.35554233678479
 30
0.0
 11
24.025746807631212
 21
184.25371705302931
 31
0.0
  0
LINE
  8
DETAIL
  6
CONTINUOUS
 62
     5
 10
24.025746807631212
 20
184.25371705302931
 30
0.0
 11
24.354072667443919
 21
184.1289081036816
 31
0.0
  0
LINE
  8
DETAIL
  6
CONTINUOUS
 62
     5
 10
24.354072667443919
 20
184.1289081036816
 30
0.0
 11
24.671411918092641
 21
183.9818158516623
 31
0.0
  0
LINE
  8
DETAIL
  6
CONTINUOUS
 62
     5
 10
24.671411918092641
 20
183.9818158516623
 30
0.0
 11
24.976438681685181
 21
183.81325293180919
 31
0.0
  0
LINE
  8
DETAIL
  6
CONTINUOUS
 62
     5
 10
24.976438681685181
 20
183.81325293180919
 30
0.0
 11
25.26786985058197
 21
183.624112173188
 31
0.0
  0
LINE
  8
DETAIL
  6
CONTINUOUS
 62
     5
 10
25.26786985058197
 20
183.624112173188
 30
0.0
 11
25.544518550213301
 21
183.41538798421959
 31
0.0
  0
LINE
  8
DETAIL
  6
CONTINUOUS
 62
     5
 10
25.544518550213301
 20
183.41538798421959
 30
0.0
 11
25.80523532999041
 21
183.1881282361426
 31
0.0
  0
LINE
  8
DETAIL
  6
CONTINUOUS
 62
     5
 10
25.80523532999041
 20
183.1881282361426
 30
0.0
 11
26.04899370379837
 21
182.94347703326901
 31
0.0
  0
LINE
  8
DETAIL
  6
CONTINUOUS
 62
     5
 10
26.04899370379837
 20
182.94347703326901
 30
0.0
 11
26.27483134090858
 21
182.68262125016511
 31
0.0
  0
LINE
  8
DETAIL
  6
CONTINUOUS
 62
     5
 10
22.386977769350441
 20
184.52295045976231
 30
0.0
 11
1.2128361110783319
 21
184.52295045976231
 31
0.0
  0
LINE
  8
DETAIL
  6
CONTINUOUS
 62
     5
 10
27.262123860377532
 20
180.64326600684171
 30
0.0
 11
27.40880779807992
 21
180.0
 31
0.0
  0
LINE
  8
DETAIL
  6
CONTINUOUS
 62
     5
 10
26.27483134090858
 20
182.68262125016511
 30
0.0
 11
26.481860758536069
 21
182.4068279556252
 31
0.0
  0
LINE
  8
DETAIL
  6
CONTINUOUS
 62
     5
 10
26.481860758536069
 20
182.4068279556252
 30
0.0
 11
26.66928001440704
 21
182.1173962961345
 31
0.0
  0
LINE
  8
DETAIL
  6
CONTINUOUS
 62
     5
 10
26.66928001440704
 20
182.1173962961345
 30
0.0
 11
26.836372706756041
 21
181.81572699753201
 31
0.0
  0
LINE
  8
DETAIL
  6
CONTINUOUS
 62
     5
 10
26.836372706756041
 20
181.81572699753201
 30
0.0
 11
26.982481242918539
 21
181.50322613193981
 31
0.0
  0
LINE
  8
DETAIL
  6
CONTINUOUS
 62
     5
 10
26.982481242918539
 20
181.50322613193981
 30
0.0
 11
27.107092379839401
 21
181.18126234750659
 31
0.0
  0
LINE
  8
DETAIL
  6
CONTINUOUS
 62
     5
 10
27.107092379839401
 20
181.18126234750659
 30
0.0
 11
27.209735644714439
 21
180.85117221468991
 31
0.0
  0
LINE
  8
DETAIL
  6
CONTINUOUS
 62
     5
 10
27.209735644714439
 20
180.85117221468991
 30
0.0
 11
27.262123860377532
 21
180.64326600684171
 31
0.0
  0
LINE
  8
DETAIL
  6
CONTINUOUS
 62
     5
 10
-1.659346877049757
 20
183.6302015881937
 30
0.0
 11
-1.936444664357396
 21
183.42207618279031
 31
0.0
  0
LINE
  8
DETAIL
  6
CONTINUOUS
 62
     5
 10
-3.8092656484736271
 20
180.0
 30
0.0
 11
-3.6623153262312371
 21
180.64326600684171
 31
0.0
  0
TEXT
  8
ETC
  6
CONTINUOUS
 62
    61
 10
658.30817007559699
 20
570.93622502008475
 30
0.0
 40
64.0
  1
VD-10ZAVC6_2
 41
0.9
  0
TEXT
  8
ETC
  6
CONTINUOUS
 62
    61
 10
654.1221760755966
 20
452.98091500525362
 30
0.0
 40
64.0
  1
換気扇
 41
0.9
  0
TEXT
  8
ETC
  6
CONTINUOUS
 62
    61
 10
704.82357432415256
 20
344.83214211902828
 30
0.0
 40
40.0
  1
VD-10ZAVC6
 41
0.9
  0
TEXT
  8
ETC
  6
CONTINUOUS
 62
    61
 10
704.82357432415256
 20
278.83214211902828
 30
0.0
 40
40.0
  1
VD-10ZALC13
 41
0.9
  0
TEXT
  8
NOTE
  6
CONTINUOUS
 62
     4
 10
380.52595390458652
 20
295.69681298542389
 30
0.0
 40
63.999999999999993
  1
8-φ5
 41
0.9
  0
LINE
  8
NOTE
  6
CONTINUOUS
 62
     4
 10
666.20267020630399
 20
264.81163646598571
 30
0.0
 11
333.78356663422568
 21
264.81163669700902
 31
0.0
  0
ENDSEC
  0
EOF
