  0
SECTION
  2
HEADER
  9
$ACADVER
  1
AC1009
  9
$DWGCODEPAGE
  3
dos932
  9
$INSBASE
 10
0.0
 20
0.0
 30
0.0
  9
$EXTMIN
 10
-666.63664120323665
 20
-429.0618779243232
 30
-0.0015258207003583
  9
$EXTMAX
 10
1021.481334803952
 20
488.6627276296058
 30
0.0000000349246037
  9
$LIMMIN
 10
-2970.0
 20
-2100.0
  9
$LIMMAX
 10
2970.0
 20
2100.0
  9
$ORTHOMODE
 70
     1
  9
$REGENMODE
 70
     1
  9
$FILLMODE
 70
     1
  9
$QTEXTMODE
 70
     0
  9
$MIRRTEXT
 70
     0
  9
$LTSCALE
 40
20.0
  9
$ATTMODE
 70
     1
  9
$TEXTSIZE
 40
64.0
  9
$TRACEWID
 40
0.05
  9
$TEXTSTYLE
  7
STANDARD
  9
$CLAYER
  8
SIZE
  9
$CELTYPE
  6
CONTINUOUS
  9
$CECOLOR
 62
     7
  9
$DIMSCALE
 40
1.0
  9
$DIMASZ
 40
12.0
  9
$DIMEXO
 40
20.0
  9
$DIMDLI
 40
200.0
  9
$DIMRND
 40
0.0
  9
$DIMDLE
 40
0.0
  9
$DIMEXE
 40
20.0
  9
$DIMTP
 40
0.0
  9
$DIMTM
 40
0.0
  9
$DIMTXT
 40
64.0
  9
$DIMCEN
 40
0.09
  9
$DIMTSZ
 40
0.0
  9
$DIMTOL
 70
     0
  9
$DIMLIM
 70
     0
  9
$DIMTIH
 70
     0
  9
$DIMTOH
 70
     0
  9
$DIMSE1
 70
     0
  9
$DIMSE2
 70
     0
  9
$DIMTAD
 70
     1
  9
$DIMZIN
 70
     8
  9
$DIMBLK
  1

  9
$DIMASO
 70
     1
  9
$DIMSHO
 70
     0
  9
$DIMPOST
  1

  9
$DIMAPOST
  1

  9
$DIMALT
 70
     0
  9
$DIMALTD
 70
     2
  9
$DIMALTF
 40
25.399999999999999
  9
$DIMLFAC
 40
1.0
  9
$DIMTOFL
 70
     1
  9
$DIMTVP
 40
0.0
  9
$DIMTIX
 70
     1
  9
$DIMSOXD
 70
     0
  9
$DIMSAH
 70
     0
  9
$DIMBLK1
  1

  9
$DIMBLK2
  1

  9
$DIMSTYLE
  2
STANDARD
  9
$DIMCLRD
 70
     7
  9
$DIMCLRE
 70
     7
  9
$DIMCLRT
 70
     7
  9
$DIMTFAC
 40
1.0
  9
$DIMGAP
 40
25.0
  9
$LUNITS
 70
     2
  9
$LUPREC
 70
     4
  9
$SKETCHINC
 40
0.1
  9
$FILLETRAD
 40
3.0
  9
$AUNITS
 70
     1
  9
$AUPREC
 70
     3
  9
$MENU
  1
ACAD
  9
$ELEVATION
 40
0.0
  9
$PELEVATION
 40
0.0
  9
$THICKNESS
 40
0.0
  9
$LIMCHECK
 70
     0
  9
$CHAMFERA
 40
0.0
  9
$CHAMFERB
 40
0.0
  9
$SKPOLY
 70
     0
  9
$TDCREATE
 40
2453019.62301037
  9
$TDUPDATE
 40
2459025.48416059
  9
$TDINDWG
 40
1.7141710764
  9
$TDUSRTIMER
 40
1.7141710764
  9
$USRTIMER
 70
     1
  9
$ANGBASE
 50
0.0
  9
$ANGDIR
 70
     0
  9
$PDMODE
 70
     3
  9
$PDSIZE
 40
-2.0
  9
$PLINEWID
 40
0.0
  9
$SPLFRAME
 70
     0
  9
$SPLINETYPE
 70
     6
  9
$SPLINESEGS
 70
     8
  9
$SURFTAB1
 70
     6
  9
$SURFTAB2
 70
     6
  9
$SURFTYPE
 70
     6
  9
$SURFU
 70
     6
  9
$SURFV
 70
     6
  9
$UCSNAME
  2

  9
$UCSORG
 10
0.0
 20
0.0
 30
0.0
  9
$UCSXDIR
 10
1.0
 20
0.0
 30
0.0
  9
$UCSYDIR
 10
0.0
 20
1.0
 30
0.0
  9
$PUCSNAME
  2

  9
$PUCSORG
 10
0.0
 20
0.0
 30
0.0
  9
$PUCSXDIR
 10
1.0
 20
0.0
 30
0.0
  9
$PUCSYDIR
 10
0.0
 20
1.0
 30
0.0
  9
$USERI1
 70
     0
  9
$USERI2
 70
     0
  9
$USERI3
 70
     0
  9
$USERI4
 70
     0
  9
$USERI5
 70
     0
  9
$USERR1
 40
20.0
  9
$USERR2
 40
0.0
  9
$USERR3
 40
0.0
  9
$USERR4
 40
0.0
  9
$USERR5
 40
0.0
  9
$WORLDVIEW
 70
     1
  9
$SHADEDGE
 70
     3
  9
$SHADEDIF
 70
    70
  9
$TILEMODE
 70
     1
  9
$MAXACTVP
 70
    48
  9
$PINSBASE
 10
0.0
 20
0.0
 30
0.0
  9
$PLIMCHECK
 70
     0
  9
$PEXTMIN
 10
-100000000000000000000.0
 20
-100000000000000000000.0
 30
-100000000000000000000.0
  9
$PEXTMAX
 10
100000000000000000000.0
 20
100000000000000000000.0
 30
100000000000000000000.0
  9
$PLIMMIN
 10
0.0
 20
0.0
  9
$PLIMMAX
 10
12.0
 20
9.0
  9
$UNITMODE
 70
     0
  9
$VISRETAIN
 70
     0
  9
$PLINEGEN
 70
     0
  9
$PSLTSCALE
 70
     0
  9
$TREEDEPTH
 70
  3020
  9
$ATTDIA
 70
     0
  9
$ATTREQ
 70
     1
  9
$BLIPMODE
 70
     1
  9
$COORDS
 70
     1
  9
$DRAGMODE
 70
     2
  9
$OSMODE
 70
     0
  9
$HANDLING
 70
     0
  9
$HANDSEED
  5
F5C0
  0
ENDSEC
  0
SECTION
  2
TABLES
  0
TABLE
  2
LTYPE
 70
     3
  0
LTYPE
  2
CONTINUOUS
 70
     0
  3
実線
 72
    65
 73
     0
 40
0.0
  0
LTYPE
  2
DASHDOT
 70
     0
  3
____ _ ____ _ ____ _ ____ _ ____ _ ____ _ ____
 72
    65
 73
     4
 40
5.5
 49
4.0
 49
-0.6
 49
0.3
 49
-0.6
  0
LTYPE
  2
CENTER
 70
     0
  3
Center ____ _ ____ _ ____ _ ____ _ ____ _ ____
 72
    65
 73
     4
 40
1.0
 49
0.5
 49
-0.25
 49
0.0
 49
-0.25
  0
ENDTAB
  0
TABLE
  2
LAYER
 70
    12
  0
LAYER
  2
0
 70
     0
 62
     7
  6
CONTINUOUS
  0
LAYER
  2
BASIS
 70
     0
 62
     6
  6
DASHDOT
  0
LAYER
  2
OUTLINE
 70
     0
 62
     3
  6
CONTINUOUS
  0
LAYER
  2
DETAIL
 70
     0
 62
     5
  6
CONTINUOUS
  0
LAYER
  2
SIZE
 70
     0
 62
    30
  6
CONTINUOUS
  0
LAYER
  2
ARRANGE
 70
     0
 62
     1
  6
CONTINUOUS
  0
LAYER
  2
DEFPOINTS
 70
     0
 62
     7
  6
CONTINUOUS
  0
LAYER
  2
ETC
 70
     0
 62
    61
  6
CONTINUOUS
  0
LAYER
  2
FIX
 70
     0
 62
    11
  6
CONTINUOUS
  0
LAYER
  2
NOTE
 70
     0
 62
     4
  6
CONTINUOUS
  0
LAYER
  2
SERVICESPACE
 70
    64
 62
     2
  6
DASHDOT
  0
LAYER
  2
SYMBOLLINE
 70
    64
 62
    15
  6
CONTINUOUS
  0
ENDTAB
  0
TABLE
  2
STYLE
 70
     1
  0
STYLE
  2
STANDARD
 70
     0
 40
64.0
 41
0.9
 50
0.0
 71
     0
 42
64.0
  3
SIMPLEX.shx
  4
BIGFONT.shx
  0
ENDTAB
  0
TABLE
  2
APPID
 70
    19
  0
APPID
  2
ACAD
 70
     0
  0
APPID
  2
AUTOCAD_POSTSCRIPT_FIGURE
 70
     0
  0
APPID
  2
ACAD_EXEMPT_FROM_CAD_STANDARDS
 70
     0
  0
APPID
  2
ACAD_PSEXT
 70
     0
  0
APPID
  2
ACAUTHENVIRON
 70
     0
  0
APPID
  2
GENIUS_GENOENT_13
 70
     0
  0
APPID
  2
GENIUS_GENCFG_13
 70
     0
  0
APPID
  2
GENIUS_GENCFG0_13
 70
     0
  0
APPID
  2
GENIUS_GENCFG1_13
 70
     0
  0
APPID
  2
GENIUS_GENCFG2_13
 70
     0
  0
APPID
  2
GENIUS_GENCFG3_13
 70
     0
  0
APPID
  2
GENIUS_GENCFG4_13
 70
     0
  0
APPID
  2
GENIUS_GEVCFG0_13
 70
     0
  0
APPID
  2
CONTENTBLOCKICON
 70
     0
  0
APPID
  2
CONTENTBLOCKDESCRIPTION
 70
     0
  0
APPID
  2
ACAD_NAV_VCDISPLAY
 70
     0
  0
APPID
  2
ACAD_MLEADERVER
 70
     0
  0
APPID
  2
ACDBDYNAMICBLOCKTRUENAME
 70
     0
  0
APPID
  2
ACDBDYNAMICBLOCKGUID
 70
     0
  0
ENDTAB
  0
TABLE
  2
DIMSTYLE
 70
     1
  0
DIMSTYLE
  2
STANDARD
 70
     0
  3

  4

  5
_ORIGIN
  6

  7

 40
1.0
 41
12.0
 42
20.0
 43
200.0
 44
20.0
 45
0.0
 46
0.0
 47
0.0
 48
0.0
140
64.0
141
0.09
142
0.0
143
25.399999999999999
144
1.0
145
0.0
146
1.0
147
25.0
 71
     0
 72
     0
 73
     0
 74
     0
 75
     0
 76
     0
 77
     1
 78
     8
170
     0
171
     2
172
     1
173
     0
174
     1
175
     0
176
     7
177
     7
178
     7
  0
ENDTAB
  0
TABLE
  2
VIEW
 70
     1
  0
VIEW
  2
ALL
 70
     0
 40
4282.6198079999986
 10
0.0
 20
41.309904000000003
 41
5940.0
 11
0.0
 21
0.0
 31
1.0
 12
0.0
 22
0.0
 32
0.0
 42
50.0
 43
0.0
 44
0.0
 50
0.0
 71
     0
  0
ENDTAB
  0
TABLE
  2
UCS
 70
     0
  0
ENDTAB
  0
TABLE
  2
VPORT
 70
     1
  0
VPORT
  2
*ACTIVE
 70
     0
 10
0.0
 20
0.0
 11
1.0
 21
1.0
 12
177.42234680035739
 22
29.800424852641299
 13
0.0
 23
0.0
 14
1.0
 24
1.0
 15
0.0
 25
0.0
 16
0.0
 26
0.0
 36
1.0
 17
0.0
 27
0.0
 37
0.0
 40
969.52367484238755
 41
1.747787610619469
 42
50.0
 43
0.0
 44
0.0
 50
0.0
 51
0.0
 71
     0
 72
  1000
 73
     1
 74
     3
 75
     0
 76
     0
 77
     0
 78
     0
  0
ENDTAB
  0
ENDSEC
  0
SECTION
  2
BLOCKS
  0
BLOCK
  8
0
  2
_ORIGIN
 70
     0
 10
0.0
 20
0.0
 30
0.0
  3
_ORIGIN
  1
_ORIGIN
  0
CIRCLE
  8
0
  6
CONTINUOUS
 62
     7
 10
0.0
 20
0.0
 30
0.0
 40
0.5
  0
LINE
  8
0
  6
CONTINUOUS
 62
     7
 10
0.0
 20
0.0
 30
0.0
 11
-1.0
 21
0.0
 31
0.0
  0
ENDBLK
  8
0
  0
ENDSEC
  0
SECTION
  2
ENTITIES
  0
LINE
  8
BASIS
  6
DASHDOT
 62
     6
 10
0.0
 20
195.20970600000001
 30
0.0
 11
0.0
 21
-32.073361999999968
 31
0.0
  0
CIRCLE
  8
FIX
  6
CONTINUOUS
 62
    11
 10
-98.5
 20
0.0
 30
0.0
 40
10.0
  0
CIRCLE
  8
FIX
  6
CONTINUOUS
 62
    11
 10
-65.0
 20
0.0
 30
0.0
 40
10.0
  0
CIRCLE
  8
FIX
  6
CONTINUOUS
 62
    11
 10
65.0
 20
0.0
 30
0.0
 40
10.0
  0
CIRCLE
  8
FIX
  6
CONTINUOUS
 62
    11
 10
98.5
 20
0.0
 30
0.0
 40
10.0
  0
CIRCLE
  8
ARRANGE
  6
CONTINUOUS
 62
     1
 10
0.0
 20
0.0
 30
0.0
 40
40.0
  0
POINT
  8
ARRANGE
  6
CONTINUOUS
 62
     1
 10
0.0
 20
0.0
 30
0.0
 50
90.0
  0
TEXT
  8
NOTE
  6
CONTINUOUS
 62
     4
 10
-297.83235387919649
 20
370.56439291188008
 30
0.0
 40
64.0
  1
EL
 41
0.9
  0
LINE
  8
NOTE
  6
CONTINUOUS
 62
     4
 10
-354.82094409062029
 20
347.97073318419302
 30
0.0
 11
-186.29645256420139
 21
347.97073318415062
 31
0.0
  0
LINE
  8
NOTE
  6
CONTINUOUS
 62
     4
 10
-69.0
 20
131.37231758359169
 30
0.0
 11
-186.29645256420139
 21
347.97073318415062
 31
0.0
  0
LINE
  8
NOTE
  6
CONTINUOUS
 62
     4
 10
-69.0
 20
131.37231758359169
 30
0.0
 11
-97.073374044112825
 21
158.0162667710417
 31
0.0
  0
LINE
  8
NOTE
  6
CONTINUOUS
 62
     4
 10
-76.302562394578672
 20
170.63036728743711
 30
0.0
 11
-69.0
 21
131.37231758359169
 31
0.0
  0
LINE
  8
NOTE
  6
CONTINUOUS
 62
     4
 10
-98.5
 20
0.0
 30
0.0
 11
-333.78356798458663
 21
264.8116364789787
 31
0.0
  0
LINE
  8
NOTE
  6
CONTINUOUS
 62
     4
 10
-98.5
 20
0.0
 30
0.0
 11
-129.81274534757901
 21
22.683422418883421
 31
0.0
  0
LINE
  8
NOTE
  6
CONTINUOUS
 62
     4
 10
-117.49527469402349
 20
35.19929633376114
 30
0.0
 11
-98.5
 21
0.0
 31
0.0
  0
LINE
  8
SIZE
  6
CONTINUOUS
 62
    30
 10
-65.0
 20
-26.299110999999929
 30
0.0
 11
-65.0
 21
-178.3705213465619
 31
0.0
  0
LINE
  8
SIZE
  6
CONTINUOUS
 62
    30
 10
65.0
 20
-26.299110999999929
 30
0.0
 11
65.0
 21
-178.3705213465619
 31
0.0
  0
LINE
  8
SIZE
  6
CONTINUOUS
 62
    30
 10
-53.0
 20
-158.3705213465619
 30
0.0
 11
53.0
 21
-158.3705213465619
 31
0.0
  0
CIRCLE
  8
SIZE
  6
CONTINUOUS
 62
    30
 10
-65.0
 20
-158.3705213465619
 30
0.0
 40
6.0
  0
LINE
  8
SIZE
  6
CONTINUOUS
 62
    30
 10
-65.0
 20
-158.3705213465619
 30
0.0
 11
-53.0
 21
-158.3705213465619
 31
0.0
  0
CIRCLE
  8
SIZE
  6
CONTINUOUS
 62
    30
 10
65.0
 20
-158.3705213465619
 30
0.0
 40
6.0
  0
LINE
  8
SIZE
  6
CONTINUOUS
 62
    30
 10
65.0
 20
-158.3705213465619
 30
0.0
 11
53.0
 21
-158.3705213465619
 31
0.0
  0
TEXT
  8
SIZE
  6
CONTINUOUS
 62
    30
 10
-68.571428571428569
 20
-133.3705213465619
 30
0.0
 40
64.0
  1
130
 41
0.9
 72
     1
 11
0.0
 21
-133.3705213465619
 31
0.0
  0
POINT
  8
DEFPOINTS
  6
CONTINUOUS
 62
    30
 10
-65.0
 20
-6.2991109999999253
 30
0.0
  0
POINT
  8
DEFPOINTS
  6
CONTINUOUS
 62
    30
 10
65.0
 20
-6.2991109999999253
 30
0.0
  0
POINT
  8
DEFPOINTS
  6
CONTINUOUS
 62
    30
 10
65.0
 20
-158.3705213465619
 30
0.0
  0
LINE
  8
SIZE
  6
CONTINUOUS
 62
    30
 10
-98.5
 20
-26.299110999999929
 30
0.0
 11
-98.5
 21
-302.52006728439221
 31
0.0
  0
LINE
  8
SIZE
  6
CONTINUOUS
 62
    30
 10
98.5
 20
-26.299110999999929
 30
0.0
 11
98.5
 21
-302.52006728439221
 31
0.0
  0
LINE
  8
SIZE
  6
CONTINUOUS
 62
    30
 10
-86.5
 20
-282.52006728439221
 30
0.0
 11
86.5
 21
-282.52006728439221
 31
0.0
  0
CIRCLE
  8
SIZE
  6
CONTINUOUS
 62
    30
 10
-98.5
 20
-282.52006728439221
 30
0.0
 40
6.0
  0
LINE
  8
SIZE
  6
CONTINUOUS
 62
    30
 10
-98.5
 20
-282.52006728439221
 30
0.0
 11
-86.5
 21
-282.52006728439221
 31
0.0
  0
CIRCLE
  8
SIZE
  6
CONTINUOUS
 62
    30
 10
98.5
 20
-282.52006728439221
 30
0.0
 40
6.0
  0
LINE
  8
SIZE
  6
CONTINUOUS
 62
    30
 10
98.5
 20
-282.52006728439221
 30
0.0
 11
86.5
 21
-282.52006728439221
 31
0.0
  0
TEXT
  8
SIZE
  6
CONTINUOUS
 62
    30
 10
-68.571428571428569
 20
-257.52006728439221
 30
0.0
 40
64.0
  1
197
 41
0.9
 72
     1
 11
0.0
 21
-257.52006728439221
 31
0.0
  0
POINT
  8
DEFPOINTS
  6
CONTINUOUS
 62
    30
 10
-98.5
 20
-6.2991109999999253
 30
0.0
  0
POINT
  8
DEFPOINTS
  6
CONTINUOUS
 62
    30
 10
98.5
 20
-6.2991109999999253
 30
0.0
  0
POINT
  8
DEFPOINTS
  6
CONTINUOUS
 62
    30
 10
98.5
 20
-282.52006728439221
 30
0.0
  0
LINE
  8
SIZE
  6
CONTINUOUS
 62
    30
 10
-125.0
 20
-32.274626000000012
 30
0.0
 11
-125.0
 21
-428.96004448059279
 31
0.0
  0
LINE
  8
SIZE
  6
CONTINUOUS
 62
    30
 10
125.0
 20
-32.274626000000012
 30
0.0
 11
125.0
 21
-428.96004448059279
 31
0.0
  0
LINE
  8
SIZE
  6
CONTINUOUS
 62
    30
 10
-113.0
 20
-408.96004448059279
 30
0.0
 11
113.0
 21
-408.96004448059279
 31
0.0
  0
CIRCLE
  8
SIZE
  6
CONTINUOUS
 62
    30
 10
-125.0
 20
-408.96004448059279
 30
0.0
 40
6.0
  0
LINE
  8
SIZE
  6
CONTINUOUS
 62
    30
 10
-125.0
 20
-408.96004448059279
 30
0.0
 11
-113.0
 21
-408.96004448059279
 31
0.0
  0
CIRCLE
  8
SIZE
  6
CONTINUOUS
 62
    30
 10
125.0
 20
-408.96004448059279
 30
0.0
 40
6.0
  0
LINE
  8
SIZE
  6
CONTINUOUS
 62
    30
 10
125.0
 20
-408.96004448059279
 30
0.0
 11
113.0
 21
-408.96004448059279
 31
0.0
  0
TEXT
  8
SIZE
  6
CONTINUOUS
 62
    30
 10
-120.5509308571428
 20
-383.96004448059279
 30
0.0
 40
64.0
  1
□250
 41
0.9
 72
     1
 11
-10.01378799999998
 21
-383.96004448059279
 31
0.0
  0
POINT
  8
DEFPOINTS
  6
CONTINUOUS
 62
    30
 10
-125.0
 20
-12.27462600000001
 30
0.0
  0
POINT
  8
DEFPOINTS
  6
CONTINUOUS
 62
    30
 10
125.0
 20
-12.27462600000001
 30
0.0
  0
POINT
  8
DEFPOINTS
  6
CONTINUOUS
 62
    30
 10
125.0
 20
-408.96004448059279
 30
0.0
  0
LINE
  8
SIZE
  6
CONTINUOUS
 62
    30
 10
-86.989868999999885
 20
20.0
 30
0.0
 11
-86.989868999999885
 21
289.31706472100859
 31
0.0
  0
LINE
  8
SIZE
  6
CONTINUOUS
 62
    30
 10
86.989868000000115
 20
20.0
 30
0.0
 11
86.989868000000115
 21
289.31706472100859
 31
0.0
  0
LINE
  8
SIZE
  6
CONTINUOUS
 62
    30
 10
-74.989868999999885
 20
269.31706472100859
 30
0.0
 11
74.989868000000115
 21
269.31706472100859
 31
0.0
  0
CIRCLE
  8
SIZE
  6
CONTINUOUS
 62
    30
 10
-86.989868999999885
 20
269.31706472100859
 30
0.0
 40
6.0
  0
LINE
  8
SIZE
  6
CONTINUOUS
 62
    30
 10
-86.989868999999885
 20
269.31706472100859
 30
0.0
 11
-74.989868999999885
 21
269.31706472100859
 31
0.0
  0
CIRCLE
  8
SIZE
  6
CONTINUOUS
 62
    30
 10
86.989868000000115
 20
269.31706472100859
 30
0.0
 40
6.0
  0
LINE
  8
SIZE
  6
CONTINUOUS
 62
    30
 10
86.989868000000115
 20
269.31706472100859
 30
0.0
 11
74.989868000000115
 21
269.31706472100859
 31
0.0
  0
TEXT
  8
SIZE
  6
CONTINUOUS
 62
    30
 10
-106.422857642857
 20
294.31706472100859
 30
0.0
 40
64.0
  1
□174
 41
0.9
 72
     1
 11
-0.0000004999998282
 21
294.31706472100859
 31
0.0
  0
POINT
  8
DEFPOINTS
  6
CONTINUOUS
 62
    30
 10
-86.989868999999885
 20
0.0
 30
0.0
  0
POINT
  8
DEFPOINTS
  6
CONTINUOUS
 62
    30
 10
86.989868000000115
 20
0.0
 30
0.0
  0
POINT
  8
DEFPOINTS
  6
CONTINUOUS
 62
    30
 10
86.989868000000115
 20
269.31706472100859
 30
0.0
  0
LINE
  8
SIZE
  6
CONTINUOUS
 62
    30
 10
18.787163888921668
 20
184.52295045976231
 30
0.0
 11
256.94654288776121
 21
184.52295045976231
 31
0.0
  0
LINE
  8
SIZE
  6
CONTINUOUS
 62
    30
 10
145.00000000000011
 20
-0.0000000000000568
 30
0.0
 11
256.9465428877611
 21
-0.0000000000000568
 31
0.0
  0
LINE
  8
SIZE
  6
CONTINUOUS
 62
    30
 10
236.94654288776121
 20
196.52295045976231
 30
0.0
 11
236.94654288776121
 21
208.52295045976231
 31
0.0
  0
LINE
  8
SIZE
  6
CONTINUOUS
 62
    30
 10
236.9465428877611
 20
-12.00000000000006
 30
0.0
 11
236.9465428877611
 21
-24.00000000000006
 31
0.0
  0
LINE
  8
SIZE
  6
CONTINUOUS
 62
    30
 10
236.9465428877611
 20
184.52295045976231
 30
0.0
 11
236.9465428877611
 21
-0.0000000000000568
 31
0.0
  0
CIRCLE
  8
SIZE
  6
CONTINUOUS
 62
    30
 10
236.9465428877611
 20
184.52295045976231
 30
0.0
 40
6.0
  0
LINE
  8
SIZE
  6
CONTINUOUS
 62
    30
 10
236.9465428877611
 20
184.52295045976231
 30
0.0
 11
236.9465428877611
 21
196.52295045976231
 31
0.0
  0
CIRCLE
  8
SIZE
  6
CONTINUOUS
 62
    30
 10
236.9465428877611
 20
-0.0000000000000568
 30
0.0
 40
6.0
  0
LINE
  8
SIZE
  6
CONTINUOUS
 62
    30
 10
236.9465428877611
 20
-0.0000000000000568
 30
0.0
 11
236.9465428877611
 21
-12.00000000000006
 31
0.0
  0
TEXT
  8
SIZE
  6
CONTINUOUS
 62
    30
 10
211.9465428877611
 20
22.318618087024049
 30
0.0
 40
64.0
  1
184
 50
90.0
 41
0.9
 72
     1
 11
211.9465428877611
 21
92.261475229881171
 31
0.0
  0
POINT
  8
DEFPOINTS
  6
CONTINUOUS
 62
    30
 10
-1.2128361110783319
 20
184.52295045976231
 30
0.0
  0
POINT
  8
DEFPOINTS
  6
CONTINUOUS
 62
    30
 10
125.0000000000001
 20
0.0
 30
0.0
  0
POINT
  8
DEFPOINTS
  6
CONTINUOUS
 62
    30
 10
236.9465428877611
 20
-0.0000000000000568
 30
0.0
  0
LINE
  8
SIZE
  6
CONTINUOUS
 62
    30
 10
145.00000000000011
 20
-0.0000000000000568
 30
0.0
 11
256.9465428877611
 21
-0.0000000000000568
 31
0.0
  0
LINE
  8
SIZE
  6
CONTINUOUS
 62
    30
 10
137.0
 20
-20.0
 30
0.0
 11
256.9465428877611
 21
-20.00000000000006
 31
0.0
  0
LINE
  8
SIZE
  6
CONTINUOUS
 62
    30
 10
236.9465428877611
 20
11.99999999999994
 30
0.0
 11
236.9465428877611
 21
23.99999999999994
 31
0.0
  0
LINE
  8
SIZE
  6
CONTINUOUS
 62
    30
 10
236.9465428877611
 20
-32.000000000000057
 30
0.0
 11
236.9465428877611
 21
-187.2571428571429
 31
0.0
  0
LINE
  8
SIZE
  6
CONTINUOUS
 62
    30
 10
236.9465428877611
 20
-0.0000000000000568
 30
0.0
 11
236.9465428877611
 21
-20.00000000000006
 31
0.0
  0
CIRCLE
  8
SIZE
  6
CONTINUOUS
 62
    30
 10
236.9465428877611
 20
-0.0000000000000568
 30
0.0
 40
6.0
  0
LINE
  8
SIZE
  6
CONTINUOUS
 62
    30
 10
236.9465428877611
 20
-0.0000000000000568
 30
0.0
 11
236.9465428877611
 21
11.99999999999994
 31
0.0
  0
CIRCLE
  8
SIZE
  6
CONTINUOUS
 62
    30
 10
236.9465428877611
 20
-20.00000000000006
 30
0.0
 40
6.0
  0
LINE
  8
SIZE
  6
CONTINUOUS
 62
    30
 10
236.9465428877611
 20
-20.00000000000006
 30
0.0
 11
236.9465428877611
 21
-32.000000000000057
 31
0.0
  0
TEXT
  8
SIZE
  6
CONTINUOUS
 62
    30
 10
211.9465428877611
 20
-162.2571428571429
 30
0.0
 40
64.0
  1
20
 50
90.0
 41
0.9
 72
     1
 11
211.9465428877611
 21
-115.62857142857141
 31
0.0
  0
POINT
  8
DEFPOINTS
  6
CONTINUOUS
 62
    30
 10
125.0000000000001
 20
0.0
 30
0.0
  0
POINT
  8
DEFPOINTS
  6
CONTINUOUS
 62
    30
 10
117.0
 20
-20.0
 30
0.0
  0
POINT
  8
DEFPOINTS
  6
CONTINUOUS
 62
    30
 10
236.9465428877611
 20
-20.00000000000006
 30
0.0
  0
ARC
  8
OUTLINE
  6
CONTINUOUS
 62
     3
 10
79.042759000000046
 20
167.72987000000001
 30
0.0
 40
4.9993999999999996
 50
1.005113000000794
 51
84.86222700000117
  0
LINE
  8
OUTLINE
  6
CONTINUOUS
 62
     3
 10
79.43072200000006
 20
172.69964999999999
 30
0.0
 11
79.456760000000031
 21
172.70357000000001
 31
0.0
  0
LINE
  8
OUTLINE
  6
CONTINUOUS
 62
     3
 10
79.398380000000088
 20
172.69503399999999
 30
0.0
 11
79.43072200000006
 21
172.69964999999999
 31
0.0
  0
LINE
  8
OUTLINE
  6
CONTINUOUS
 62
     3
 10
79.360174000000029
 20
172.69000399999999
 30
0.0
 11
79.398380000000088
 21
172.69503399999999
 31
0.0
  0
LINE
  8
OUTLINE
  6
CONTINUOUS
 62
     3
 10
79.316719000000035
 20
172.68481800000009
 30
0.0
 11
79.360174000000029
 21
172.69000399999999
 31
0.0
  0
LINE
  8
OUTLINE
  6
CONTINUOUS
 62
     3
 10
79.268507999999997
 20
172.6797369999999
 30
0.0
 11
79.316719000000035
 21
172.68481800000009
 31
0.0
  0
LINE
  8
OUTLINE
  6
CONTINUOUS
 62
     3
 10
79.215835000000084
 20
172.67502400000001
 30
0.0
 11
79.268507999999997
 21
172.6797369999999
 31
0.0
  0
LINE
  8
OUTLINE
  6
CONTINUOUS
 62
     3
 10
79.159902000000102
 20
172.67092600000001
 30
0.0
 11
79.215835000000084
 21
172.67502400000001
 31
0.0
  0
LINE
  8
OUTLINE
  6
CONTINUOUS
 62
     3
 10
79.101956000000087
 20
172.66781900000001
 30
0.0
 11
79.159902000000102
 21
172.67092600000001
 31
0.0
  0
LINE
  8
OUTLINE
  6
CONTINUOUS
 62
     3
 10
79.042759000000046
 20
172.66557599999999
 30
0.0
 11
79.101956000000087
 21
172.66781900000001
 31
0.0
  0
LINE
  8
OUTLINE
  6
CONTINUOUS
 62
     3
 10
79.029737000000068
 20
172.66527000000011
 30
0.0
 11
79.042759000000046
 21
172.66558000000001
 31
0.0
  0
LINE
  8
OUTLINE
  6
CONTINUOUS
 62
     3
 10
79.01669000000004
 20
172.6650480000001
 30
0.0
 11
79.029737000000068
 21
172.66527000000011
 31
0.0
  0
LINE
  8
OUTLINE
  6
CONTINUOUS
 62
     3
 10
79.003618000000074
 20
172.66491500000009
 30
0.0
 11
79.01669000000004
 21
172.6650480000001
 31
0.0
  0
LINE
  8
OUTLINE
  6
CONTINUOUS
 62
     3
 10
78.490580000000136
 20
172.66487000000009
 30
0.0
 11
79.003618000000074
 21
172.66491500000009
 31
0.0
  0
LINE
  8
OUTLINE
  6
CONTINUOUS
 62
     3
 10
78.435449000000062
 20
172.665708
 30
0.0
 11
78.490580000000136
 21
172.66487000000009
 31
0.0
  0
LINE
  8
OUTLINE
  6
CONTINUOUS
 62
     3
 10
78.380398000000014
 20
172.66802600000011
 30
0.0
 11
78.435449000000062
 21
172.665708
 31
0.0
  0
LINE
  8
OUTLINE
  6
CONTINUOUS
 62
     3
 10
78.325941000000057
 20
172.67195000000001
 30
0.0
 11
78.380398000000014
 21
172.66802600000011
 31
0.0
  0
LINE
  8
OUTLINE
  6
CONTINUOUS
 62
     3
 10
78.273440000000051
 20
172.67710099999999
 30
0.0
 11
78.325941000000057
 21
172.67195000000001
 31
0.0
  0
LINE
  8
OUTLINE
  6
CONTINUOUS
 62
     3
 10
78.224135000000047
 20
172.68326999999999
 30
0.0
 11
78.273440000000051
 21
172.67710099999999
 31
0.0
  0
LINE
  8
OUTLINE
  6
CONTINUOUS
 62
     3
 10
78.178430000000048
 20
172.69007500000001
 30
0.0
 11
78.224135000000047
 21
172.68326999999999
 31
0.0
  0
LINE
  8
OUTLINE
  6
CONTINUOUS
 62
     3
 10
78.136949000000072
 20
172.697169
 30
0.0
 11
78.178430000000048
 21
172.69007500000001
 31
0.0
  0
LINE
  8
OUTLINE
  6
CONTINUOUS
 62
     3
 10
78.099878999999987
 20
172.70424299999999
 30
0.0
 11
78.136949000000072
 21
172.697169
 31
0.0
  0
LINE
  8
OUTLINE
  6
CONTINUOUS
 62
     3
 10
78.067485000000033
 20
172.7109770000001
 30
0.0
 11
78.099878999999987
 21
172.70424299999999
 31
0.0
  0
LINE
  8
OUTLINE
  6
CONTINUOUS
 62
     3
 10
78.040266999999972
 20
172.7170620000002
 30
0.0
 11
78.067485000000033
 21
172.7109770000001
 31
0.0
  0
LINE
  8
OUTLINE
  6
CONTINUOUS
 62
     3
 10
78.018539000000033
 20
172.72214900000009
 30
0.0
 11
78.040266999999972
 21
172.7170620000002
 31
0.0
  0
LINE
  8
OUTLINE
  6
CONTINUOUS
 62
     3
 10
77.993689000000018
 20
172.72837000000001
 30
0.0
 11
78.018539000000033
 21
172.72214900000009
 31
0.0
  0
LINE
  8
OUTLINE
  6
CONTINUOUS
 62
     3
 10
79.486757000000011
 20
172.708437
 30
0.0
 11
79.490460000000098
 21
172.70917300000011
 31
0.0
  0
LINE
  8
OUTLINE
  6
CONTINUOUS
 62
     3
 10
79.456760000000031
 20
172.70357000000001
 30
0.0
 11
79.486757000000011
 21
172.708437
 31
0.0
  0
LINE
  8
OUTLINE
  6
CONTINUOUS
 62
     3
 10
84.083640000000059
 20
166.4800200000002
 30
0.0
 11
84.064890000000105
 21
166.4800200000002
 31
0.0
  0
LINE
  8
OUTLINE
  6
CONTINUOUS
 62
     3
 10
86.989868000000115
 20
0.0
 30
0.0
 11
84.041386999999986
 21
167.81769300000019
 31
0.0
  0
LINE
  8
OUTLINE
  6
CONTINUOUS
 62
     3
 10
77.990640000000099
 20
172.72926699999991
 30
0.0
 11
77.993689000000018
 21
172.72837000000001
 31
0.0
  0
LINE
  8
OUTLINE
  6
CONTINUOUS
 62
     3
 10
61.992560000000033
 20
172.72927000000001
 30
0.0
 11
77.990640000000099
 21
172.72927000000001
 31
0.0
  0
ARC
  8
OUTLINE
  6
CONTINUOUS
 62
     3
 10
61.112665000000113
 20
176.8487749999999
 30
0.0
 40
0.8798940000000001
 50
0.0
 51
90.0
  0
LINE
  8
OUTLINE
  6
CONTINUOUS
 62
     3
 10
61.992560000000033
 20
172.72927000000001
 30
0.0
 11
61.992560000000033
 21
176.8487749999999
 31
0.0
  0
LINE
  8
OUTLINE
  6
CONTINUOUS
 62
     3
 10
86.989868000000115
 20
0.0
 30
0.0
 11
125.0000000000001
 21
0.0
 31
0.0
  0
ARC
  8
OUTLINE
  6
CONTINUOUS
 62
     3
 10
-79.04275999999993
 20
167.72987000000001
 30
0.0
 40
4.9993999999999996
 50
95.13777299999883
 51
178.99488699999921
  0
LINE
  8
OUTLINE
  6
CONTINUOUS
 62
     3
 10
-79.430722999999944
 20
172.69964999999999
 30
0.0
 11
-79.456760999999915
 21
172.70357000000001
 31
0.0
  0
LINE
  8
OUTLINE
  6
CONTINUOUS
 62
     3
 10
-79.398380999999972
 20
172.69503399999999
 30
0.0
 11
-79.430722999999944
 21
172.69964999999999
 31
0.0
  0
LINE
  8
OUTLINE
  6
CONTINUOUS
 62
     3
 10
-79.360174999999913
 20
172.69000399999999
 30
0.0
 11
-79.398380999999972
 21
172.69503399999999
 31
0.0
  0
LINE
  8
OUTLINE
  6
CONTINUOUS
 62
     3
 10
-79.316719999999918
 20
172.68481800000009
 30
0.0
 11
-79.360174999999913
 21
172.69000399999999
 31
0.0
  0
LINE
  8
OUTLINE
  6
CONTINUOUS
 62
     3
 10
-79.268508999999995
 20
172.6797369999999
 30
0.0
 11
-79.316719999999918
 21
172.68481800000009
 31
0.0
  0
LINE
  8
OUTLINE
  6
CONTINUOUS
 62
     3
 10
-79.215835999999967
 20
172.67502400000001
 30
0.0
 11
-79.268508999999995
 21
172.6797369999999
 31
0.0
  0
LINE
  8
OUTLINE
  6
CONTINUOUS
 62
     3
 10
-79.159902999999872
 20
172.67092600000001
 30
0.0
 11
-79.215835999999967
 21
172.67502400000001
 31
0.0
  0
LINE
  8
OUTLINE
  6
CONTINUOUS
 62
     3
 10
-79.10195699999997
 20
172.66781900000001
 30
0.0
 11
-79.159902999999872
 21
172.67092600000001
 31
0.0
  0
LINE
  8
OUTLINE
  6
CONTINUOUS
 62
     3
 10
-79.04275999999993
 20
172.66557599999999
 30
0.0
 11
-79.10195699999997
 21
172.66781900000001
 31
0.0
  0
LINE
  8
OUTLINE
  6
CONTINUOUS
 62
     3
 10
-79.029737999999952
 20
172.66527000000011
 30
0.0
 11
-79.04275999999993
 21
172.66558000000001
 31
0.0
  0
LINE
  8
OUTLINE
  6
CONTINUOUS
 62
     3
 10
-79.016690999999923
 20
172.6650480000001
 30
0.0
 11
-79.029737999999952
 21
172.66527000000011
 31
0.0
  0
LINE
  8
OUTLINE
  6
CONTINUOUS
 62
     3
 10
-79.003618999999958
 20
172.66491500000009
 30
0.0
 11
-79.016690999999923
 21
172.6650480000001
 31
0.0
  0
LINE
  8
OUTLINE
  6
CONTINUOUS
 62
     3
 10
-78.490580000000023
 20
172.66487000000009
 30
0.0
 11
-79.003618999999958
 21
172.66491500000009
 31
0.0
  0
LINE
  8
OUTLINE
  6
CONTINUOUS
 62
     3
 10
-78.43545000000006
 20
172.665708
 30
0.0
 11
-78.490580000000023
 21
172.66487000000009
 31
0.0
  0
LINE
  8
OUTLINE
  6
CONTINUOUS
 62
     3
 10
-78.3803979999999
 20
172.66802600000011
 30
0.0
 11
-78.43545000000006
 21
172.665708
 31
0.0
  0
LINE
  8
OUTLINE
  6
CONTINUOUS
 62
     3
 10
-78.325942000000055
 20
172.67195000000001
 30
0.0
 11
-78.3803979999999
 21
172.66802600000011
 31
0.0
  0
LINE
  8
OUTLINE
  6
CONTINUOUS
 62
     3
 10
-78.273440999999934
 20
172.67710099999999
 30
0.0
 11
-78.325942000000055
 21
172.67195000000001
 31
0.0
  0
LINE
  8
OUTLINE
  6
CONTINUOUS
 62
     3
 10
-78.22413599999993
 20
172.68326999999999
 30
0.0
 11
-78.273440999999934
 21
172.67710099999999
 31
0.0
  0
LINE
  8
OUTLINE
  6
CONTINUOUS
 62
     3
 10
-78.178430999999932
 20
172.69007500000001
 30
0.0
 11
-78.22413599999993
 21
172.68326999999999
 31
0.0
  0
LINE
  8
OUTLINE
  6
CONTINUOUS
 62
     3
 10
-78.136949999999956
 20
172.697169
 30
0.0
 11
-78.178430999999932
 21
172.69007500000001
 31
0.0
  0
LINE
  8
OUTLINE
  6
CONTINUOUS
 62
     3
 10
-78.099879999999985
 20
172.70424299999999
 30
0.0
 11
-78.136949999999956
 21
172.697169
 31
0.0
  0
LINE
  8
OUTLINE
  6
CONTINUOUS
 62
     3
 10
-78.067485999999917
 20
172.7109770000001
 30
0.0
 11
-78.099879999999985
 21
172.70424299999999
 31
0.0
  0
LINE
  8
OUTLINE
  6
CONTINUOUS
 62
     3
 10
-78.040267999999969
 20
172.7170620000002
 30
0.0
 11
-78.067485999999917
 21
172.7109770000001
 31
0.0
  0
LINE
  8
OUTLINE
  6
CONTINUOUS
 62
     3
 10
-78.018539999999916
 20
172.72214900000009
 30
0.0
 11
-78.040267999999969
 21
172.7170620000002
 31
0.0
  0
LINE
  8
OUTLINE
  6
CONTINUOUS
 62
     3
 10
-77.993689999999901
 20
172.72837000000001
 30
0.0
 11
-78.018539999999916
 21
172.72214900000009
 31
0.0
  0
LINE
  8
OUTLINE
  6
CONTINUOUS
 62
     3
 10
-79.486758000000009
 20
172.708437
 30
0.0
 11
-79.490459999999871
 21
172.70917300000011
 31
0.0
  0
LINE
  8
OUTLINE
  6
CONTINUOUS
 62
     3
 10
-79.456760999999915
 20
172.70357000000001
 30
0.0
 11
-79.486758000000009
 21
172.708437
 31
0.0
  0
LINE
  8
OUTLINE
  6
CONTINUOUS
 62
     3
 10
-84.083641000000057
 20
166.4800200000002
 30
0.0
 11
-84.064890999999989
 21
166.4800200000002
 31
0.0
  0
LINE
  8
OUTLINE
  6
CONTINUOUS
 62
     3
 10
-86.989868999999885
 20
0.0
 30
0.0
 11
-84.041387999999984
 21
167.81769300000019
 31
0.0
  0
LINE
  8
OUTLINE
  6
CONTINUOUS
 62
     3
 10
-77.990639999999871
 20
172.72926699999991
 30
0.0
 11
-77.993689999999901
 21
172.72837000000001
 31
0.0
  0
LINE
  8
OUTLINE
  6
CONTINUOUS
 62
     3
 10
-61.992560000000033
 20
172.72927000000001
 30
0.0
 11
-77.990639999999871
 21
172.72927000000001
 31
0.0
  0
ARC
  8
OUTLINE
  6
CONTINUOUS
 62
     3
 10
-61.11266599999999
 20
176.8487749999999
 30
0.0
 40
0.8798940000000001
 50
90.0
 51
180.0
  0
LINE
  8
OUTLINE
  6
CONTINUOUS
 62
     3
 10
-61.992560000000033
 20
172.72927000000001
 30
0.0
 11
-61.992560000000033
 21
176.8487749999999
 31
0.0
  0
LINE
  8
OUTLINE
  6
CONTINUOUS
 62
     3
 10
-86.989868999999885
 20
0.0
 30
0.0
 11
-125.0
 21
0.0
 31
0.0
  0
ARC
  8
OUTLINE
  6
CONTINUOUS
 62
     3
 10
-36.006211000000008
 20
175.482045
 30
0.0
 40
5.5160689999999999
 50
90.0
 51
155.96545999999569
  0
ARC
  8
OUTLINE
  6
CONTINUOUS
 62
     3
 10
16.04541700000004
 20
175.482045
 30
0.0
 40
5.5160689999999999
 50
24.034540000004341
 51
90.0
  0
LINE
  8
OUTLINE
  6
CONTINUOUS
 62
     3
 10
-61.11266599999999
 20
177.72867000000011
 30
0.0
 11
-41.044037000000003
 21
177.72867000000011
 31
0.0
  0
LINE
  8
OUTLINE
  6
CONTINUOUS
 62
     3
 10
61.112665000000113
 20
177.72867000000011
 30
0.0
 11
21.083243000000039
 21
177.72867000000011
 31
0.0
  0
LINE
  8
OUTLINE
  6
CONTINUOUS
 62
     3
 10
16.045357000000081
 20
180.99811399999999
 30
0.0
 11
-36.006211000000008
 21
180.99811399999999
 31
0.0
  0
LINE
  8
DETAIL
  6
CONTINUOUS
 62
     5
 10
16.045357000000081
 20
180.9981140000001
 30
0.0
 11
3.555365631340806
 21
180.9981140000001
 31
0.0
  0
LINE
  8
DETAIL
  6
CONTINUOUS
 62
     5
 10
61.112665000000113
 20
177.72867000000011
 30
0.0
 11
21.083243000000039
 21
177.72867000000011
 31
0.0
  0
LINE
  8
DETAIL
  6
CONTINUOUS
 62
     5
 10
-61.11266599999999
 20
177.72867000000011
 30
0.0
 11
-41.044037000000003
 21
177.72867000000011
 31
0.0
  0
LINE
  8
DETAIL
  6
CONTINUOUS
 62
     5
 10
-41.522278999999912
 20
175.48204500000011
 30
0.0
 11
-41.522278999999912
 21
172.72927000000001
 31
0.0
  0
LINE
  8
DETAIL
  6
CONTINUOUS
 62
     5
 10
21.561486000000059
 20
175.48204500000011
 30
0.0
 11
21.561486000000059
 21
172.72927000000001
 31
0.0
  0
ARC
  8
DETAIL
  6
CONTINUOUS
 62
     5
 10
16.04541700000004
 20
175.48204500000011
 30
0.0
 40
5.5160689999999999
 50
0.0
 51
90.0
  0
ARC
  8
DETAIL
  6
CONTINUOUS
 62
     5
 10
-36.006211000000008
 20
175.48204500000011
 30
0.0
 40
5.5160689999999999
 50
90.0
 51
180.0
  0
LINE
  8
DETAIL
  6
CONTINUOUS
 62
     5
 10
0.0
 20
0.0
 30
0.0
 11
-125.0
 21
0.0
 31
0.0
  0
LINE
  8
DETAIL
  6
CONTINUOUS
 62
     5
 10
-54.337832999999932
 20
183.97792000000001
 30
0.0
 11
-53.984832999999981
 21
183.97792000000001
 31
0.0
  0
ARC
  8
DETAIL
  6
CONTINUOUS
 62
     5
 10
-54.002208000000003
 20
182.97803500000001
 30
0.0
 40
0.9998799999999999
 50
90.0
 51
179.49976300000111
  0
LINE
  8
DETAIL
  6
CONTINUOUS
 62
     5
 10
-45.985792999999937
 20
183.97792000000001
 30
0.0
 11
-46.00316799999996
 21
183.97792000000001
 31
0.0
  0
ARC
  8
DETAIL
  6
CONTINUOUS
 62
     5
 10
-46.00316799999996
 20
182.97803500000001
 30
0.0
 40
0.9998799999999999
 50
90.0
 51
179.49976300000111
  0
LINE
  8
DETAIL
  6
CONTINUOUS
 62
     5
 10
-55.25479299999995
 20
183.3767180000001
 30
0.0
 11
-57.710465999999997
 21
177.72867000000011
 31
0.0
  0
ARC
  8
DETAIL
  6
CONTINUOUS
 62
     5
 10
-53.984832999999981
 20
182.97803500000001
 30
0.0
 40
0.9998799999999999
 50
0.5002730000015576
 51
90.0
  0
LINE
  8
DETAIL
  6
CONTINUOUS
 62
     5
 10
-55.00204999999994
 20
182.98676499999999
 30
0.0
 11
-55.047936999999934
 21
177.72867000000011
 31
0.0
  0
LINE
  8
DETAIL
  6
CONTINUOUS
 62
     5
 10
-52.939103999999929
 20
177.72867000000011
 30
0.0
 11
-52.984990999999923
 21
182.98676499999999
 31
0.0
  0
LINE
  8
DETAIL
  6
CONTINUOUS
 62
     5
 10
-47.003010000000017
 20
182.98676499999999
 30
0.0
 11
-47.048897000000011
 21
177.72867000000011
 31
0.0
  0
LINE
  8
DETAIL
  6
CONTINUOUS
 62
     5
 10
-44.985951
 20
182.98676499999999
 30
0.0
 11
-44.940064000000007
 21
177.72867000000011
 31
0.0
  0
ARC
  8
DETAIL
  6
CONTINUOUS
 62
     5
 10
-45.985792999999937
 20
182.97803400000001
 30
0.0
 40
0.9998799999999999
 50
0.5003079999974898
 51
90.0
  0
LINE
  8
DETAIL
  6
CONTINUOUS
 62
     5
 10
-61.992560000000033
 20
172.72927000000001
 30
0.0
 11
-61.992560000000033
 21
176.8487749999999
 31
0.0
  0
ARC
  8
DETAIL
  6
CONTINUOUS
 62
     5
 10
-61.11266599999999
 20
176.8487749999999
 30
0.0
 40
0.8798940000000001
 50
90.0
 51
180.0
  0
ARC
  8
DETAIL
  6
CONTINUOUS
 62
     5
 10
-54.337832999999932
 20
182.97804000000011
 30
0.0
 40
0.9998799999999999
 50
90.0
 51
156.50143399999521
  0
LINE
  8
DETAIL
  6
CONTINUOUS
 62
     5
 10
-77.990639999999871
 20
172.72926699999991
 30
0.0
 11
-77.993689999999901
 21
172.72837000000001
 31
0.0
  0
LINE
  8
DETAIL
  6
CONTINUOUS
 62
     5
 10
-86.989868999999885
 20
0.0
 30
0.0
 11
-84.041387999999984
 21
167.81769300000019
 31
0.0
  0
LINE
  8
DETAIL
  6
CONTINUOUS
 62
     5
 10
-84.083641000000057
 20
166.4800200000002
 30
0.0
 11
-84.064890999999989
 21
166.4800200000002
 31
0.0
  0
LINE
  8
DETAIL
  6
CONTINUOUS
 62
     5
 10
-79.456760999999915
 20
172.70357000000001
 30
0.0
 11
-79.486758000000009
 21
172.708437
 31
0.0
  0
LINE
  8
DETAIL
  6
CONTINUOUS
 62
     5
 10
-79.486758000000009
 20
172.708437
 30
0.0
 11
-79.490459999999871
 21
172.70917300000011
 31
0.0
  0
LINE
  8
DETAIL
  6
CONTINUOUS
 62
     5
 10
-77.993689999999901
 20
172.72837000000001
 30
0.0
 11
-78.018539999999916
 21
172.72214900000009
 31
0.0
  0
LINE
  8
DETAIL
  6
CONTINUOUS
 62
     5
 10
-78.018539999999916
 20
172.72214900000009
 30
0.0
 11
-78.040267999999969
 21
172.7170620000002
 31
0.0
  0
LINE
  8
DETAIL
  6
CONTINUOUS
 62
     5
 10
-78.040267999999969
 20
172.7170620000002
 30
0.0
 11
-78.067485999999917
 21
172.7109770000001
 31
0.0
  0
LINE
  8
DETAIL
  6
CONTINUOUS
 62
     5
 10
-78.067485999999917
 20
172.7109770000001
 30
0.0
 11
-78.099879999999985
 21
172.70424299999999
 31
0.0
  0
LINE
  8
DETAIL
  6
CONTINUOUS
 62
     5
 10
-78.099879999999985
 20
172.70424299999999
 30
0.0
 11
-78.136949999999956
 21
172.697169
 31
0.0
  0
LINE
  8
DETAIL
  6
CONTINUOUS
 62
     5
 10
-78.136949999999956
 20
172.697169
 30
0.0
 11
-78.178430999999932
 21
172.69007500000009
 31
0.0
  0
LINE
  8
DETAIL
  6
CONTINUOUS
 62
     5
 10
-78.178430999999932
 20
172.69007500000009
 30
0.0
 11
-78.22413599999993
 21
172.68327000000011
 31
0.0
  0
LINE
  8
DETAIL
  6
CONTINUOUS
 62
     5
 10
-78.22413599999993
 20
172.68327000000011
 30
0.0
 11
-78.273440999999934
 21
172.67710100000011
 31
0.0
  0
LINE
  8
DETAIL
  6
CONTINUOUS
 62
     5
 10
-78.273440999999934
 20
172.67710100000011
 30
0.0
 11
-78.325942000000055
 21
172.67195000000001
 31
0.0
  0
LINE
  8
DETAIL
  6
CONTINUOUS
 62
     5
 10
-78.325942000000055
 20
172.67195000000001
 30
0.0
 11
-78.3803979999999
 21
172.66802600000011
 31
0.0
  0
LINE
  8
DETAIL
  6
CONTINUOUS
 62
     5
 10
-78.3803979999999
 20
172.66802600000011
 30
0.0
 11
-78.43545000000006
 21
172.665708
 31
0.0
  0
LINE
  8
DETAIL
  6
CONTINUOUS
 62
     5
 10
-78.43545000000006
 20
172.665708
 30
0.0
 11
-78.490580000000023
 21
172.66487000000009
 31
0.0
  0
LINE
  8
DETAIL
  6
CONTINUOUS
 62
     5
 10
-78.490580000000023
 20
172.66487000000009
 30
0.0
 11
-79.003618999999958
 21
172.66491500000009
 31
0.0
  0
LINE
  8
DETAIL
  6
CONTINUOUS
 62
     5
 10
-79.003618999999958
 20
172.66491500000009
 30
0.0
 11
-79.016690999999923
 21
172.6650480000001
 31
0.0
  0
LINE
  8
DETAIL
  6
CONTINUOUS
 62
     5
 10
-79.016690999999923
 20
172.6650480000001
 30
0.0
 11
-79.029737999999952
 21
172.66527000000011
 31
0.0
  0
LINE
  8
DETAIL
  6
CONTINUOUS
 62
     5
 10
-79.029737999999952
 20
172.66527000000011
 30
0.0
 11
-79.04275999999993
 21
172.66558000000001
 31
0.0
  0
LINE
  8
DETAIL
  6
CONTINUOUS
 62
     5
 10
-79.04275999999993
 20
172.66557599999999
 30
0.0
 11
-79.10195699999997
 21
172.66781900000001
 31
0.0
  0
LINE
  8
DETAIL
  6
CONTINUOUS
 62
     5
 10
-79.10195699999997
 20
172.66781900000001
 30
0.0
 11
-79.159902999999872
 21
172.67092600000001
 31
0.0
  0
LINE
  8
DETAIL
  6
CONTINUOUS
 62
     5
 10
-79.159902999999872
 20
172.67092600000001
 30
0.0
 11
-79.215835999999967
 21
172.67502400000001
 31
0.0
  0
LINE
  8
DETAIL
  6
CONTINUOUS
 62
     5
 10
-79.215835999999967
 20
172.67502400000001
 30
0.0
 11
-79.268508999999995
 21
172.6797369999999
 31
0.0
  0
LINE
  8
DETAIL
  6
CONTINUOUS
 62
     5
 10
-79.268508999999995
 20
172.6797369999999
 30
0.0
 11
-79.316719999999918
 21
172.68481800000009
 31
0.0
  0
LINE
  8
DETAIL
  6
CONTINUOUS
 62
     5
 10
-79.316719999999918
 20
172.68481800000009
 30
0.0
 11
-79.360174999999913
 21
172.69000399999999
 31
0.0
  0
LINE
  8
DETAIL
  6
CONTINUOUS
 62
     5
 10
-79.360174999999913
 20
172.69000399999999
 30
0.0
 11
-79.398380999999972
 21
172.69503399999999
 31
0.0
  0
LINE
  8
DETAIL
  6
CONTINUOUS
 62
     5
 10
-79.398380999999972
 20
172.69503399999999
 30
0.0
 11
-79.430722999999944
 21
172.69964999999999
 31
0.0
  0
LINE
  8
DETAIL
  6
CONTINUOUS
 62
     5
 10
-79.430722999999944
 20
172.69964999999999
 30
0.0
 11
-79.456760999999915
 21
172.70357000000001
 31
0.0
  0
ARC
  8
DETAIL
  6
CONTINUOUS
 62
     5
 10
-79.04275999999993
 20
167.72987000000001
 30
0.0
 40
4.9993999999999996
 50
95.13777299999883
 51
178.99488699999921
  0
LINE
  8
DETAIL
  6
CONTINUOUS
 62
     5
 10
0.0
 20
0.0
 30
0.0
 11
125.0
 21
0.0
 31
0.0
  0
LINE
  8
DETAIL
  6
CONTINUOUS
 62
     5
 10
54.337832000000049
 20
183.97792000000001
 30
0.0
 11
53.984832000000097
 21
183.97792000000001
 31
0.0
  0
ARC
  8
DETAIL
  6
CONTINUOUS
 62
     5
 10
54.002206999999999
 20
182.97803500000001
 30
0.0
 40
0.9998799999999999
 50
0.5002369999988965
 51
90.0
  0
LINE
  8
DETAIL
  6
CONTINUOUS
 62
     5
 10
45.98579200000006
 20
183.97792000000001
 30
0.0
 11
46.003166999999962
 21
183.97792000000001
 31
0.0
  0
ARC
  8
DETAIL
  6
CONTINUOUS
 62
     5
 10
46.003166999999962
 20
182.97803500000001
 30
0.0
 40
0.9998799999999999
 50
0.5002369999988965
 51
90.0
  0
LINE
  8
DETAIL
  6
CONTINUOUS
 62
     5
 10
55.254791999999952
 20
183.3767180000001
 30
0.0
 11
57.710464999999999
 21
177.72867000000011
 31
0.0
  0
ARC
  8
DETAIL
  6
CONTINUOUS
 62
     5
 10
53.984832000000097
 20
182.97803500000001
 30
0.0
 40
0.9998799999999999
 50
90.0
 51
179.49972699999839
  0
LINE
  8
DETAIL
  6
CONTINUOUS
 62
     5
 10
55.002049000000063
 20
182.98676499999999
 30
0.0
 11
55.04793600000005
 21
177.72867000000011
 31
0.0
  0
LINE
  8
DETAIL
  6
CONTINUOUS
 62
     5
 10
52.939103000000053
 20
177.72867000000011
 30
0.0
 11
52.984990000000039
 21
182.98676499999999
 31
0.0
  0
LINE
  8
DETAIL
  6
CONTINUOUS
 62
     5
 10
47.00300900000002
 20
182.98676499999999
 30
0.0
 11
47.048896000000013
 21
177.72867000000011
 31
0.0
  0
LINE
  8
DETAIL
  6
CONTINUOUS
 62
     5
 10
44.985950000000003
 20
182.98676499999999
 30
0.0
 11
44.940063000000009
 21
177.72867000000011
 31
0.0
  0
ARC
  8
DETAIL
  6
CONTINUOUS
 62
     5
 10
45.98579200000006
 20
182.97803400000001
 30
0.0
 40
0.9998799999999999
 50
90.0
 51
179.499691999996
  0
LINE
  8
DETAIL
  6
CONTINUOUS
 62
     5
 10
61.992560000000033
 20
172.72927000000001
 30
0.0
 11
61.992560000000033
 21
176.8487749999999
 31
0.0
  0
ARC
  8
DETAIL
  6
CONTINUOUS
 62
     5
 10
61.112665000000113
 20
176.8487749999999
 30
0.0
 40
0.8798940000000001
 50
0.0
 51
90.0
  0
ARC
  8
DETAIL
  6
CONTINUOUS
 62
     5
 10
54.337832000000049
 20
182.97804000000011
 30
0.0
 40
0.9998799999999999
 50
23.49856600000475
 51
90.0
  0
LINE
  8
DETAIL
  6
CONTINUOUS
 62
     5
 10
77.990640000000099
 20
172.72926699999991
 30
0.0
 11
77.993689000000018
 21
172.72837000000001
 31
0.0
  0
LINE
  8
DETAIL
  6
CONTINUOUS
 62
     5
 10
86.989868000000115
 20
0.0
 30
0.0
 11
84.041386999999986
 21
167.81769300000019
 31
0.0
  0
LINE
  8
DETAIL
  6
CONTINUOUS
 62
     5
 10
84.083640000000059
 20
166.4800200000002
 30
0.0
 11
84.064890000000105
 21
166.4800200000002
 31
0.0
  0
LINE
  8
DETAIL
  6
CONTINUOUS
 62
     5
 10
79.456760000000031
 20
172.70357000000001
 30
0.0
 11
79.486757000000011
 21
172.708437
 31
0.0
  0
LINE
  8
DETAIL
  6
CONTINUOUS
 62
     5
 10
79.486757000000011
 20
172.708437
 30
0.0
 11
79.490460000000098
 21
172.70917300000011
 31
0.0
  0
LINE
  8
DETAIL
  6
CONTINUOUS
 62
     5
 10
77.993689000000018
 20
172.72837000000001
 30
0.0
 11
78.018539000000033
 21
172.72214900000009
 31
0.0
  0
LINE
  8
DETAIL
  6
CONTINUOUS
 62
     5
 10
78.018539000000033
 20
172.72214900000009
 30
0.0
 11
78.040266999999972
 21
172.7170620000002
 31
0.0
  0
LINE
  8
DETAIL
  6
CONTINUOUS
 62
     5
 10
78.040266999999972
 20
172.7170620000002
 30
0.0
 11
78.067485000000033
 21
172.7109770000001
 31
0.0
  0
LINE
  8
DETAIL
  6
CONTINUOUS
 62
     5
 10
78.067485000000033
 20
172.7109770000001
 30
0.0
 11
78.099878999999987
 21
172.70424299999999
 31
0.0
  0
LINE
  8
DETAIL
  6
CONTINUOUS
 62
     5
 10
78.099878999999987
 20
172.70424299999999
 30
0.0
 11
78.136949000000072
 21
172.697169
 31
0.0
  0
LINE
  8
DETAIL
  6
CONTINUOUS
 62
     5
 10
78.136949000000072
 20
172.697169
 30
0.0
 11
78.178430000000048
 21
172.69007500000009
 31
0.0
  0
LINE
  8
DETAIL
  6
CONTINUOUS
 62
     5
 10
78.178430000000048
 20
172.69007500000009
 30
0.0
 11
78.224135000000047
 21
172.68327000000011
 31
0.0
  0
LINE
  8
DETAIL
  6
CONTINUOUS
 62
     5
 10
78.224135000000047
 20
172.68327000000011
 30
0.0
 11
78.273440000000051
 21
172.67710100000011
 31
0.0
  0
LINE
  8
DETAIL
  6
CONTINUOUS
 62
     5
 10
78.273440000000051
 20
172.67710100000011
 30
0.0
 11
78.325941000000057
 21
172.67195000000001
 31
0.0
  0
LINE
  8
DETAIL
  6
CONTINUOUS
 62
     5
 10
78.325941000000057
 20
172.67195000000001
 30
0.0
 11
78.380398000000014
 21
172.66802600000011
 31
0.0
  0
LINE
  8
DETAIL
  6
CONTINUOUS
 62
     5
 10
78.380398000000014
 20
172.66802600000011
 30
0.0
 11
78.435449000000062
 21
172.665708
 31
0.0
  0
LINE
  8
DETAIL
  6
CONTINUOUS
 62
     5
 10
78.435449000000062
 20
172.665708
 30
0.0
 11
78.490580000000136
 21
172.66487000000009
 31
0.0
  0
LINE
  8
DETAIL
  6
CONTINUOUS
 62
     5
 10
78.490580000000136
 20
172.66487000000009
 30
0.0
 11
79.003618000000074
 21
172.66491500000009
 31
0.0
  0
LINE
  8
DETAIL
  6
CONTINUOUS
 62
     5
 10
79.003618000000074
 20
172.66491500000009
 30
0.0
 11
79.01669000000004
 21
172.6650480000001
 31
0.0
  0
LINE
  8
DETAIL
  6
CONTINUOUS
 62
     5
 10
79.01669000000004
 20
172.6650480000001
 30
0.0
 11
79.029737000000068
 21
172.66527000000011
 31
0.0
  0
LINE
  8
DETAIL
  6
CONTINUOUS
 62
     5
 10
79.029737000000068
 20
172.66527000000011
 30
0.0
 11
79.042759000000046
 21
172.66558000000001
 31
0.0
  0
LINE
  8
DETAIL
  6
CONTINUOUS
 62
     5
 10
79.042759000000046
 20
172.66557599999999
 30
0.0
 11
79.101956000000087
 21
172.66781900000001
 31
0.0
  0
LINE
  8
DETAIL
  6
CONTINUOUS
 62
     5
 10
79.101956000000087
 20
172.66781900000001
 30
0.0
 11
79.159902000000102
 21
172.67092600000001
 31
0.0
  0
LINE
  8
DETAIL
  6
CONTINUOUS
 62
     5
 10
79.159902000000102
 20
172.67092600000001
 30
0.0
 11
79.215835000000084
 21
172.67502400000001
 31
0.0
  0
LINE
  8
DETAIL
  6
CONTINUOUS
 62
     5
 10
79.215835000000084
 20
172.67502400000001
 30
0.0
 11
79.268507999999997
 21
172.6797369999999
 31
0.0
  0
LINE
  8
DETAIL
  6
CONTINUOUS
 62
     5
 10
79.268507999999997
 20
172.6797369999999
 30
0.0
 11
79.316719000000035
 21
172.68481800000009
 31
0.0
  0
LINE
  8
DETAIL
  6
CONTINUOUS
 62
     5
 10
79.316719000000035
 20
172.68481800000009
 30
0.0
 11
79.360174000000029
 21
172.69000399999999
 31
0.0
  0
LINE
  8
DETAIL
  6
CONTINUOUS
 62
     5
 10
79.360174000000029
 20
172.69000399999999
 30
0.0
 11
79.398380000000088
 21
172.69503399999999
 31
0.0
  0
LINE
  8
DETAIL
  6
CONTINUOUS
 62
     5
 10
79.398380000000088
 20
172.69503399999999
 30
0.0
 11
79.43072200000006
 21
172.69964999999999
 31
0.0
  0
LINE
  8
DETAIL
  6
CONTINUOUS
 62
     5
 10
79.43072200000006
 20
172.69964999999999
 30
0.0
 11
79.456760000000031
 21
172.70357000000001
 31
0.0
  0
ARC
  8
DETAIL
  6
CONTINUOUS
 62
     5
 10
79.042759000000046
 20
167.72987000000001
 30
0.0
 40
4.9993999999999996
 50
1.005113000000794
 51
84.86222700000117
  0
LINE
  8
NOTE
  6
CENTER
 62
     4
 10
-69.0
 20
142.6996455835916
 30
0.0
 11
-69.0
 21
122.2920725835917
 31
0.0
  0
LINE
  8
NOTE
  6
CENTER
 62
     4
 10
-65.0
 20
6.965336000000093
 30
0.0
 11
-65.0
 21
-6.2991109999999253
 31
0.0
  0
LINE
  8
NOTE
  6
CENTER
 62
     4
 10
-98.5
 20
6.965336000000093
 30
0.0
 11
-98.5
 21
-6.2991109999999253
 31
0.0
  0
LINE
  8
NOTE
  6
CENTER
 62
     4
 10
65.0
 20
6.965336000000093
 30
0.0
 11
65.0
 21
-6.2991109999999253
 31
0.0
  0
LINE
  8
NOTE
  6
CENTER
 62
     4
 10
98.5
 20
6.965336000000093
 30
0.0
 11
98.5
 21
-6.2991109999999253
 31
0.0
  0
LINE
  8
DETAIL
  6
CONTINUOUS
 62
     5
 10
117.0
 20
-20.0
 30
0.0
 11
-117.0
 21
-20.0
 31
0.0
  0
LINE
  8
DETAIL
  6
CONTINUOUS
 62
     5
 10
-125.0
 20
0.0
 30
0.0
 11
-125.0
 21
-12.27462600000001
 31
0.0
  0
LINE
  8
DETAIL
  6
CONTINUOUS
 62
     5
 10
-125.0
 20
-12.27462600000001
 30
0.0
 11
-117.0
 21
-20.0
 31
0.0
  0
LINE
  8
DETAIL
  6
CONTINUOUS
 62
     5
 10
-125.0
 20
-12.27462600000001
 30
0.0
 11
125.0
 21
-12.27462600000001
 31
0.0
  0
LINE
  8
DETAIL
  6
CONTINUOUS
 62
     5
 10
125.0
 20
0.0
 30
0.0
 11
125.0
 21
-12.27462600000001
 31
0.0
  0
LINE
  8
DETAIL
  6
CONTINUOUS
 62
     5
 10
125.0
 20
-12.27462600000001
 30
0.0
 11
117.0
 21
-20.0
 31
0.0
  0
LINE
  8
OUTLINE
  6
CONTINUOUS
 62
     3
 10
117.0
 20
-20.0
 30
0.0
 11
-117.0
 21
-20.0
 31
0.0
  0
LINE
  8
OUTLINE
  6
CONTINUOUS
 62
     3
 10
-125.0
 20
0.0
 30
0.0
 11
-125.0
 21
-12.27462600000001
 31
0.0
  0
LINE
  8
OUTLINE
  6
CONTINUOUS
 62
     3
 10
-125.0
 20
-12.27462600000001
 30
0.0
 11
-117.0
 21
-20.0
 31
0.0
  0
LINE
  8
OUTLINE
  6
CONTINUOUS
 62
     3
 10
125.0000000000001
 20
0.0
 30
0.0
 11
125.0
 21
-12.27462600000001
 31
0.0
  0
LINE
  8
OUTLINE
  6
CONTINUOUS
 62
     3
 10
125.0
 20
-12.27462600000001
 30
0.0
 11
117.0
 21
-20.0
 31
0.0
  0
LINE
  8
BASIS
  6
DASHDOT
 62
     6
 10
0.0
 20
195.20970600000001
 30
0.0
 11
0.0
 21
-32.073361999999968
 31
0.0
  0
LINE
  8
DETAIL
  6
CONTINUOUS
 62
     5
 10
36.703908849371373
 20
132.3664052272691
 30
0.0
 11
36.642528187668518
 21
139.399428283535
 31
0.0
  0
LINE
  8
DETAIL
  6
CONTINUOUS
 62
     5
 10
47.450215409306573
 20
131.37231758359169
 30
0.0
 11
47.057844580008243
 21
172.72927000000001
 31
0.0
  0
LINE
  8
DETAIL
  6
CONTINUOUS
 62
     5
 10
44.516854918184443
 20
131.37231758359169
 30
0.0
 11
44.892306446217958
 21
172.72927000000001
 31
0.0
  0
LINE
  8
DETAIL
  6
CONTINUOUS
 62
     5
 10
52.880413166244693
 20
172.72927000000001
 30
0.0
 11
52.539592359588603
 21
131.37231758359169
 31
0.0
  0
LINE
  8
DETAIL
  6
CONTINUOUS
 62
     5
 10
55.091565388172057
 20
172.72927000000001
 30
0.0
 11
55.472952850710612
 21
131.37231758359169
 31
0.0
  0
LINE
  8
DETAIL
  6
CONTINUOUS
 62
     5
 10
-84.68171677006103
 20
131.37231758359169
 30
0.0
 11
84.681715770060691
 21
131.37231758359169
 31
0.0
  0
ARC
  8
DETAIL
  6
CONTINUOUS
 62
     5
 10
36.14112714613691
 20
139.39505502499739
 30
0.0
 40
0.5014224266582994
 50
0.5000019999988606
 51
90.0
  0
ARC
  8
DETAIL
  6
CONTINUOUS
 62
     5
 10
37.706710932432998
 20
132.3751570906268
 30
0.0
 40
1.002839507034768
 50
180.4999999999981
 51
270.0
  0
LINE
  8
DETAIL
  6
CONTINUOUS
 62
     5
 10
24.771152151935208
 20
139.89647210537359
 30
0.0
 11
36.14112714613691
 21
139.89647210537359
 31
0.0
  0
LINE
  8
DETAIL
  6
CONTINUOUS
 62
     5
 10
24.771296501544381
 20
139.89647745165581
 30
0.0
 11
24.630170700048438
 21
139.9019092739961
 31
0.0
  0
LINE
  8
DETAIL
  6
CONTINUOUS
 62
     5
 10
24.630170700048438
 20
139.9019092739961
 30
0.0
 11
24.42446181403227
 21
139.92890799724319
 31
0.0
  0
LINE
  8
DETAIL
  6
CONTINUOUS
 62
     5
 10
24.42446181403227
 20
139.92890799724319
 30
0.0
 11
24.218827775964201
 21
139.97810448265321
 31
0.0
  0
LINE
  8
DETAIL
  6
CONTINUOUS
 62
     5
 10
24.218827775964201
 20
139.97810448265321
 30
0.0
 11
24.013658864411699
 21
140.0490977590882
 31
0.0
  0
LINE
  8
DETAIL
  6
CONTINUOUS
 62
     5
 10
24.013658864411699
 20
140.0490977590882
 30
0.0
 11
23.809596633200162
 21
140.14156170335761
 31
0.0
  0
LINE
  8
DETAIL
  6
CONTINUOUS
 62
     5
 10
23.809596633200162
 20
140.14156170335761
 30
0.0
 11
23.60776914779353
 21
140.2549242633045
 31
0.0
  0
LINE
  8
DETAIL
  6
CONTINUOUS
 62
     5
 10
23.60776914779353
 20
140.2549242633045
 30
0.0
 11
23.409240318276829
 21
140.38860804049139
 31
0.0
  0
LINE
  8
DETAIL
  6
CONTINUOUS
 62
     5
 10
23.409240318276829
 20
140.38860804049139
 30
0.0
 11
23.215132863835152
 21
140.54186455546201
 31
0.0
  0
LINE
  8
DETAIL
  6
CONTINUOUS
 62
     5
 10
23.215132863835152
 20
140.54186455546201
 30
0.0
 11
23.026542772242919
 21
140.71388651966029
 31
0.0
  0
LINE
  8
DETAIL
  6
CONTINUOUS
 62
     5
 10
23.026542772242919
 20
140.71388651966029
 30
0.0
 11
22.844410989100879
 21
140.90388802965609
 31
0.0
  0
LINE
  8
DETAIL
  6
CONTINUOUS
 62
     5
 10
22.844410989100879
 20
140.90388802965609
 30
0.0
 11
22.669667767452669
 21
141.11107248945709
 31
0.0
  0
LINE
  8
DETAIL
  6
CONTINUOUS
 62
     5
 10
22.669667767452669
 20
141.11107248945709
 30
0.0
 11
22.50317920494933
 21
141.33463261050679
 31
0.0
  0
LINE
  8
DETAIL
  6
CONTINUOUS
 62
     5
 10
22.50317920494933
 20
141.33463261050679
 30
0.0
 11
22.345795360405759
 21
141.5737664505308
 31
0.0
  0
LINE
  8
DETAIL
  6
CONTINUOUS
 62
     5
 10
22.345795360405759
 20
141.5737664505308
 30
0.0
 11
22.198307483530812
 21
141.82766137469051
 31
0.0
  0
LINE
  8
DETAIL
  6
CONTINUOUS
 62
     5
 10
22.198307483530812
 20
141.82766137469051
 30
0.0
 11
22.06151751659991
 21
142.0955100944293
 31
0.0
  0
LINE
  8
DETAIL
  6
CONTINUOUS
 62
     5
 10
15.027243430384489
 20
146.1483285381685
 30
0.0
 11
15.423354797533079
 21
146.0453163798467
 31
0.0
  0
LINE
  8
DETAIL
  6
CONTINUOUS
 62
     5
 10
15.423354797533079
 20
146.0453163798467
 30
0.0
 11
15.81972278621083
 21
145.9718851988963
 31
0.0
  0
LINE
  8
DETAIL
  6
CONTINUOUS
 62
     5
 10
15.81972278621083
 20
145.9718851988963
 30
0.0
 11
16.213968301000481
 21
145.92805638044479
 31
0.0
  0
LINE
  8
DETAIL
  6
CONTINUOUS
 62
     5
 10
21.68944837884408
 20
143.06190934450299
 30
0.0
 11
21.569301387253741
 21
143.36593100711119
 31
0.0
  0
LINE
  8
DETAIL
  6
CONTINUOUS
 62
     5
 10
21.569301387253741
 20
143.36593100711119
 30
0.0
 11
21.433286631188029
 21
143.6587949795377
 31
0.0
  0
LINE
  8
DETAIL
  6
CONTINUOUS
 62
     5
 10
21.433286631188029
 20
143.6587949795377
 30
0.0
 11
21.28196547024163
 21
143.93883856813341
 31
0.0
  0
LINE
  8
DETAIL
  6
CONTINUOUS
 62
     5
 10
21.28196547024163
 20
143.93883856813341
 30
0.0
 11
21.115920649130889
 21
144.20463431564909
 31
0.0
  0
LINE
  8
DETAIL
  6
CONTINUOUS
 62
     5
 10
21.115920649130889
 20
144.20463431564909
 30
0.0
 11
20.935889954748969
 21
144.4547654573995
 31
0.0
  0
LINE
  8
DETAIL
  6
CONTINUOUS
 62
     5
 10
20.935889954748969
 20
144.4547654573995
 30
0.0
 11
20.742718099627151
 21
144.6879168080543
 31
0.0
  0
LINE
  8
DETAIL
  6
CONTINUOUS
 62
     5
 10
20.742718099627151
 20
144.6879168080543
 30
0.0
 11
20.537335336802808
 21
144.90296564842919
 31
0.0
  0
LINE
  8
DETAIL
  6
CONTINUOUS
 62
     5
 10
20.537335336802808
 20
144.90296564842919
 30
0.0
 11
20.32087507802532
 21
145.09878391305739
 31
0.0
  0
LINE
  8
DETAIL
  6
CONTINUOUS
 62
     5
 10
20.32087507802532
 20
145.09878391305739
 30
0.0
 11
20.094198074668039
 21
145.2747460869646
 31
0.0
  0
LINE
  8
DETAIL
  6
CONTINUOUS
 62
     5
 10
20.094198074668039
 20
145.2747460869646
 30
0.0
 11
19.85839496822496
 21
145.43014646094929
 31
0.0
  0
LINE
  8
DETAIL
  6
CONTINUOUS
 62
     5
 10
19.85839496822496
 20
145.43014646094929
 30
0.0
 11
19.614347895198531
 21
145.5645733713111
 31
0.0
  0
LINE
  8
DETAIL
  6
CONTINUOUS
 62
     5
 10
19.614347895198531
 20
145.5645733713111
 30
0.0
 11
19.363035225162779
 21
145.67759376922069
 31
0.0
  0
LINE
  8
DETAIL
  6
CONTINUOUS
 62
     5
 10
19.363035225162779
 20
145.67759376922069
 30
0.0
 11
19.10552621448517
 21
145.76884945379609
 31
0.0
  0
LINE
  8
DETAIL
  6
CONTINUOUS
 62
     5
 10
19.10552621448517
 20
145.76884945379609
 30
0.0
 11
18.84294892863306
 21
145.83804103325431
 31
0.0
  0
LINE
  8
DETAIL
  6
CONTINUOUS
 62
     5
 10
18.84294892863306
 20
145.83804103325431
 30
0.0
 11
18.576367277688291
 21
145.88498138773161
 31
0.0
  0
LINE
  8
DETAIL
  6
CONTINUOUS
 62
     5
 10
18.576367277688291
 20
145.88498138773161
 30
0.0
 11
18.306829132890812
 21
145.90954755274549
 31
0.0
  0
LINE
  8
DETAIL
  6
CONTINUOUS
 62
     5
 10
18.306829132890812
 20
145.90954755274549
 30
0.0
 11
18.145638735681128
 21
145.9135251864279
 31
0.0
  0
LINE
  8
DETAIL
  6
CONTINUOUS
 62
     5
 10
22.06151751659991
 20
142.0955100944293
 30
0.0
 11
21.936131168813969
 21
142.37662828567269
 31
0.0
  0
LINE
  8
DETAIL
  6
CONTINUOUS
 62
     5
 10
21.936131168813969
 20
142.37662828567269
 30
0.0
 11
21.822811379122872
 21
142.67050805164729
 31
0.0
  0
LINE
  8
DETAIL
  6
CONTINUOUS
 62
     5
 10
21.822811379122872
 20
142.67050805164729
 30
0.0
 11
21.68944837884408
 21
143.06190934450299
 31
0.0
  0
LINE
  8
DETAIL
  6
CONTINUOUS
 62
     5
 10
16.596954546254661
 20
145.9135305327097
 30
0.0
 11
18.14557458029913
 21
145.9135251864279
 31
0.0
  0
LINE
  8
DETAIL
  6
CONTINUOUS
 62
     5
 10
16.597195128936729
 20
145.91353587899141
 30
0.0
 11
16.296718051182889
 21
145.92279563912291
 31
0.0
  0
LINE
  8
DETAIL
  6
CONTINUOUS
 62
     5
 10
16.213968301000481
 20
145.92805638044479
 30
0.0
 11
16.596954546254661
 21
145.9135305327097
 31
0.0
  0
LINE
  8
DETAIL
  6
CONTINUOUS
 62
     5
 10
16.296718051182889
 20
145.92279563912291
 30
0.0
 11
15.89666647432364
 21
145.96218704365489
 31
0.0
  0
LINE
  8
DETAIL
  6
CONTINUOUS
 62
     5
 10
15.89666647432364
 20
145.96218704365489
 30
0.0
 11
15.49620858004675
 21
146.03237303153369
 31
0.0
  0
LINE
  8
DETAIL
  6
CONTINUOUS
 62
     5
 10
15.49620858004675
 20
146.03237303153369
 30
0.0
 11
15.09683598097979
 21
146.13310232751351
 31
0.0
  0
LINE
  8
DETAIL
  6
CONTINUOUS
 62
     5
 10
15.09683598097979
 20
146.13310232751351
 30
0.0
 11
14.7001365228308
 21
146.264048808403
 31
0.0
  0
LINE
  8
DETAIL
  6
CONTINUOUS
 62
     5
 10
14.7001365228308
 20
146.264048808403
 30
0.0
 11
14.307831708343659
 21
146.42471526999171
 31
0.0
  0
LINE
  8
DETAIL
  6
CONTINUOUS
 62
     5
 10
14.307831708343659
 20
146.42471526999171
 30
0.0
 11
13.921669771682449
 21
146.6145189675598
 31
0.0
  0
LINE
  8
DETAIL
  6
CONTINUOUS
 62
     5
 10
13.921669771682449
 20
146.6145189675598
 30
0.0
 11
13.543393600723331
 21
146.83271676793311
 31
0.0
  0
LINE
  8
DETAIL
  6
CONTINUOUS
 62
     5
 10
13.543393600723331
 20
146.83271676793311
 30
0.0
 11
13.174746083339191
 21
147.0784746511456
 31
0.0
  0
LINE
  8
DETAIL
  6
CONTINUOUS
 62
     5
 10
13.174746083339191
 20
147.0784746511456
 30
0.0
 11
12.81741664459491
 21
147.35082494018619
 31
0.0
  0
LINE
  8
DETAIL
  6
CONTINUOUS
 62
     5
 10
12.81741664459491
 20
147.35082494018619
 30
0.0
 11
12.4730679781344
 21
147.64873045637961
 31
0.0
  0
LINE
  8
DETAIL
  6
CONTINUOUS
 62
     5
 10
12.4730679781344
 20
147.64873045637961
 30
0.0
 11
12.143303968509709
 21
147.9710364028501
 31
0.0
  0
LINE
  8
DETAIL
  6
CONTINUOUS
 62
     5
 10
12.143303968509709
 20
147.9710364028501
 30
0.0
 11
11.829675037451119
 21
148.31653451990411
 31
0.0
  0
LINE
  8
DETAIL
  6
CONTINUOUS
 62
     5
 10
11.829675037451119
 20
148.31653451990411
 30
0.0
 11
11.533667451307
 21
148.68389892964711
 31
0.0
  0
LINE
  8
DETAIL
  6
CONTINUOUS
 62
     5
 10
11.533667451307
 20
148.68389892964711
 30
0.0
 11
11.256703321046871
 21
149.07177167649411
 31
0.0
  0
LINE
  8
DETAIL
  6
CONTINUOUS
 62
     5
 10
11.256703321046871
 20
149.07177167649411
 30
0.0
 11
11.0001031782806
 21
149.47870926435141
 31
0.0
  0
LINE
  8
DETAIL
  6
CONTINUOUS
 62
     5
 10
11.0001031782806
 20
149.47870926435141
 30
0.0
 11
10.765144784366839
 21
149.90322008058729
 31
0.0
  0
LINE
  8
DETAIL
  6
CONTINUOUS
 62
     5
 10
10.765144784366839
 20
149.90322008058729
 30
0.0
 11
10.55297224361664
 21
150.34375904975289
 31
0.0
  0
LINE
  8
DETAIL
  6
CONTINUOUS
 62
     5
 10
10.55297224361664
 20
150.34375904975289
 30
0.0
 11
10.36468154380759
 21
150.7987436724261
 31
0.0
  0
LINE
  8
DETAIL
  6
CONTINUOUS
 62
     5
 10
10.36468154380759
 20
150.7987436724261
 30
0.0
 11
10.20122432310211
 21
151.26658075662149
 31
0.0
  0
LINE
  8
DETAIL
  6
CONTINUOUS
 62
     5
 10
10.20122432310211
 20
151.26658075662149
 30
0.0
 11
10.06350410313212
 21
151.745682456635
 31
0.0
  0
LINE
  8
DETAIL
  6
CONTINUOUS
 62
     5
 10
10.06350410313212
 20
151.745682456635
 30
0.0
 11
9.9778833996083449
 21
152.1099032526613
 31
0.0
  0
LINE
  8
DETAIL
  6
CONTINUOUS
 62
     5
 10
18.145638735681128
 20
145.9135251864279
 30
0.0
 11
18.186275823879551
 21
145.90928558493579
 31
0.0
  0
LINE
  8
DETAIL
  6
CONTINUOUS
 62
     5
 10
16.604690616063522
 20
145.9135251864279
 30
0.0
 11
16.64329611716596
 21
145.90928558493579
 31
0.0
  0
LINE
  8
DETAIL
  6
CONTINUOUS
 62
     5
 10
9.9778833996083449
 20
152.1099032526613
 30
0.0
 11
8.9594167107800331
 21
156.8603419736971
 31
0.0
  0
LINE
  8
DETAIL
  6
CONTINUOUS
 62
     5
 10
8.9594167107800331
 20
156.8603419736971
 30
0.0
 11
7.9088135218672733
 21
161.6983848688175
 31
0.0
  0
LINE
  8
DETAIL
  6
CONTINUOUS
 62
     5
 10
7.9088135218672733
 20
161.6983848688175
 30
0.0
 11
6.8508057326166636
 21
166.50840255457931
 31
0.0
  0
LINE
  8
DETAIL
  6
CONTINUOUS
 62
     5
 10
6.8508057326166636
 20
166.50840255457931
 30
0.0
 11
5.7855109612304432
 21
171.29028275906401
 31
0.0
  0
LINE
  8
DETAIL
  6
CONTINUOUS
 62
     5
 10
5.7855109612304432
 20
171.29028275906401
 30
0.0
 11
4.7130200944991429
 21
176.04387044009829
 31
0.0
  0
LINE
  8
DETAIL
  6
CONTINUOUS
 62
     5
 10
4.7130200944991429
 20
176.04387044009829
 30
0.0
 11
3.662315326231123
 21
180.64326600684171
 31
0.0
  0
LINE
  8
DETAIL
  6
CONTINUOUS
 62
     5
 10
3.6623099799504639
 20
180.64326600684171
 30
0.0
 11
3.6070347720972218
 21
180.86165092707881
 31
0.0
  0
LINE
  8
DETAIL
  6
CONTINUOUS
 62
     5
 10
3.6070347720972218
 20
180.86165092707881
 30
0.0
 11
3.5036964905845021
 21
181.19150582349491
 31
0.0
  0
LINE
  8
DETAIL
  6
CONTINUOUS
 62
     5
 10
3.5036964905845021
 20
181.19150582349491
 30
0.0
 11
3.3784063758712359
 21
181.51318090870939
 31
0.0
  0
LINE
  8
DETAIL
  6
CONTINUOUS
 62
     5
 10
3.3784063758712359
 20
181.51318090870939
 30
0.0
 11
3.2316455933266748
 21
181.8253396122648
 31
0.0
  0
LINE
  8
DETAIL
  6
CONTINUOUS
 62
     5
 10
3.2316455933266748
 20
181.8253396122648
 30
0.0
 11
3.063922039720183
 21
182.12662397857511
 31
0.0
  0
LINE
  8
DETAIL
  6
CONTINUOUS
 62
     5
 10
3.063922039720183
 20
182.12662397857511
 30
0.0
 11
2.8758986540019582
 21
182.4156225892375
 31
0.0
  0
LINE
  8
DETAIL
  6
CONTINUOUS
 62
     5
 10
2.8758986540019582
 20
182.4156225892375
 30
0.0
 11
2.6682918379358398
 21
182.69094006469459
 31
0.0
  0
LINE
  8
DETAIL
  6
CONTINUOUS
 62
     5
 10
2.6682918379358398
 20
182.69094006469459
 30
0.0
 11
2.4419142263618601
 21
182.9512879510244
 31
0.0
  0
LINE
  8
DETAIL
  6
CONTINUOUS
 62
     5
 10
2.4419142263618601
 20
182.9512879510244
 30
0.0
 11
2.197642609497279
 21
183.19539383315109
 31
0.0
  0
LINE
  8
DETAIL
  6
CONTINUOUS
 62
     5
 10
2.197642609497279
 20
183.19539383315109
 30
0.0
 11
1.936444664357396
 21
183.42207618279031
 31
0.0
  0
LINE
  8
DETAIL
  6
CONTINUOUS
 62
     5
 10
1.659346877049757
 20
183.6302015881937
 30
0.0
 11
1.3674986981720849
 21
183.81871683184039
 31
0.0
  0
LINE
  8
DETAIL
  6
CONTINUOUS
 62
     5
 10
1.3674986981720849
 20
183.81871683184039
 30
0.0
 11
1.062103041133696
 21
183.9866221590286
 31
0.0
  0
LINE
  8
DETAIL
  6
CONTINUOUS
 62
     5
 10
1.062103041133696
 20
183.9866221590286
 30
0.0
 11
0.7444323210107768
 21
184.13303543325529
 31
0.0
  0
LINE
  8
DETAIL
  6
CONTINUOUS
 62
     5
 10
0.7444323210107768
 20
184.13303543325529
 30
0.0
 11
0.4158231082602697
 21
184.25714936596489
 31
0.0
  0
LINE
  8
DETAIL
  6
CONTINUOUS
 62
     5
 10
0.4158231082602697
 20
184.25714936596489
 30
0.0
 11
0.0776921675693529
 21
184.3582529016733
 31
0.0
  0
LINE
  8
DETAIL
  6
CONTINUOUS
 62
     5
 10
0.0776921675693529
 20
184.3582529016733
 30
0.0
 11
-0.2684956198401096
 21
184.43570983284209
 31
0.0
  0
LINE
  8
DETAIL
  6
CONTINUOUS
 62
     5
 10
-0.2684956198401096
 20
184.43570983284209
 30
0.0
 11
-0.6213609132570355
 21
184.48901226269851
 31
0.0
  0
LINE
  8
DETAIL
  6
CONTINUOUS
 62
     5
 10
-0.6213609132570355
 20
184.48901226269851
 30
0.0
 11
-0.9794922942782023
 21
184.51768971844049
 31
0.0
  0
LINE
  8
DETAIL
  6
CONTINUOUS
 62
     5
 10
-0.9794922942782023
 20
184.51768971844049
 30
0.0
 11
-1.2128307647959671
 21
184.52294511348029
 31
0.0
  0
LINE
  8
DETAIL
  6
CONTINUOUS
 62
     5
 10
-22.38698311563121
 20
184.52295045976231
 30
0.0
 11
-22.401466193111901
 21
184.5187055119882
 31
0.0
  0
LINE
  8
DETAIL
  6
CONTINUOUS
 62
     5
 10
-22.38698311563121
 20
184.52294511348029
 30
0.0
 11
-22.630960686993379
 21
184.51719786051191
 31
0.0
  0
LINE
  8
DETAIL
  6
CONTINUOUS
 62
     5
 10
-22.630960686993379
 20
184.51719786051191
 30
0.0
 11
-22.989054644041289
 21
184.48777727159541
 31
0.0
  0
LINE
  8
DETAIL
  6
CONTINUOUS
 62
     5
 10
-22.989054644041289
 20
184.48777727159541
 30
0.0
 11
-23.341813011822179
 21
184.4337317085643
 31
0.0
  0
LINE
  8
DETAIL
  6
CONTINUOUS
 62
     5
 10
-23.341813011822179
 20
184.4337317085643
 30
0.0
 11
-23.687840410778449
 21
184.35554233678479
 31
0.0
  0
LINE
  8
DETAIL
  6
CONTINUOUS
 62
     5
 10
-23.687840410778449
 20
184.35554233678479
 30
0.0
 11
-24.025746807631212
 21
184.25371705302931
 31
0.0
  0
LINE
  8
DETAIL
  6
CONTINUOUS
 62
     5
 10
-24.025746807631212
 20
184.25371705302931
 30
0.0
 11
-24.354072667443919
 21
184.1289081036816
 31
0.0
  0
LINE
  8
DETAIL
  6
CONTINUOUS
 62
     5
 10
-24.354072667443919
 20
184.1289081036816
 30
0.0
 11
-24.671411918092641
 21
183.9818158516623
 31
0.0
  0
LINE
  8
DETAIL
  6
CONTINUOUS
 62
     5
 10
-24.671411918092641
 20
183.9818158516623
 30
0.0
 11
-24.976438681685181
 21
183.81325293180919
 31
0.0
  0
LINE
  8
DETAIL
  6
CONTINUOUS
 62
     5
 10
-24.976438681685181
 20
183.81325293180919
 30
0.0
 11
-25.26786985058197
 21
183.624112173188
 31
0.0
  0
LINE
  8
DETAIL
  6
CONTINUOUS
 62
     5
 10
-25.26786985058197
 20
183.624112173188
 30
0.0
 11
-25.544518550213301
 21
183.41538798421959
 31
0.0
  0
LINE
  8
DETAIL
  6
CONTINUOUS
 62
     5
 10
-25.544518550213301
 20
183.41538798421959
 30
0.0
 11
-25.80523532999041
 21
183.1881282361426
 31
0.0
  0
LINE
  8
DETAIL
  6
CONTINUOUS
 62
     5
 10
-25.80523532999041
 20
183.1881282361426
 30
0.0
 11
-26.04899370379837
 21
182.94347703326901
 31
0.0
  0
LINE
  8
DETAIL
  6
CONTINUOUS
 62
     5
 10
-26.04899370379837
 20
182.94347703326901
 30
0.0
 11
-26.27483134090846
 21
182.68262125016511
 31
0.0
  0
LINE
  8
DETAIL
  6
CONTINUOUS
 62
     5
 10
-22.386977769350441
 20
184.52295045976231
 30
0.0
 11
-1.2128361110783319
 21
184.52295045976231
 31
0.0
  0
LINE
  8
DETAIL
  6
CONTINUOUS
 62
     5
 10
-27.262123860377532
 20
180.64326600684171
 30
0.0
 11
-28.622859512032282
 21
174.67591196168951
 31
0.0
  0
LINE
  8
DETAIL
  6
CONTINUOUS
 62
     5
 10
-26.27483134090846
 20
182.68262125016511
 30
0.0
 11
-26.481860758536069
 21
182.4068279556252
 31
0.0
  0
LINE
  8
DETAIL
  6
CONTINUOUS
 62
     5
 10
-26.481860758536069
 20
182.4068279556252
 30
0.0
 11
-26.66928001440704
 21
182.1173962961345
 31
0.0
  0
LINE
  8
DETAIL
  6
CONTINUOUS
 62
     5
 10
-26.66928001440704
 20
182.1173962961345
 30
0.0
 11
-26.836372706756041
 21
181.81572699753201
 31
0.0
  0
LINE
  8
DETAIL
  6
CONTINUOUS
 62
     5
 10
-26.836372706756041
 20
181.81572699753201
 30
0.0
 11
-26.982481242918649
 21
181.50322613193981
 31
0.0
  0
LINE
  8
DETAIL
  6
CONTINUOUS
 62
     5
 10
-26.982481242918649
 20
181.50322613193981
 30
0.0
 11
-27.107092379839401
 21
181.18126234750659
 31
0.0
  0
LINE
  8
DETAIL
  6
CONTINUOUS
 62
     5
 10
-27.107092379839401
 20
181.18126234750659
 30
0.0
 11
-27.209735644714439
 21
180.85117221468991
 31
0.0
  0
LINE
  8
DETAIL
  6
CONTINUOUS
 62
     5
 10
-27.209735644714439
 20
180.85117221468991
 30
0.0
 11
-27.262123860377532
 21
180.64326600684171
 31
0.0
  0
LINE
  8
DETAIL
  6
CONTINUOUS
 62
     5
 10
-28.622859512032282
 20
174.67591196168951
 30
0.0
 11
-29.997196104666731
 21
168.5511419943023
 31
0.0
  0
LINE
  8
DETAIL
  6
CONTINUOUS
 62
     5
 10
-29.997196104666731
 20
168.5511419943023
 30
0.0
 11
-31.358503808477739
 21
162.38464964350501
 31
0.0
  0
LINE
  8
DETAIL
  6
CONTINUOUS
 62
     5
 10
-31.358503808477739
 20
162.38464964350501
 30
0.0
 11
-32.706590157319852
 21
156.17671291595249
 31
0.0
  0
LINE
  8
DETAIL
  6
CONTINUOUS
 62
     5
 10
-32.706590157319852
 20
156.17671291595249
 30
0.0
 11
-34.041241299921012
 21
149.92760981830099
 31
0.0
  0
LINE
  8
DETAIL
  6
CONTINUOUS
 62
     5
 10
-34.041241299921012
 20
149.92760981830099
 30
0.0
 11
-35.335928985833448
 21
143.76356606458219
 31
0.0
  0
LINE
  8
DETAIL
  6
CONTINUOUS
 62
     5
 10
-35.335928985833448
 20
143.76356606458219
 30
0.0
 11
-35.38752060550371
 21
143.53878164499289
 31
0.0
  0
LINE
  8
DETAIL
  6
CONTINUOUS
 62
     5
 10
-35.38752060550371
 20
143.53878164499289
 30
0.0
 11
-35.481385275614002
 21
143.20762760209189
 31
0.0
  0
LINE
  8
DETAIL
  6
CONTINUOUS
 62
     5
 10
-35.481385275614002
 20
143.20762760209189
 30
0.0
 11
-35.594469828905403
 21
142.8851879985755
 31
0.0
  0
LINE
  8
DETAIL
  6
CONTINUOUS
 62
     5
 10
-35.594469828905403
 20
142.8851879985755
 30
0.0
 11
-35.726089941306327
 21
142.57277267349289
 31
0.0
  0
LINE
  8
DETAIL
  6
CONTINUOUS
 62
     5
 10
-35.726089941306327
 20
142.57277267349289
 30
0.0
 11
-35.875518518485251
 21
142.27172354358291
 31
0.0
  0
LINE
  8
DETAIL
  6
CONTINUOUS
 62
     5
 10
-35.875518518485251
 20
142.27172354358291
 30
0.0
 11
-36.041900155351072
 21
141.98337717930349
 31
0.0
  0
LINE
  8
DETAIL
  6
CONTINUOUS
 62
     5
 10
-36.041900155351072
 20
141.98337717930349
 30
0.0
 11
-36.224336676555588
 21
141.70904341970359
 31
0.0
  0
LINE
  8
DETAIL
  6
CONTINUOUS
 62
     5
 10
-36.224336676555588
 20
141.70904341970359
 30
0.0
 11
-36.421806942269313
 21
141.44998933357689
 31
0.0
  0
LINE
  8
DETAIL
  6
CONTINUOUS
 62
     5
 10
-36.421806942269313
 20
141.44998933357689
 30
0.0
 11
-36.633247042408577
 21
141.20743387318109
 31
0.0
  0
LINE
  8
DETAIL
  6
CONTINUOUS
 62
     5
 10
-36.633247042408577
 20
141.20743387318109
 30
0.0
 11
-36.857496833815162
 21
140.98251579654621
 31
0.0
  0
LINE
  8
DETAIL
  6
CONTINUOUS
 62
     5
 10
-36.857496833815162
 20
140.98251579654621
 30
0.0
 11
-37.093348056793161
 21
140.77633643772921
 31
0.0
  0
LINE
  8
DETAIL
  6
CONTINUOUS
 62
     5
 10
-37.093348056793161
 20
140.77633643772921
 30
0.0
 11
-37.339538988835557
 21
140.58987416630541
 31
0.0
  0
LINE
  8
DETAIL
  6
CONTINUOUS
 62
     5
 10
-37.339538988835557
 20
140.58987416630541
 30
0.0
 11
-37.594759790887913
 21
140.42405388903191
 31
0.0
  0
LINE
  8
DETAIL
  6
CONTINUOUS
 62
     5
 10
-37.594759790887913
 20
140.42405388903191
 30
0.0
 11
-37.857657853651183
 21
140.27968824074611
 31
0.0
  0
LINE
  8
DETAIL
  6
CONTINUOUS
 62
     5
 10
-37.857657853651183
 20
140.27968824074611
 30
0.0
 11
-38.126864528976057
 21
140.1575257009051
 31
0.0
  0
LINE
  8
DETAIL
  6
CONTINUOUS
 62
     5
 10
-38.126864528976057
 20
140.1575257009051
 30
0.0
 11
-38.400995129866367
 21
140.0581703993557
 31
0.0
  0
LINE
  8
DETAIL
  6
CONTINUOUS
 62
     5
 10
-38.400995129866367
 20
140.0581703993557
 30
0.0
 11
-38.678670315611157
 21
139.9821623105627
 31
0.0
  0
LINE
  8
DETAIL
  6
CONTINUOUS
 62
     5
 10
-38.678670315611157
 20
139.9821623105627
 30
0.0
 11
-38.958644402541267
 21
139.9299024056636
 31
0.0
  0
LINE
  8
DETAIL
  6
CONTINUOUS
 62
     5
 10
-59.740919641437813
 20
139.89647210537359
 30
0.0
 11
-39.420098026231237
 21
139.89647745165581
 31
0.0
  0
LINE
  8
DETAIL
  6
CONTINUOUS
 62
     5
 10
-38.958644402541267
 20
139.9299024056636
 30
0.0
 11
-39.239757247504599
 21
139.9017328466955
 31
0.0
  0
LINE
  8
DETAIL
  6
CONTINUOUS
 62
     5
 10
-39.239757247504599
 20
139.9017328466955
 30
0.0
 11
-39.420295838659293
 21
139.89648279793761
 31
0.0
  0
LINE
  8
DETAIL
  6
CONTINUOUS
 62
     5
 10
-52.614988361583407
 20
139.896473980162
 30
0.0
 11
-52.891252385760247
 21
172.72927000000001
 31
0.0
  0
LINE
  8
DETAIL
  6
CONTINUOUS
 62
     5
 10
-55.399925496217747
 20
139.8964732474623
 30
0.0
 11
-55.091566388172403
 21
172.72927000000001
 31
0.0
  0
LINE
  8
DETAIL
  6
CONTINUOUS
 62
     5
 10
-47.0584784428288
 20
172.72927000000001
 30
0.0
 11
-47.367769545793983
 21
139.89647536067261
 31
0.0
  0
LINE
  8
DETAIL
  6
CONTINUOUS
 62
     5
 10
-44.87846401207662
 20
172.72927000000001
 30
0.0
 11
-44.600689112182408
 21
139.8964760886744
 31
0.0
  0
ARC
  8
DETAIL
  6
CONTINUOUS
 62
     5
 10
-59.740941026565572
 20
139.39505502499739
 30
0.0
 40
0.5014224266582994
 50
90.0
 51
179.499998999995
  0
LINE
  8
DETAIL
  6
CONTINUOUS
 62
     5
 10
-60.303717383517778
 20
132.3664052272691
 30
0.0
 11
-60.242342068097173
 21
139.399428283535
 31
0.0
  0
ARC
  8
DETAIL
  6
CONTINUOUS
 62
     5
 10
-61.306519466579402
 20
132.3751570906268
 30
0.0
 40
1.002839507034768
 50
270.0
 51
359.50000000000188
  0
LINE
  8
DETAIL
  6
CONTINUOUS
 62
     5
 10
1.659346877049757
 20
183.6302015881937
 30
0.0
 11
1.936444664357396
 21
183.42207618279031
 31
0.0
  0
LINE
  8
DETAIL
  6
CONTINUOUS
 62
     5
 10
-27.164043322856511
 20
180.9981140000001
 30
0.0
 11
-36.006211000000008
 21
180.9981140000001
 31
0.0
  0
LINE
  8
DETAIL
  6
CONTINUOUS
 62
     5
 10
-29.059666330076539
 20
172.72927000000001
 30
0.0
 11
-77.990639999999871
 21
172.72927000000001
 31
0.0
  0
LINE
  8
DETAIL
  6
CONTINUOUS
 62
     5
 10
5.4608507725893114
 20
172.72927000000001
 30
0.0
 11
77.990640000000099
 21
172.72927000000001
 31
0.0
  0
TEXT
  8
NOTE
  6
CONTINUOUS
 62
     4
 10
-619.46028428630405
 20
295.69681299841682
 30
0.0
 40
63.999999999999993
  1
8-φ5
 41
0.9
  0
LINE
  8
NOTE
  6
CONTINUOUS
 62
     4
 10
-333.78356798458663
 20
264.8116364789787
 30
0.0
 11
-666.20267155666488
 21
264.81163671000218
 31
0.0
  0
TEXT
  8
ETC
  6
CONTINUOUS
 62
    61
 10
351.93239613821822
 20
424.3845332892588
 30
0.0
 40
64.0
  1
VD-10ZAVC6_3
 41
0.9
  0
TEXT
  8
ETC
  6
CONTINUOUS
 62
    61
 10
347.74640213821777
 20
306.42922327442761
 30
0.0
 40
64.0
  1
換気扇
 41
0.9
  0
TEXT
  8
ETC
  6
CONTINUOUS
 62
    61
 10
398.44780038677391
 20
198.2804503882023
 30
0.0
 40
40.0
  1
VD-10ZAVC6
 41
0.9
  0
TEXT
  8
ETC
  6
CONTINUOUS
 62
    61
 10
398.44780038677391
 20
132.2804503882023
 30
0.0
 40
40.0
  1
VD-10ZALC13
 41
0.9
  0
ENDSEC
  0
EOF
