  0
SECTION
  2
HEADER
  9
$ACADVER
  1
AC1009
  9
$DWGCODEPAGE
  3
dos932
  9
$INSBASE
 10
0.0
 20
0.0
 30
0.0
  9
$EXTMIN
 10
-468.59434360940389
 20
-415.60362595553119
 30
-0.0015258207003583
  9
$EXTMAX
 10
1074.957287014644
 20
597.61048166268665
 30
0.0000000349246037
  9
$LIMMIN
 10
-2970.0
 20
-2100.0
  9
$LIMMAX
 10
2970.0
 20
2100.0
  9
$ORTHOMODE
 70
     1
  9
$REGENMODE
 70
     1
  9
$FILLMODE
 70
     1
  9
$QTEXTMODE
 70
     0
  9
$MIRRTEXT
 70
     0
  9
$LTSCALE
 40
20.0
  9
$ATTMODE
 70
     1
  9
$TEXTSIZE
 40
64.0
  9
$TRACEWID
 40
0.05
  9
$TEXTSTYLE
  7
STANDARD
  9
$CLAYER
  8
SIZE
  9
$CELTYPE
  6
CONTINUOUS
  9
$CECOLOR
 62
     7
  9
$DIMSCALE
 40
1.0
  9
$DIMASZ
 40
12.0
  9
$DIMEXO
 40
20.0
  9
$DIMDLI
 40
200.0
  9
$DIMRND
 40
0.0
  9
$DIMDLE
 40
0.0
  9
$DIMEXE
 40
20.0
  9
$DIMTP
 40
0.0
  9
$DIMTM
 40
0.0
  9
$DIMTXT
 40
64.0
  9
$DIMCEN
 40
0.09
  9
$DIMTSZ
 40
0.0
  9
$DIMTOL
 70
     0
  9
$DIMLIM
 70
     0
  9
$DIMTIH
 70
     0
  9
$DIMTOH
 70
     0
  9
$DIMSE1
 70
     0
  9
$DIMSE2
 70
     0
  9
$DIMTAD
 70
     1
  9
$DIMZIN
 70
     8
  9
$DIMBLK
  1

  9
$DIMASO
 70
     1
  9
$DIMSHO
 70
     0
  9
$DIMPOST
  1

  9
$DIMAPOST
  1

  9
$DIMALT
 70
     0
  9
$DIMALTD
 70
     2
  9
$DIMALTF
 40
25.399999999999999
  9
$DIMLFAC
 40
1.0
  9
$DIMTOFL
 70
     1
  9
$DIMTVP
 40
0.0
  9
$DIMTIX
 70
     1
  9
$DIMSOXD
 70
     0
  9
$DIMSAH
 70
     0
  9
$DIMBLK1
  1

  9
$DIMBLK2
  1

  9
$DIMSTYLE
  2
STANDARD
  9
$DIMCLRD
 70
     7
  9
$DIMCLRE
 70
     7
  9
$DIMCLRT
 70
     7
  9
$DIMTFAC
 40
1.0
  9
$DIMGAP
 40
25.0
  9
$LUNITS
 70
     2
  9
$LUPREC
 70
     4
  9
$SKETCHINC
 40
0.1
  9
$FILLETRAD
 40
3.0
  9
$AUNITS
 70
     1
  9
$AUPREC
 70
     3
  9
$MENU
  1
ACAD
  9
$ELEVATION
 40
0.0
  9
$PELEVATION
 40
0.0
  9
$THICKNESS
 40
0.0
  9
$LIMCHECK
 70
     0
  9
$CHAMFERA
 40
0.0
  9
$CHAMFERB
 40
0.0
  9
$SKPOLY
 70
     0
  9
$TDCREATE
 40
2453019.62301037
  9
$TDUPDATE
 40
2459025.484773611
  9
$TDINDWG
 40
1.7138701505
  9
$TDUSRTIMER
 40
1.7138701505
  9
$USRTIMER
 70
     1
  9
$ANGBASE
 50
0.0
  9
$ANGDIR
 70
     0
  9
$PDMODE
 70
     3
  9
$PDSIZE
 40
-2.0
  9
$PLINEWID
 40
0.0
  9
$SPLFRAME
 70
     0
  9
$SPLINETYPE
 70
     6
  9
$SPLINESEGS
 70
     8
  9
$SURFTAB1
 70
     6
  9
$SURFTAB2
 70
     6
  9
$SURFTYPE
 70
     6
  9
$SURFU
 70
     6
  9
$SURFV
 70
     6
  9
$UCSNAME
  2

  9
$UCSORG
 10
0.0
 20
0.0
 30
0.0
  9
$UCSXDIR
 10
1.0
 20
0.0
 30
0.0
  9
$UCSYDIR
 10
0.0
 20
1.0
 30
0.0
  9
$PUCSNAME
  2

  9
$PUCSORG
 10
0.0
 20
0.0
 30
0.0
  9
$PUCSXDIR
 10
1.0
 20
0.0
 30
0.0
  9
$PUCSYDIR
 10
0.0
 20
1.0
 30
0.0
  9
$USERI1
 70
     0
  9
$USERI2
 70
     0
  9
$USERI3
 70
     0
  9
$USERI4
 70
     0
  9
$USERI5
 70
     0
  9
$USERR1
 40
20.0
  9
$USERR2
 40
0.0
  9
$USERR3
 40
0.0
  9
$USERR4
 40
0.0
  9
$USERR5
 40
0.0
  9
$WORLDVIEW
 70
     1
  9
$SHADEDGE
 70
     3
  9
$SHADEDIF
 70
    70
  9
$TILEMODE
 70
     1
  9
$MAXACTVP
 70
    48
  9
$PINSBASE
 10
0.0
 20
0.0
 30
0.0
  9
$PLIMCHECK
 70
     0
  9
$PEXTMIN
 10
-100000000000000000000.0
 20
-100000000000000000000.0
 30
-100000000000000000000.0
  9
$PEXTMAX
 10
100000000000000000000.0
 20
100000000000000000000.0
 30
100000000000000000000.0
  9
$PLIMMIN
 10
0.0
 20
0.0
  9
$PLIMMAX
 10
12.0
 20
9.0
  9
$UNITMODE
 70
     0
  9
$VISRETAIN
 70
     0
  9
$PLINEGEN
 70
     0
  9
$PSLTSCALE
 70
     0
  9
$TREEDEPTH
 70
  3020
  9
$ATTDIA
 70
     0
  9
$ATTREQ
 70
     1
  9
$BLIPMODE
 70
     1
  9
$COORDS
 70
     1
  9
$DRAGMODE
 70
     2
  9
$OSMODE
 70
     0
  9
$HANDLING
 70
     0
  9
$HANDSEED
  5
F1FE
  0
ENDSEC
  0
SECTION
  2
TABLES
  0
TABLE
  2
LTYPE
 70
     3
  0
LTYPE
  2
CONTINUOUS
 70
     0
  3
実線
 72
    65
 73
     0
 40
0.0
  0
LTYPE
  2
DASHDOT
 70
     0
  3
____ _ ____ _ ____ _ ____ _ ____ _ ____ _ ____
 72
    65
 73
     4
 40
5.5
 49
4.0
 49
-0.6
 49
0.3
 49
-0.6
  0
LTYPE
  2
CENTER
 70
     0
  3
Center ____ _ ____ _ ____ _ ____ _ ____ _ ____
 72
    65
 73
     4
 40
1.0
 49
0.5
 49
-0.25
 49
0.0
 49
-0.25
  0
ENDTAB
  0
TABLE
  2
LAYER
 70
    12
  0
LAYER
  2
0
 70
     0
 62
     7
  6
CONTINUOUS
  0
LAYER
  2
BASIS
 70
     0
 62
     6
  6
DASHDOT
  0
LAYER
  2
OUTLINE
 70
     0
 62
     3
  6
CONTINUOUS
  0
LAYER
  2
DETAIL
 70
     0
 62
     5
  6
CONTINUOUS
  0
LAYER
  2
SIZE
 70
     0
 62
    30
  6
CONTINUOUS
  0
LAYER
  2
ARRANGE
 70
     0
 62
     1
  6
CONTINUOUS
  0
LAYER
  2
DEFPOINTS
 70
     0
 62
     7
  6
CONTINUOUS
  0
LAYER
  2
ETC
 70
     0
 62
    61
  6
CONTINUOUS
  0
LAYER
  2
FIX
 70
     0
 62
    11
  6
CONTINUOUS
  0
LAYER
  2
NOTE
 70
     0
 62
     4
  6
CONTINUOUS
  0
LAYER
  2
SERVICESPACE
 70
    64
 62
     2
  6
DASHDOT
  0
LAYER
  2
SYMBOLLINE
 70
    64
 62
    15
  6
CONTINUOUS
  0
ENDTAB
  0
TABLE
  2
STYLE
 70
     1
  0
STYLE
  2
STANDARD
 70
     0
 40
64.0
 41
0.9
 50
0.0
 71
     0
 42
64.0
  3
SIMPLEX.shx
  4
BIGFONT.shx
  0
ENDTAB
  0
TABLE
  2
APPID
 70
    19
  0
APPID
  2
ACAD
 70
     0
  0
APPID
  2
AUTOCAD_POSTSCRIPT_FIGURE
 70
     0
  0
APPID
  2
ACAD_EXEMPT_FROM_CAD_STANDARDS
 70
     0
  0
APPID
  2
ACAD_PSEXT
 70
     0
  0
APPID
  2
ACAUTHENVIRON
 70
     0
  0
APPID
  2
GENIUS_GENOENT_13
 70
     0
  0
APPID
  2
GENIUS_GENCFG_13
 70
     0
  0
APPID
  2
GENIUS_GENCFG0_13
 70
     0
  0
APPID
  2
GENIUS_GENCFG1_13
 70
     0
  0
APPID
  2
GENIUS_GENCFG2_13
 70
     0
  0
APPID
  2
GENIUS_GENCFG3_13
 70
     0
  0
APPID
  2
GENIUS_GENCFG4_13
 70
     0
  0
APPID
  2
GENIUS_GEVCFG0_13
 70
     0
  0
APPID
  2
CONTENTBLOCKICON
 70
     0
  0
APPID
  2
CONTENTBLOCKDESCRIPTION
 70
     0
  0
APPID
  2
ACAD_NAV_VCDISPLAY
 70
     0
  0
APPID
  2
ACAD_MLEADERVER
 70
     0
  0
APPID
  2
ACDBDYNAMICBLOCKTRUENAME
 70
     0
  0
APPID
  2
ACDBDYNAMICBLOCKGUID
 70
     0
  0
ENDTAB
  0
TABLE
  2
DIMSTYLE
 70
     1
  0
DIMSTYLE
  2
STANDARD
 70
     0
  3

  4

  5
_ORIGIN
  6

  7

 40
1.0
 41
12.0
 42
20.0
 43
200.0
 44
20.0
 45
0.0
 46
0.0
 47
0.0
 48
0.0
140
64.0
141
0.09
142
0.0
143
25.399999999999999
144
1.0
145
0.0
146
1.0
147
25.0
 71
     0
 72
     0
 73
     0
 74
     0
 75
     0
 76
     0
 77
     1
 78
     8
170
     0
171
     2
172
     1
173
     0
174
     1
175
     0
176
     7
177
     7
178
     7
  0
ENDTAB
  0
TABLE
  2
VIEW
 70
     1
  0
VIEW
  2
ALL
 70
     0
 40
4282.6198079999986
 10
0.0
 20
41.309904000000003
 41
5940.0
 11
0.0
 21
0.0
 31
1.0
 12
0.0
 22
0.0
 32
0.0
 42
50.0
 43
0.0
 44
0.0
 50
0.0
 71
     0
  0
ENDTAB
  0
TABLE
  2
UCS
 70
     0
  0
ENDTAB
  0
TABLE
  2
VPORT
 70
     1
  0
VPORT
  2
*ACTIVE
 70
     0
 10
0.0
 20
0.0
 11
1.0
 21
1.0
 12
303.18147170261989
 22
91.003427853577762
 13
0.0
 23
0.0
 14
1.0
 24
1.0
 15
0.0
 25
0.0
 16
0.0
 26
0.0
 36
1.0
 17
0.0
 27
0.0
 37
0.0
 40
1019.931549215687
 41
1.747787610619469
 42
50.0
 43
0.0
 44
0.0
 50
0.0
 51
0.0
 71
     0
 72
  1000
 73
     1
 74
     3
 75
     0
 76
     0
 77
     0
 78
     0
  0
ENDTAB
  0
ENDSEC
  0
SECTION
  2
BLOCKS
  0
BLOCK
  8
0
  2
_ORIGIN
 70
     0
 10
0.0
 20
0.0
 30
0.0
  3
_ORIGIN
  1
_ORIGIN
  0
CIRCLE
  8
0
  6
CONTINUOUS
 62
     7
 10
0.0
 20
0.0
 30
0.0
 40
0.5
  0
LINE
  8
0
  6
CONTINUOUS
 62
     7
 10
0.0
 20
0.0
 30
0.0
 11
-1.0
 21
0.0
 31
0.0
  0
ENDBLK
  8
0
  0
ENDSEC
  0
SECTION
  2
ENTITIES
  0
CIRCLE
  8
ARRANGE
  6
CONTINUOUS
 62
     1
 10
0.0
 20
0.0
 30
0.0
 40
40.0
  0
TEXT
  8
ETC
  6
CONTINUOUS
 62
    61
 10
347.82162889532401
 20
533.44450076412659
 30
0.0
 40
64.0
  1
VD-10ZC13-C_2
 41
0.9
  0
TEXT
  8
ETC
  6
CONTINUOUS
 62
    61
 10
343.63563489532362
 20
415.48919074929518
 30
0.0
 40
64.0
  1
換気扇
 41
0.9
  0
LINE
  8
BASIS
  6
DASHDOT
 62
     6
 10
0.0
 20
235.96262790945181
 30
0.0
 11
0.0
 21
-47.765098392225809
 31
0.0
  0
POINT
  8
ARRANGE
  6
CONTINUOUS
 62
     1
 10
0.0
 20
0.0
 30
0.0
 50
90.0
  0
LINE
  8
OUTLINE
  6
CONTINUOUS
 62
     3
 10
61.992559999999678
 20
172.72927000000001
 30
0.0
 11
77.990639999999985
 21
172.72927000000001
 31
0.0
  0
LINE
  8
OUTLINE
  6
CONTINUOUS
 62
     3
 10
-61.99256000000014
 20
172.72927000000001
 30
0.0
 11
-77.990639999999985
 21
172.72927000000001
 31
0.0
  0
LINE
  8
OUTLINE
  6
CONTINUOUS
 62
     3
 10
-86.989868999999999
 20
0.0
 30
0.0
 11
-124.47310999999991
 21
0.0
 31
0.0
  0
LINE
  8
OUTLINE
  6
CONTINUOUS
 62
     3
 10
86.989868000000115
 20
0.0
 30
0.0
 11
124.47310899999999
 21
0.0
 31
0.0
  0
ARC
  8
OUTLINE
  6
CONTINUOUS
 62
     3
 10
79.042758999999933
 20
167.72987000000001
 30
0.0
 40
4.9993999999999996
 50
1.0051130000008079
 51
84.862227000001099
  0
LINE
  8
OUTLINE
  6
CONTINUOUS
 62
     3
 10
79.43072200000006
 20
172.69964999999999
 30
0.0
 11
79.456760000000031
 21
172.70357000000001
 31
0.0
  0
LINE
  8
OUTLINE
  6
CONTINUOUS
 62
     3
 10
79.398380000000088
 20
172.69503399999999
 30
0.0
 11
79.43072200000006
 21
172.69964999999999
 31
0.0
  0
LINE
  8
OUTLINE
  6
CONTINUOUS
 62
     3
 10
79.360173999999915
 20
172.69000399999999
 30
0.0
 11
79.398380000000088
 21
172.69503399999999
 31
0.0
  0
LINE
  8
OUTLINE
  6
CONTINUOUS
 62
     3
 10
79.316718999999921
 20
172.68481800000001
 30
0.0
 11
79.360173999999915
 21
172.69000399999999
 31
0.0
  0
LINE
  8
OUTLINE
  6
CONTINUOUS
 62
     3
 10
79.268508000000111
 20
172.6797369999999
 30
0.0
 11
79.316718999999921
 21
172.68481800000001
 31
0.0
  0
LINE
  8
OUTLINE
  6
CONTINUOUS
 62
     3
 10
79.21583499999997
 20
172.67502400000001
 30
0.0
 11
79.268508000000111
 21
172.6797369999999
 31
0.0
  0
LINE
  8
OUTLINE
  6
CONTINUOUS
 62
     3
 10
79.159901999999875
 20
172.67092600000001
 30
0.0
 11
79.21583499999997
 21
172.67502400000001
 31
0.0
  0
LINE
  8
OUTLINE
  6
CONTINUOUS
 62
     3
 10
79.101955999999973
 20
172.66781900000001
 30
0.0
 11
79.159901999999875
 21
172.67092600000001
 31
0.0
  0
LINE
  8
OUTLINE
  6
CONTINUOUS
 62
     3
 10
79.042758999999933
 20
172.66557599999999
 30
0.0
 11
79.101955999999973
 21
172.66781900000001
 31
0.0
  0
LINE
  8
OUTLINE
  6
CONTINUOUS
 62
     3
 10
79.029736999999841
 20
172.66526999999999
 30
0.0
 11
79.042758999999933
 21
172.66558000000001
 31
0.0
  0
LINE
  8
OUTLINE
  6
CONTINUOUS
 62
     3
 10
79.016689999999926
 20
172.6650480000001
 30
0.0
 11
79.029736999999841
 21
172.66526999999999
 31
0.0
  0
LINE
  8
OUTLINE
  6
CONTINUOUS
 62
     3
 10
79.003617999999733
 20
172.66491500000009
 30
0.0
 11
79.016689999999926
 21
172.6650480000001
 31
0.0
  0
LINE
  8
OUTLINE
  6
CONTINUOUS
 62
     3
 10
78.490580000000136
 20
172.66487000000009
 30
0.0
 11
79.003617999999733
 21
172.66491500000009
 31
0.0
  0
LINE
  8
OUTLINE
  6
CONTINUOUS
 62
     3
 10
78.435449000000062
 20
172.665708
 30
0.0
 11
78.490580000000136
 21
172.66487000000009
 31
0.0
  0
LINE
  8
OUTLINE
  6
CONTINUOUS
 62
     3
 10
78.380397999999786
 20
172.66802600000011
 30
0.0
 11
78.435449000000062
 21
172.665708
 31
0.0
  0
LINE
  8
OUTLINE
  6
CONTINUOUS
 62
     3
 10
78.325941000000057
 20
172.67195000000001
 30
0.0
 11
78.380397999999786
 21
172.66802600000011
 31
0.0
  0
LINE
  8
OUTLINE
  6
CONTINUOUS
 62
     3
 10
78.273439999999937
 20
172.67710099999999
 30
0.0
 11
78.325941000000057
 21
172.67195000000001
 31
0.0
  0
LINE
  8
OUTLINE
  6
CONTINUOUS
 62
     3
 10
78.224134999999933
 20
172.68326999999999
 30
0.0
 11
78.273439999999937
 21
172.67710099999999
 31
0.0
  0
LINE
  8
OUTLINE
  6
CONTINUOUS
 62
     3
 10
78.178429999999935
 20
172.69007500000001
 30
0.0
 11
78.224134999999933
 21
172.68326999999999
 31
0.0
  0
LINE
  8
OUTLINE
  6
CONTINUOUS
 62
     3
 10
78.136948999999731
 20
172.697169
 30
0.0
 11
78.178429999999935
 21
172.69007500000001
 31
0.0
  0
LINE
  8
OUTLINE
  6
CONTINUOUS
 62
     3
 10
78.099878999999873
 20
172.70424299999999
 30
0.0
 11
78.136948999999731
 21
172.697169
 31
0.0
  0
LINE
  8
OUTLINE
  6
CONTINUOUS
 62
     3
 10
78.067485000000033
 20
172.71097700000001
 30
0.0
 11
78.099878999999873
 21
172.70424299999999
 31
0.0
  0
LINE
  8
OUTLINE
  6
CONTINUOUS
 62
     3
 10
78.040266999999858
 20
172.7170620000002
 30
0.0
 11
78.067485000000033
 21
172.71097700000001
 31
0.0
  0
LINE
  8
OUTLINE
  6
CONTINUOUS
 62
     3
 10
78.018538999999691
 20
172.72214899999989
 30
0.0
 11
78.040266999999858
 21
172.7170620000002
 31
0.0
  0
LINE
  8
OUTLINE
  6
CONTINUOUS
 62
     3
 10
77.993688999999904
 20
172.72837000000001
 30
0.0
 11
78.018538999999691
 21
172.72214899999989
 31
0.0
  0
LINE
  8
OUTLINE
  6
CONTINUOUS
 62
     3
 10
79.48675699999967
 20
172.708437
 30
0.0
 11
79.490459999999985
 21
172.70917299999999
 31
0.0
  0
LINE
  8
OUTLINE
  6
CONTINUOUS
 62
     3
 10
79.456760000000031
 20
172.70357000000001
 30
0.0
 11
79.48675699999967
 21
172.708437
 31
0.0
  0
LINE
  8
OUTLINE
  6
CONTINUOUS
 62
     3
 10
84.083639999999832
 20
166.48002
 30
0.0
 11
84.064890000000105
 21
166.48002
 31
0.0
  0
LINE
  8
OUTLINE
  6
CONTINUOUS
 62
     3
 10
86.989868000000115
 20
0.0
 30
0.0
 11
84.041386999999759
 21
167.81769299999999
 31
0.0
  0
LINE
  8
OUTLINE
  6
CONTINUOUS
 62
     3
 10
77.990639999999985
 20
172.72926699999991
 30
0.0
 11
77.993688999999904
 21
172.72837000000001
 31
0.0
  0
ARC
  8
OUTLINE
  6
CONTINUOUS
 62
     3
 10
61.112665000000113
 20
176.8487749999999
 30
0.0
 40
0.8798940000000001
 50
0.0
 51
90.0
  0
LINE
  8
OUTLINE
  6
CONTINUOUS
 62
     3
 10
61.992559999999678
 20
172.72927000000001
 30
0.0
 11
61.992559999999678
 21
176.8487749999999
 31
0.0
  0
ARC
  8
OUTLINE
  6
CONTINUOUS
 62
     3
 10
124.47310899999999
 20
-0.5
 30
0.0
 40
0.5
 50
357.00000000000102
 51
90.0
  0
LINE
  8
OUTLINE
  6
CONTINUOUS
 62
     3
 10
124.54920899999981
 20
-8.6015879999999925
 30
0.0
 11
124.972424
 21
-0.5261679999999842
 31
0.0
  0
ARC
  8
OUTLINE
  6
CONTINUOUS
 62
     3
 10
123.5505800000001
 20
-8.5492519999999104
 30
0.0
 40
1.0
 50
313.49999999999238
 51
357.00000000000102
  0
LINE
  8
OUTLINE
  6
CONTINUOUS
 62
     3
 10
124.238934
 20
-9.274626000000012
 30
0.0
 11
118.49504399999979
 21
-14.725374999999991
 31
0.0
  0
ARC
  8
OUTLINE
  6
CONTINUOUS
 62
     3
 10
117.80668900000001
 20
-14.0
 30
0.0
 40
1.0
 50
270.0
 51
313.49999999999238
  0
LINE
  8
OUTLINE
  6
CONTINUOUS
 62
     3
 10
117.80668900000001
 20
-15.0
 30
0.0
 11
-117.8066899999999
 21
-15.0
 31
0.0
  0
ARC
  8
OUTLINE
  6
CONTINUOUS
 62
     3
 10
-79.042760000000271
 20
167.72987000000001
 30
0.0
 40
4.9993999999999996
 50
95.137772999998916
 51
178.99488699999921
  0
LINE
  8
OUTLINE
  6
CONTINUOUS
 62
     3
 10
-79.430722999999944
 20
172.69964999999999
 30
0.0
 11
-79.456760999999915
 21
172.70357000000001
 31
0.0
  0
LINE
  8
OUTLINE
  6
CONTINUOUS
 62
     3
 10
-79.398380999999972
 20
172.69503399999999
 30
0.0
 11
-79.430722999999944
 21
172.69964999999999
 31
0.0
  0
LINE
  8
OUTLINE
  6
CONTINUOUS
 62
     3
 10
-79.360175000000254
 20
172.69000399999999
 30
0.0
 11
-79.398380999999972
 21
172.69503399999999
 31
0.0
  0
LINE
  8
OUTLINE
  6
CONTINUOUS
 62
     3
 10
-79.316719999999805
 20
172.68481800000001
 30
0.0
 11
-79.360175000000254
 21
172.69000399999999
 31
0.0
  0
LINE
  8
OUTLINE
  6
CONTINUOUS
 62
     3
 10
-79.268508999999995
 20
172.6797369999999
 30
0.0
 11
-79.316719999999805
 21
172.68481800000001
 31
0.0
  0
LINE
  8
OUTLINE
  6
CONTINUOUS
 62
     3
 10
-79.215836000000309
 20
172.67502400000001
 30
0.0
 11
-79.268508999999995
 21
172.6797369999999
 31
0.0
  0
LINE
  8
OUTLINE
  6
CONTINUOUS
 62
     3
 10
-79.159902999999758
 20
172.67092600000001
 30
0.0
 11
-79.215836000000309
 21
172.67502400000001
 31
0.0
  0
LINE
  8
OUTLINE
  6
CONTINUOUS
 62
     3
 10
-79.101956999999857
 20
172.66781900000001
 30
0.0
 11
-79.159902999999758
 21
172.67092600000001
 31
0.0
  0
LINE
  8
OUTLINE
  6
CONTINUOUS
 62
     3
 10
-79.042760000000271
 20
172.66557599999999
 30
0.0
 11
-79.101956999999857
 21
172.66781900000001
 31
0.0
  0
LINE
  8
OUTLINE
  6
CONTINUOUS
 62
     3
 10
-79.029738000000179
 20
172.66526999999999
 30
0.0
 11
-79.042760000000271
 21
172.66558000000001
 31
0.0
  0
LINE
  8
OUTLINE
  6
CONTINUOUS
 62
     3
 10
-79.016691000000264
 20
172.6650480000001
 30
0.0
 11
-79.029738000000179
 21
172.66526999999999
 31
0.0
  0
LINE
  8
OUTLINE
  6
CONTINUOUS
 62
     3
 10
-79.003619000000072
 20
172.66491500000009
 30
0.0
 11
-79.016691000000264
 21
172.6650480000001
 31
0.0
  0
LINE
  8
OUTLINE
  6
CONTINUOUS
 62
     3
 10
-78.490580000000136
 20
172.66487000000009
 30
0.0
 11
-79.003619000000072
 21
172.66491500000009
 31
0.0
  0
LINE
  8
OUTLINE
  6
CONTINUOUS
 62
     3
 10
-78.435449999999946
 20
172.665708
 30
0.0
 11
-78.490580000000136
 21
172.66487000000009
 31
0.0
  0
LINE
  8
OUTLINE
  6
CONTINUOUS
 62
     3
 10
-78.380398000000241
 20
172.66802600000011
 30
0.0
 11
-78.435449999999946
 21
172.665708
 31
0.0
  0
LINE
  8
OUTLINE
  6
CONTINUOUS
 62
     3
 10
-78.325941999999941
 20
172.67195000000001
 30
0.0
 11
-78.380398000000241
 21
172.66802600000011
 31
0.0
  0
LINE
  8
OUTLINE
  6
CONTINUOUS
 62
     3
 10
-78.273441000000275
 20
172.67710099999999
 30
0.0
 11
-78.325941999999941
 21
172.67195000000001
 31
0.0
  0
LINE
  8
OUTLINE
  6
CONTINUOUS
 62
     3
 10
-78.224135999999817
 20
172.68326999999999
 30
0.0
 11
-78.273441000000275
 21
172.67710099999999
 31
0.0
  0
LINE
  8
OUTLINE
  6
CONTINUOUS
 62
     3
 10
-78.178431000000273
 20
172.69007500000001
 30
0.0
 11
-78.224135999999817
 21
172.68326999999999
 31
0.0
  0
LINE
  8
OUTLINE
  6
CONTINUOUS
 62
     3
 10
-78.13695000000007
 20
172.697169
 30
0.0
 11
-78.178431000000273
 21
172.69007500000001
 31
0.0
  0
LINE
  8
OUTLINE
  6
CONTINUOUS
 62
     3
 10
-78.099880000000212
 20
172.70424299999999
 30
0.0
 11
-78.13695000000007
 21
172.697169
 31
0.0
  0
LINE
  8
OUTLINE
  6
CONTINUOUS
 62
     3
 10
-78.067485999999917
 20
172.71097700000001
 30
0.0
 11
-78.099880000000212
 21
172.70424299999999
 31
0.0
  0
LINE
  8
OUTLINE
  6
CONTINUOUS
 62
     3
 10
-78.040268000000196
 20
172.7170620000002
 30
0.0
 11
-78.067485999999917
 21
172.71097700000001
 31
0.0
  0
LINE
  8
OUTLINE
  6
CONTINUOUS
 62
     3
 10
-78.01854000000003
 20
172.72214899999989
 30
0.0
 11
-78.040268000000196
 21
172.7170620000002
 31
0.0
  0
LINE
  8
OUTLINE
  6
CONTINUOUS
 62
     3
 10
-77.993690000000242
 20
172.72837000000001
 30
0.0
 11
-78.01854000000003
 21
172.72214899999989
 31
0.0
  0
LINE
  8
OUTLINE
  6
CONTINUOUS
 62
     3
 10
-79.486758000000009
 20
172.708437
 30
0.0
 11
-79.490459999999985
 21
172.70917299999999
 31
0.0
  0
LINE
  8
OUTLINE
  6
CONTINUOUS
 62
     3
 10
-79.456760999999915
 20
172.70357000000001
 30
0.0
 11
-79.486758000000009
 21
172.708437
 31
0.0
  0
LINE
  8
OUTLINE
  6
CONTINUOUS
 62
     3
 10
-84.083641000000171
 20
166.48002
 30
0.0
 11
-84.064890999999989
 21
166.48002
 31
0.0
  0
LINE
  8
OUTLINE
  6
CONTINUOUS
 62
     3
 10
-86.989868999999999
 20
0.0
 30
0.0
 11
-84.041388000000097
 21
167.81769299999999
 31
0.0
  0
LINE
  8
OUTLINE
  6
CONTINUOUS
 62
     3
 10
-77.990639999999985
 20
172.72926699999991
 30
0.0
 11
-77.993690000000242
 21
172.72837000000001
 31
0.0
  0
ARC
  8
OUTLINE
  6
CONTINUOUS
 62
     3
 10
-61.11266599999999
 20
176.8487749999999
 30
0.0
 40
0.8798940000000001
 50
90.0
 51
180.0
  0
LINE
  8
OUTLINE
  6
CONTINUOUS
 62
     3
 10
-61.99256000000014
 20
172.72927000000001
 30
0.0
 11
-61.99256000000014
 21
176.8487749999999
 31
0.0
  0
ARC
  8
OUTLINE
  6
CONTINUOUS
 62
     3
 10
-124.47310999999991
 20
-0.5
 30
0.0
 40
0.5
 50
90.0
 51
182.99999999999901
  0
LINE
  8
OUTLINE
  6
CONTINUOUS
 62
     3
 10
-124.5492100000001
 20
-8.6015879999999925
 30
0.0
 11
-124.9724249999999
 21
-0.5261679999999842
 31
0.0
  0
ARC
  8
OUTLINE
  6
CONTINUOUS
 62
     3
 10
-123.55058099999999
 20
-8.5492519999999104
 30
0.0
 40
1.0
 50
182.99999999999901
 51
226.5000000000073
  0
LINE
  8
OUTLINE
  6
CONTINUOUS
 62
     3
 10
-124.2389350000003
 20
-9.274626000000012
 30
0.0
 11
-118.4950450000001
 21
-14.725374999999991
 31
0.0
  0
ARC
  8
OUTLINE
  6
CONTINUOUS
 62
     3
 10
-117.8066899999999
 20
-14.0
 30
0.0
 40
1.0
 50
226.5000000000073
 51
270.0
  0
LINE
  8
DETAIL
  6
CONTINUOUS
 62
     5
 10
117.80668900000001
 20
-15.0
 30
0.0
 11
-117.8066899999999
 21
-15.0
 31
0.0
  0
LINE
  8
DETAIL
  6
CONTINUOUS
 62
     5
 10
124.238934
 20
-9.274626000000012
 30
0.0
 11
-124.2389350000003
 21
-9.274626000000012
 31
0.0
  0
LINE
  8
DETAIL
  6
CONTINUOUS
 62
     5
 10
-65.0
 20
60.399600000000078
 30
0.0
 11
-65.0
 21
139.23431600000001
 31
0.0
  0
ARC
  8
DETAIL
  6
CONTINUOUS
 62
     5
 10
-48.0
 20
139.23431600000001
 30
0.0
 40
17.0
 50
93.64114499999944
 51
180.0
  0
LINE
  8
DETAIL
  6
CONTINUOUS
 62
     5
 10
-49.079623000000083
 20
156.1999999999999
 30
0.0
 11
49.079622000000199
 21
156.1999999999999
 31
0.0
  0
ARC
  8
DETAIL
  6
CONTINUOUS
 62
     5
 10
-117.8066899999999
 20
-14.0
 30
0.0
 40
1.0
 50
226.5000000000073
 51
270.0
  0
LINE
  8
DETAIL
  6
CONTINUOUS
 62
     5
 10
-124.2389350000003
 20
-9.274626000000012
 30
0.0
 11
-118.4950450000001
 21
-14.725374999999991
 31
0.0
  0
ARC
  8
DETAIL
  6
CONTINUOUS
 62
     5
 10
-123.55058099999999
 20
-8.5492520000000241
 30
0.0
 40
1.0
 50
182.99999999999901
 51
226.5000000000073
  0
LINE
  8
DETAIL
  6
CONTINUOUS
 62
     5
 10
-124.5492100000001
 20
-8.6015879999999925
 30
0.0
 11
-124.9724249999999
 21
-0.5261679999999842
 31
0.0
  0
ARC
  8
DETAIL
  6
CONTINUOUS
 62
     5
 10
-124.47310999999991
 20
-0.5
 30
0.0
 40
0.5
 50
90.0
 51
182.99999999999901
  0
LINE
  8
DETAIL
  6
CONTINUOUS
 62
     5
 10
124.47310899999999
 20
0.0
 30
0.0
 11
-124.47310999999991
 21
0.0
 31
0.0
  0
LINE
  8
DETAIL
  6
CONTINUOUS
 62
     5
 10
-54.337833000000053
 20
183.97792000000001
 30
0.0
 11
-53.984832999999981
 21
183.97792000000001
 31
0.0
  0
ARC
  8
DETAIL
  6
CONTINUOUS
 62
     5
 10
-54.002207999999882
 20
182.97803500000001
 30
0.0
 40
0.99988
 50
90.0
 51
179.49976300000111
  0
LINE
  8
DETAIL
  6
CONTINUOUS
 62
     5
 10
-55.254793000000063
 20
183.3767180000001
 30
0.0
 11
-57.710465999999997
 21
177.72867000000011
 31
0.0
  0
ARC
  8
DETAIL
  6
CONTINUOUS
 62
     5
 10
-53.984832999999981
 20
182.97803500000001
 30
0.0
 40
0.99988
 50
0.5002730000015718
 51
90.0
  0
LINE
  8
DETAIL
  6
CONTINUOUS
 62
     5
 10
-55.002050000000047
 20
182.98676499999999
 30
0.0
 11
-55.047937000000267
 21
177.72867000000011
 31
0.0
  0
LINE
  8
DETAIL
  6
CONTINUOUS
 62
     5
 10
-52.939104000000043
 20
177.72867000000011
 30
0.0
 11
-52.984991000000257
 21
182.98676499999999
 31
0.0
  0
LINE
  8
DETAIL
  6
CONTINUOUS
 62
     5
 10
50.0
 20
45.399600000000078
 30
0.0
 11
-50.0
 21
45.399600000000078
 31
0.0
  0
ARC
  8
DETAIL
  6
CONTINUOUS
 62
     5
 10
-50.0
 20
60.399600000000078
 30
0.0
 40
15.0
 50
180.0
 51
270.0
  0
LINE
  8
DETAIL
  6
CONTINUOUS
 62
     5
 10
-61.99256000000014
 20
172.72927000000001
 30
0.0
 11
-61.99256000000014
 21
176.8487749999999
 31
0.0
  0
LINE
  8
DETAIL
  6
CONTINUOUS
 62
     5
 10
-61.11266599999999
 20
177.72867000000011
 30
0.0
 11
61.112665000000113
 21
177.72867000000011
 31
0.0
  0
ARC
  8
DETAIL
  6
CONTINUOUS
 62
     5
 10
-61.11266599999999
 20
176.8487749999999
 30
0.0
 40
0.8798940000000001
 50
90.0
 51
180.0
  0
ARC
  8
DETAIL
  6
CONTINUOUS
 62
     5
 10
-54.337833000000053
 20
182.97804000000011
 30
0.0
 40
0.99988
 50
90.0
 51
156.5014339999868
  0
LINE
  8
DETAIL
  6
CONTINUOUS
 62
     5
 10
77.990639999999985
 20
172.72927000000001
 30
0.0
 11
-77.990639999999985
 21
172.72927000000001
 31
0.0
  0
LINE
  8
DETAIL
  6
CONTINUOUS
 62
     5
 10
-77.990639999999985
 20
172.72926699999991
 30
0.0
 11
-77.993690000000242
 21
172.72837000000001
 31
0.0
  0
LINE
  8
DETAIL
  6
CONTINUOUS
 62
     5
 10
-86.989868999999999
 20
0.0
 30
0.0
 11
-84.041388000000097
 21
167.81769300000019
 31
0.0
  0
LINE
  8
DETAIL
  6
CONTINUOUS
 62
     5
 10
-84.083641000000171
 20
166.4800200000002
 30
0.0
 11
-84.064890999999989
 21
166.4800200000002
 31
0.0
  0
LINE
  8
DETAIL
  6
CONTINUOUS
 62
     5
 10
-79.456760999999915
 20
172.70357000000001
 30
0.0
 11
-79.486758000000009
 21
172.708437
 31
0.0
  0
LINE
  8
DETAIL
  6
CONTINUOUS
 62
     5
 10
-79.486758000000009
 20
172.708437
 30
0.0
 11
-79.490459999999985
 21
172.70917300000011
 31
0.0
  0
LINE
  8
DETAIL
  6
CONTINUOUS
 62
     5
 10
-77.993690000000242
 20
172.72837000000001
 30
0.0
 11
-78.01854000000003
 21
172.72214900000009
 31
0.0
  0
LINE
  8
DETAIL
  6
CONTINUOUS
 62
     5
 10
-78.01854000000003
 20
172.72214900000009
 30
0.0
 11
-78.040268000000196
 21
172.7170620000002
 31
0.0
  0
LINE
  8
DETAIL
  6
CONTINUOUS
 62
     5
 10
-78.040268000000196
 20
172.7170620000002
 30
0.0
 11
-78.067485999999917
 21
172.7109770000001
 31
0.0
  0
LINE
  8
DETAIL
  6
CONTINUOUS
 62
     5
 10
-78.067485999999917
 20
172.7109770000001
 30
0.0
 11
-78.099880000000212
 21
172.70424299999999
 31
0.0
  0
LINE
  8
DETAIL
  6
CONTINUOUS
 62
     5
 10
-78.099880000000212
 20
172.70424299999999
 30
0.0
 11
-78.13695000000007
 21
172.697169
 31
0.0
  0
LINE
  8
DETAIL
  6
CONTINUOUS
 62
     5
 10
-78.13695000000007
 20
172.697169
 30
0.0
 11
-78.178431000000273
 21
172.69007500000009
 31
0.0
  0
LINE
  8
DETAIL
  6
CONTINUOUS
 62
     5
 10
-78.178431000000273
 20
172.69007500000009
 30
0.0
 11
-78.224135999999817
 21
172.68327000000011
 31
0.0
  0
LINE
  8
DETAIL
  6
CONTINUOUS
 62
     5
 10
-78.224135999999817
 20
172.68327000000011
 30
0.0
 11
-78.273441000000275
 21
172.67710100000011
 31
0.0
  0
LINE
  8
DETAIL
  6
CONTINUOUS
 62
     5
 10
-78.273441000000275
 20
172.67710100000011
 30
0.0
 11
-78.325941999999941
 21
172.67195000000001
 31
0.0
  0
LINE
  8
DETAIL
  6
CONTINUOUS
 62
     5
 10
-78.325941999999941
 20
172.67195000000001
 30
0.0
 11
-78.380398000000241
 21
172.66802600000011
 31
0.0
  0
LINE
  8
DETAIL
  6
CONTINUOUS
 62
     5
 10
-78.380398000000241
 20
172.66802600000011
 30
0.0
 11
-78.435449999999946
 21
172.665708
 31
0.0
  0
LINE
  8
DETAIL
  6
CONTINUOUS
 62
     5
 10
-78.435449999999946
 20
172.665708
 30
0.0
 11
-78.490580000000136
 21
172.66487000000009
 31
0.0
  0
LINE
  8
DETAIL
  6
CONTINUOUS
 62
     5
 10
-78.490580000000136
 20
172.66487000000009
 30
0.0
 11
-79.003619000000072
 21
172.66491500000009
 31
0.0
  0
LINE
  8
DETAIL
  6
CONTINUOUS
 62
     5
 10
-79.003619000000072
 20
172.66491500000009
 30
0.0
 11
-79.016691000000264
 21
172.6650480000001
 31
0.0
  0
LINE
  8
DETAIL
  6
CONTINUOUS
 62
     5
 10
-79.016691000000264
 20
172.6650480000001
 30
0.0
 11
-79.029738000000179
 21
172.66527000000011
 31
0.0
  0
LINE
  8
DETAIL
  6
CONTINUOUS
 62
     5
 10
-79.029738000000179
 20
172.66527000000011
 30
0.0
 11
-79.042760000000271
 21
172.66558000000001
 31
0.0
  0
LINE
  8
DETAIL
  6
CONTINUOUS
 62
     5
 10
-79.042760000000271
 20
172.66557599999999
 30
0.0
 11
-79.101956999999857
 21
172.66781900000001
 31
0.0
  0
LINE
  8
DETAIL
  6
CONTINUOUS
 62
     5
 10
-79.101956999999857
 20
172.66781900000001
 30
0.0
 11
-79.159902999999758
 21
172.67092600000001
 31
0.0
  0
LINE
  8
DETAIL
  6
CONTINUOUS
 62
     5
 10
-79.159902999999758
 20
172.67092600000001
 30
0.0
 11
-79.215836000000309
 21
172.67502400000001
 31
0.0
  0
LINE
  8
DETAIL
  6
CONTINUOUS
 62
     5
 10
-79.215836000000309
 20
172.67502400000001
 30
0.0
 11
-79.268508999999995
 21
172.6797369999999
 31
0.0
  0
LINE
  8
DETAIL
  6
CONTINUOUS
 62
     5
 10
-79.268508999999995
 20
172.6797369999999
 30
0.0
 11
-79.316719999999805
 21
172.68481800000009
 31
0.0
  0
LINE
  8
DETAIL
  6
CONTINUOUS
 62
     5
 10
-79.316719999999805
 20
172.68481800000009
 30
0.0
 11
-79.360175000000254
 21
172.69000399999999
 31
0.0
  0
LINE
  8
DETAIL
  6
CONTINUOUS
 62
     5
 10
-79.360175000000254
 20
172.69000399999999
 30
0.0
 11
-79.398380999999972
 21
172.69503399999999
 31
0.0
  0
LINE
  8
DETAIL
  6
CONTINUOUS
 62
     5
 10
-79.398380999999972
 20
172.69503399999999
 30
0.0
 11
-79.430722999999944
 21
172.69964999999999
 31
0.0
  0
LINE
  8
DETAIL
  6
CONTINUOUS
 62
     5
 10
-79.430722999999944
 20
172.69964999999999
 30
0.0
 11
-79.456760999999915
 21
172.70357000000001
 31
0.0
  0
ARC
  8
DETAIL
  6
CONTINUOUS
 62
     5
 10
-79.042760000000271
 20
167.72987000000001
 30
0.0
 40
4.9993999999999996
 50
95.137772999998916
 51
178.99488699999921
  0
ARC
  8
DETAIL
  6
CONTINUOUS
 62
     5
 10
-50.0
 20
60.387080999999966
 30
0.0
 40
15.0
 50
180.0
 51
270.0
  0
LINE
  8
DETAIL
  6
CONTINUOUS
 62
     5
 10
50.0
 20
45.387080999999966
 30
0.0
 11
-50.0
 21
45.387080999999966
 31
0.0
  0
LINE
  8
DETAIL
  6
CONTINUOUS
 62
     5
 10
-65.0
 20
60.387080999999966
 30
0.0
 11
-65.0
 21
139.14215300000001
 31
0.0
  0
ARC
  8
DETAIL
  6
CONTINUOUS
 62
     5
 10
-48.0
 20
139.14215300000001
 30
0.0
 40
17.0
 50
93.64114499999944
 51
180.0
  0
LINE
  8
DETAIL
  6
CONTINUOUS
 62
     5
 10
-49.079623000000083
 20
156.10783599999999
 30
0.0
 11
49.079622000000199
 21
156.10783599999999
 31
0.0
  0
LINE
  8
DETAIL
  6
CONTINUOUS
 62
     5
 10
65.0
 20
60.399600000000078
 30
0.0
 11
65.0
 21
139.23431600000001
 31
0.0
  0
ARC
  8
DETAIL
  6
CONTINUOUS
 62
     5
 10
48.0
 20
139.23431600000001
 30
0.0
 40
17.0
 50
0.0
 51
86.35885500000056
  0
ARC
  8
DETAIL
  6
CONTINUOUS
 62
     5
 10
117.80668900000001
 20
-14.0
 30
0.0
 40
1.0
 50
270.0
 51
313.49999999999238
  0
LINE
  8
DETAIL
  6
CONTINUOUS
 62
     5
 10
124.238934
 20
-9.274626000000012
 30
0.0
 11
118.49504399999979
 21
-14.725374999999991
 31
0.0
  0
ARC
  8
DETAIL
  6
CONTINUOUS
 62
     5
 10
123.5505800000001
 20
-8.5492520000000241
 30
0.0
 40
1.0
 50
313.49999999999238
 51
357.00000000000102
  0
LINE
  8
DETAIL
  6
CONTINUOUS
 62
     5
 10
124.54920899999981
 20
-8.6015879999999925
 30
0.0
 11
124.972424
 21
-0.5261679999999842
 31
0.0
  0
ARC
  8
DETAIL
  6
CONTINUOUS
 62
     5
 10
124.47310899999999
 20
-0.5
 30
0.0
 40
0.5
 50
357.00000000000102
 51
90.0
  0
ARC
  8
DETAIL
  6
CONTINUOUS
 62
     5
 10
50.0
 20
60.399600000000078
 30
0.0
 40
15.0
 50
270.0
 51
0.0
  0
LINE
  8
DETAIL
  6
CONTINUOUS
 62
     5
 10
61.992559999999678
 20
172.72927000000001
 30
0.0
 11
61.992559999999678
 21
176.8487749999999
 31
0.0
  0
ARC
  8
DETAIL
  6
CONTINUOUS
 62
     5
 10
61.112665000000113
 20
176.8487749999999
 30
0.0
 40
0.8798940000000001
 50
0.0
 51
90.0
  0
LINE
  8
DETAIL
  6
CONTINUOUS
 62
     5
 10
77.990639999999985
 20
172.72926699999991
 30
0.0
 11
77.993688999999904
 21
172.72837000000001
 31
0.0
  0
LINE
  8
DETAIL
  6
CONTINUOUS
 62
     5
 10
86.989868000000115
 20
0.0
 30
0.0
 11
84.041386999999759
 21
167.81769300000019
 31
0.0
  0
LINE
  8
DETAIL
  6
CONTINUOUS
 62
     5
 10
84.083639999999832
 20
166.4800200000002
 30
0.0
 11
84.064890000000105
 21
166.4800200000002
 31
0.0
  0
LINE
  8
DETAIL
  6
CONTINUOUS
 62
     5
 10
79.456760000000031
 20
172.70357000000001
 30
0.0
 11
79.48675699999967
 21
172.708437
 31
0.0
  0
LINE
  8
DETAIL
  6
CONTINUOUS
 62
     5
 10
79.48675699999967
 20
172.708437
 30
0.0
 11
79.490459999999985
 21
172.70917300000011
 31
0.0
  0
LINE
  8
DETAIL
  6
CONTINUOUS
 62
     5
 10
77.993688999999904
 20
172.72837000000001
 30
0.0
 11
78.018538999999691
 21
172.72214900000009
 31
0.0
  0
LINE
  8
DETAIL
  6
CONTINUOUS
 62
     5
 10
78.018538999999691
 20
172.72214900000009
 30
0.0
 11
78.040266999999858
 21
172.7170620000002
 31
0.0
  0
LINE
  8
DETAIL
  6
CONTINUOUS
 62
     5
 10
78.040266999999858
 20
172.7170620000002
 30
0.0
 11
78.067485000000033
 21
172.7109770000001
 31
0.0
  0
LINE
  8
DETAIL
  6
CONTINUOUS
 62
     5
 10
78.067485000000033
 20
172.7109770000001
 30
0.0
 11
78.099878999999873
 21
172.70424299999999
 31
0.0
  0
LINE
  8
DETAIL
  6
CONTINUOUS
 62
     5
 10
78.099878999999873
 20
172.70424299999999
 30
0.0
 11
78.136948999999731
 21
172.697169
 31
0.0
  0
LINE
  8
DETAIL
  6
CONTINUOUS
 62
     5
 10
78.136948999999731
 20
172.697169
 30
0.0
 11
78.178429999999935
 21
172.69007500000009
 31
0.0
  0
LINE
  8
DETAIL
  6
CONTINUOUS
 62
     5
 10
78.178429999999935
 20
172.69007500000009
 30
0.0
 11
78.224134999999933
 21
172.68327000000011
 31
0.0
  0
LINE
  8
DETAIL
  6
CONTINUOUS
 62
     5
 10
78.224134999999933
 20
172.68327000000011
 30
0.0
 11
78.273439999999937
 21
172.67710100000011
 31
0.0
  0
LINE
  8
DETAIL
  6
CONTINUOUS
 62
     5
 10
78.273439999999937
 20
172.67710100000011
 30
0.0
 11
78.325941000000057
 21
172.67195000000001
 31
0.0
  0
LINE
  8
DETAIL
  6
CONTINUOUS
 62
     5
 10
78.325941000000057
 20
172.67195000000001
 30
0.0
 11
78.380397999999786
 21
172.66802600000011
 31
0.0
  0
LINE
  8
DETAIL
  6
CONTINUOUS
 62
     5
 10
78.380397999999786
 20
172.66802600000011
 30
0.0
 11
78.435449000000062
 21
172.665708
 31
0.0
  0
LINE
  8
DETAIL
  6
CONTINUOUS
 62
     5
 10
78.435449000000062
 20
172.665708
 30
0.0
 11
78.490580000000136
 21
172.66487000000009
 31
0.0
  0
LINE
  8
DETAIL
  6
CONTINUOUS
 62
     5
 10
78.490580000000136
 20
172.66487000000009
 30
0.0
 11
79.003617999999733
 21
172.66491500000009
 31
0.0
  0
LINE
  8
DETAIL
  6
CONTINUOUS
 62
     5
 10
79.003617999999733
 20
172.66491500000009
 30
0.0
 11
79.016689999999926
 21
172.6650480000001
 31
0.0
  0
LINE
  8
DETAIL
  6
CONTINUOUS
 62
     5
 10
79.016689999999926
 20
172.6650480000001
 30
0.0
 11
79.029736999999841
 21
172.66527000000011
 31
0.0
  0
LINE
  8
DETAIL
  6
CONTINUOUS
 62
     5
 10
79.029736999999841
 20
172.66527000000011
 30
0.0
 11
79.042758999999933
 21
172.66558000000001
 31
0.0
  0
LINE
  8
DETAIL
  6
CONTINUOUS
 62
     5
 10
79.042758999999933
 20
172.66557599999999
 30
0.0
 11
79.101955999999973
 21
172.66781900000001
 31
0.0
  0
LINE
  8
DETAIL
  6
CONTINUOUS
 62
     5
 10
79.101955999999973
 20
172.66781900000001
 30
0.0
 11
79.159901999999875
 21
172.67092600000001
 31
0.0
  0
LINE
  8
DETAIL
  6
CONTINUOUS
 62
     5
 10
79.159901999999875
 20
172.67092600000001
 30
0.0
 11
79.21583499999997
 21
172.67502400000001
 31
0.0
  0
LINE
  8
DETAIL
  6
CONTINUOUS
 62
     5
 10
79.21583499999997
 20
172.67502400000001
 30
0.0
 11
79.268508000000111
 21
172.6797369999999
 31
0.0
  0
LINE
  8
DETAIL
  6
CONTINUOUS
 62
     5
 10
79.268508000000111
 20
172.6797369999999
 30
0.0
 11
79.316718999999921
 21
172.68481800000009
 31
0.0
  0
LINE
  8
DETAIL
  6
CONTINUOUS
 62
     5
 10
79.316718999999921
 20
172.68481800000009
 30
0.0
 11
79.360173999999915
 21
172.69000399999999
 31
0.0
  0
LINE
  8
DETAIL
  6
CONTINUOUS
 62
     5
 10
79.360173999999915
 20
172.69000399999999
 30
0.0
 11
79.398380000000088
 21
172.69503399999999
 31
0.0
  0
LINE
  8
DETAIL
  6
CONTINUOUS
 62
     5
 10
79.398380000000088
 20
172.69503399999999
 30
0.0
 11
79.43072200000006
 21
172.69964999999999
 31
0.0
  0
LINE
  8
DETAIL
  6
CONTINUOUS
 62
     5
 10
79.43072200000006
 20
172.69964999999999
 30
0.0
 11
79.456760000000031
 21
172.70357000000001
 31
0.0
  0
ARC
  8
DETAIL
  6
CONTINUOUS
 62
     5
 10
79.042758999999933
 20
167.72987000000001
 30
0.0
 40
4.9993999999999996
 50
1.0051130000008079
 51
84.862227000001099
  0
ARC
  8
DETAIL
  6
CONTINUOUS
 62
     5
 10
50.0
 20
60.387080999999966
 30
0.0
 40
15.0
 50
270.0
 51
0.0
  0
LINE
  8
DETAIL
  6
CONTINUOUS
 62
     5
 10
65.0
 20
60.387080999999966
 30
0.0
 11
65.0
 21
139.14215300000001
 31
0.0
  0
ARC
  8
DETAIL
  6
CONTINUOUS
 62
     5
 10
48.0
 20
139.14215300000001
 30
0.0
 40
17.0
 50
0.0
 51
86.35885500000056
  0
LINE
  8
DETAIL
  6
CONTINUOUS
 62
     5
 10
58.149277999999867
 20
102.0
 30
0.0
 11
-60.434532000000218
 21
102.0
 31
0.0
  0
LINE
  8
NOTE
  6
CENTER
 62
     4
 10
-65.0
 20
6.965336000000093
 30
0.0
 11
-65.0
 21
-6.2991109999999253
 31
0.0
  0
LINE
  8
NOTE
  6
CENTER
 62
     4
 10
-98.5
 20
6.965336000000093
 30
0.0
 11
-98.5
 21
-6.2991109999999253
 31
0.0
  0
LINE
  8
NOTE
  6
CENTER
 62
     4
 10
65.0
 20
6.965336000000093
 30
0.0
 11
65.0
 21
-6.2991109999999253
 31
0.0
  0
LINE
  8
NOTE
  6
CENTER
 62
     4
 10
98.5
 20
6.965336000000093
 30
0.0
 11
98.5
 21
-6.2991109999999253
 31
0.0
  0
LINE
  8
OUTLINE
  6
CONTINUOUS
 62
     3
 10
-61.11266599999999
 20
177.72866999999999
 30
0.0
 11
61.112665000000113
 21
177.72866999999999
 31
0.0
  0
LINE
  8
SIZE
  6
CONTINUOUS
 62
    30
 10
-65.0
 20
-26.299110999999929
 30
0.0
 11
-65.0
 21
-161.23722910924059
 31
0.0
  0
LINE
  8
SIZE
  6
CONTINUOUS
 62
    30
 10
65.0
 20
-26.299110999999929
 30
0.0
 11
65.0
 21
-161.23722910924059
 31
0.0
  0
LINE
  8
SIZE
  6
CONTINUOUS
 62
    30
 10
-77.0
 20
-141.23722910924059
 30
0.0
 11
-310.13733022632732
 21
-141.23722910924059
 31
0.0
  0
LINE
  8
SIZE
  6
CONTINUOUS
 62
    30
 10
77.0
 20
-141.23722910924059
 30
0.0
 11
89.0
 21
-141.23722910924059
 31
0.0
  0
LINE
  8
SIZE
  6
CONTINUOUS
 62
    30
 10
-65.0
 20
-141.23722910924059
 30
0.0
 11
65.0
 21
-141.23722910924059
 31
0.0
  0
CIRCLE
  8
SIZE
  6
CONTINUOUS
 62
    30
 10
-65.0
 20
-141.23722910924059
 30
0.0
 40
6.0
  0
LINE
  8
SIZE
  6
CONTINUOUS
 62
    30
 10
-65.0
 20
-141.23722910924059
 30
0.0
 11
-77.0
 21
-141.23722910924059
 31
0.0
  0
CIRCLE
  8
SIZE
  6
CONTINUOUS
 62
    30
 10
65.0
 20
-141.23722910924059
 30
0.0
 40
6.0
  0
LINE
  8
SIZE
  6
CONTINUOUS
 62
    30
 10
65.0
 20
-141.23722910924059
 30
0.0
 11
77.0
 21
-141.23722910924059
 31
0.0
  0
TEXT
  8
SIZE
  6
CONTINUOUS
 62
    30
 10
-306.20854651681401
 20
-116.2372291092407
 30
0.0
 40
64.0
  1
130
 41
0.9
 72
     1
 11
-237.6371179453854
 21
-116.2372291092407
 31
0.0
  0
POINT
  8
DEFPOINTS
  6
CONTINUOUS
 62
    30
 10
-65.0
 20
-6.2991109999999253
 30
0.0
  0
POINT
  8
DEFPOINTS
  6
CONTINUOUS
 62
    30
 10
65.0
 20
-6.2991109999999253
 30
0.0
  0
POINT
  8
DEFPOINTS
  6
CONTINUOUS
 62
    30
 10
65.0
 20
-141.23722910924059
 30
0.0
  0
LINE
  8
SIZE
  6
CONTINUOUS
 62
    30
 10
-98.5
 20
-26.299110999999929
 30
0.0
 11
-98.5
 21
-289.17086333766588
 31
0.0
  0
LINE
  8
SIZE
  6
CONTINUOUS
 62
    30
 10
98.5
 20
-26.299110999999929
 30
0.0
 11
98.5
 21
-289.17086333766588
 31
0.0
  0
LINE
  8
SIZE
  6
CONTINUOUS
 62
    30
 10
-86.5
 20
-269.17086333766588
 30
0.0
 11
86.5
 21
-269.17086333766588
 31
0.0
  0
CIRCLE
  8
SIZE
  6
CONTINUOUS
 62
    30
 10
-98.5
 20
-269.17086333766588
 30
0.0
 40
6.0
  0
LINE
  8
SIZE
  6
CONTINUOUS
 62
    30
 10
-98.5
 20
-269.17086333766588
 30
0.0
 11
-86.5
 21
-269.17086333766588
 31
0.0
  0
CIRCLE
  8
SIZE
  6
CONTINUOUS
 62
    30
 10
98.5
 20
-269.17086333766588
 30
0.0
 40
6.0
  0
LINE
  8
SIZE
  6
CONTINUOUS
 62
    30
 10
98.5
 20
-269.17086333766588
 30
0.0
 11
86.5
 21
-269.17086333766588
 31
0.0
  0
TEXT
  8
SIZE
  6
CONTINUOUS
 62
    30
 10
-68.571428571428569
 20
-244.17086333766571
 30
0.0
 40
64.0
  1
197
 41
0.9
 72
     1
 11
0.0
 21
-244.17086333766571
 31
0.0
  0
POINT
  8
DEFPOINTS
  6
CONTINUOUS
 62
    30
 10
-98.5
 20
-6.2991109999999253
 30
0.0
  0
POINT
  8
DEFPOINTS
  6
CONTINUOUS
 62
    30
 10
98.5
 20
-6.2991109999999253
 30
0.0
  0
POINT
  8
DEFPOINTS
  6
CONTINUOUS
 62
    30
 10
98.5
 20
-269.17086333766588
 30
0.0
  0
LINE
  8
SIZE
  6
CONTINUOUS
 62
    30
 10
-124.9724249999999
 20
-20.526167999999981
 30
0.0
 11
-124.9724249999999
 21
-415.49427524356003
 31
0.0
  0
LINE
  8
SIZE
  6
CONTINUOUS
 62
    30
 10
124.972424
 20
-20.526167999999981
 30
0.0
 11
124.972424
 21
-415.49427524356003
 31
0.0
  0
LINE
  8
SIZE
  6
CONTINUOUS
 62
    30
 10
-136.9724249999999
 20
-395.49427524356003
 30
0.0
 11
-148.9724249999999
 21
-395.49427524356003
 31
0.0
  0
LINE
  8
SIZE
  6
CONTINUOUS
 62
    30
 10
136.97242399999999
 20
-395.49427524356003
 30
0.0
 11
148.97242399999999
 21
-395.49427524356003
 31
0.0
  0
LINE
  8
SIZE
  6
CONTINUOUS
 62
    30
 10
-124.9724249999999
 20
-395.49427524356003
 30
0.0
 11
124.972424
 21
-395.49427524356003
 31
0.0
  0
CIRCLE
  8
SIZE
  6
CONTINUOUS
 62
    30
 10
-124.9724249999999
 20
-395.49427524356003
 30
0.0
 40
6.0
  0
LINE
  8
SIZE
  6
CONTINUOUS
 62
    30
 10
-124.9724249999999
 20
-395.49427524356003
 30
0.0
 11
-136.9724249999999
 21
-395.49427524356003
 31
0.0
  0
CIRCLE
  8
SIZE
  6
CONTINUOUS
 62
    30
 10
124.972424
 20
-395.49427524356003
 30
0.0
 40
6.0
  0
LINE
  8
SIZE
  6
CONTINUOUS
 62
    30
 10
124.972424
 20
-395.49427524356003
 30
0.0
 11
136.97242399999999
 21
-395.49427524356003
 31
0.0
  0
TEXT
  8
SIZE
  6
CONTINUOUS
 62
    30
 10
-110.53714335714299
 20
-370.49427524356003
 30
0.0
 40
64.0
  1
□250
 41
0.9
 72
     1
 11
-0.0000005000001693
 21
-370.49427524356003
 31
0.0
  0
POINT
  8
DEFPOINTS
  6
CONTINUOUS
 62
    30
 10
-124.9724249999999
 20
-0.5261679999999842
 30
0.0
  0
POINT
  8
DEFPOINTS
  6
CONTINUOUS
 62
    30
 10
124.972424
 20
-0.5261679999999842
 30
0.0
  0
POINT
  8
DEFPOINTS
  6
CONTINUOUS
 62
    30
 10
124.972424
 20
-395.49427524356003
 30
0.0
  0
LINE
  8
SIZE
  6
CONTINUOUS
 62
    30
 10
-341.40850924225879
 20
311.97055882836003
 30
0.0
 11
-51.874601745025302
 21
133.9035373241754
 31
0.0
  0
LINE
  8
SIZE
  6
CONTINUOUS
 62
    30
 10
51.874601745024847
 20
70.096462675824455
 30
0.0
 11
62.096198147985433
 21
63.810051380420418
 31
0.0
  0
TEXT
  8
SIZE
  6
CONTINUOUS
 62
    30
 10
-319.16592397627988
 20
327.64070998973551
 30
0.0
 40
64.0
  1
φ98
 50
328.40795758294388
 41
0.9
 72
     1
 11
-245.10315689654271
 21
282.09116986075082
 31
0.0
  0
CIRCLE
  8
SIZE
  6
CONTINUOUS
 62
    30
 10
41.653005342064262
 20
76.382873971228491
 30
0.0
 40
6.0
  0
CIRCLE
  8
SIZE
  6
CONTINUOUS
 62
    30
 10
-41.653005342064723
 20
127.61712602877149
 30
0.0
 40
6.0
  0
LINE
  8
SIZE
  6
CONTINUOUS
 62
    30
 10
51.874601745024847
 20
70.096462675824455
 30
0.0
 11
-51.874601745025302
 21
133.9035373241754
 31
0.0
  0
POINT
  8
DEFPOINTS
  6
CONTINUOUS
 62
    30
 10
-41.653005342064723
 20
127.61712602877149
 30
0.0
  0
POINT
  8
DEFPOINTS
  6
CONTINUOUS
 62
    30
 10
41.653005342064262
 20
76.382873971228491
 30
0.0
  0
CIRCLE
  8
DETAIL
  6
CONTINUOUS
 62
     5
 10
0.0
 20
102.0
 30
0.0
 40
52.5
  0
LINE
  8
SIZE
  6
CONTINUOUS
 62
    30
 10
-284.23161428195272
 20
490.9877847685691
 30
0.0
 11
45.133299262866792
 21
40.232409002385793
 31
0.0
  0
TEXT
  8
SIZE
  6
CONTINUOUS
 62
    30
 10
-257.71145144875112
 20
497.06785056057828
 30
0.0
 40
64.0
  1
φ105
 50
306.15543057689962
 41
0.9
 72
     1
 11
-193.46792945038081
 21
409.1467888201089
 31
0.0
  0
CIRCLE
  8
SIZE
  6
CONTINUOUS
 62
    30
 10
30.9738328274575
 20
59.61047676634314
 30
0.0
 40
6.0
  0
CIRCLE
  8
SIZE
  6
CONTINUOUS
 62
    30
 10
-30.973832827457041
 20
144.38952323365669
 30
0.0
 40
6.0
  0
POINT
  8
DEFPOINTS
  6
CONTINUOUS
 62
    30
 10
-30.973832827457041
 20
144.38952323365669
 30
0.0
  0
POINT
  8
DEFPOINTS
  6
CONTINUOUS
 62
    30
 10
30.9738328274575
 20
59.61047676634314
 30
0.0
  0
LINE
  8
SIZE
  6
CONTINUOUS
 62
    30
 10
144.47310899999999
 20
0.0
 30
0.0
 11
362.11039783944852
 21
0.0
 31
0.0
  0
LINE
  8
SIZE
  6
CONTINUOUS
 62
    30
 10
78.149277999999867
 20
102.0
 30
0.0
 11
362.11039783944852
 21
101.9999999999999
 31
0.0
  0
LINE
  8
SIZE
  6
CONTINUOUS
 62
    30
 10
342.11039783944852
 20
89.999999999999943
 30
0.0
 11
342.11039783944852
 21
12.0
 31
0.0
  0
LINE
  8
SIZE
  6
CONTINUOUS
 62
    30
 10
342.11039783944852
 20
0.0
 30
0.0
 11
342.11039783944852
 21
-199.14285714285711
 31
0.0
  0
CIRCLE
  8
SIZE
  6
CONTINUOUS
 62
    30
 10
342.11039783944852
 20
101.9999999999999
 30
0.0
 40
6.0
  0
LINE
  8
SIZE
  6
CONTINUOUS
 62
    30
 10
342.11039783944852
 20
101.9999999999999
 30
0.0
 11
342.11039783944852
 21
89.999999999999886
 31
0.0
  0
CIRCLE
  8
SIZE
  6
CONTINUOUS
 62
    30
 10
342.11039783944852
 20
0.0
 30
0.0
 40
6.0
  0
LINE
  8
SIZE
  6
CONTINUOUS
 62
    30
 10
342.11039783944852
 20
0.0
 30
0.0
 11
342.11039783944852
 21
12.0
 31
0.0
  0
TEXT
  8
SIZE
  6
CONTINUOUS
 62
    30
 10
317.11039783944852
 20
-174.14285714285711
 30
0.0
 40
64.0
  1
102
 50
90.0
 41
0.9
 72
     1
 11
317.11039783944852
 21
-105.5714285714286
 31
0.0
  0
POINT
  8
DEFPOINTS
  6
CONTINUOUS
 62
    30
 10
124.47310899999999
 20
0.0
 30
0.0
  0
POINT
  8
DEFPOINTS
  6
CONTINUOUS
 62
    30
 10
58.149277999999867
 20
102.0
 30
0.0
  0
POINT
  8
DEFPOINTS
  6
CONTINUOUS
 62
    30
 10
342.11039783944852
 20
101.9999999999999
 30
0.0
  0
LINE
  8
SIZE
  6
CONTINUOUS
 62
    30
 10
20.0
 20
45.399600000000078
 30
0.0
 11
257.97125218368552
 21
45.399599999999957
 31
0.0
  0
LINE
  8
SIZE
  6
CONTINUOUS
 62
    30
 10
144.47310899999999
 20
0.0
 30
0.0
 11
257.97125218368552
 21
0.0
 31
0.0
  0
LINE
  8
SIZE
  6
CONTINUOUS
 62
    30
 10
237.97125218368549
 20
57.399599999999957
 30
0.0
 11
237.97125218368549
 21
69.399599999999964
 31
0.0
  0
LINE
  8
SIZE
  6
CONTINUOUS
 62
    30
 10
237.97125218368549
 20
-12.0
 30
0.0
 11
237.97125218368549
 21
-167.2571428571429
 31
0.0
  0
LINE
  8
SIZE
  6
CONTINUOUS
 62
    30
 10
237.97125218368549
 20
45.399599999999957
 30
0.0
 11
237.97125218368549
 21
0.0
 31
0.0
  0
CIRCLE
  8
SIZE
  6
CONTINUOUS
 62
    30
 10
237.97125218368549
 20
45.399599999999957
 30
0.0
 40
6.0
  0
LINE
  8
SIZE
  6
CONTINUOUS
 62
    30
 10
237.97125218368549
 20
45.399599999999957
 30
0.0
 11
237.97125218368549
 21
57.399599999999957
 31
0.0
  0
CIRCLE
  8
SIZE
  6
CONTINUOUS
 62
    30
 10
237.97125218368549
 20
0.0
 30
0.0
 40
6.0
  0
LINE
  8
SIZE
  6
CONTINUOUS
 62
    30
 10
237.97125218368549
 20
0.0
 30
0.0
 11
237.97125218368549
 21
-12.0
 31
0.0
  0
TEXT
  8
SIZE
  6
CONTINUOUS
 62
    30
 10
212.97125218368549
 20
-142.25714285714281
 30
0.0
 40
64.0
  1
45
 50
90.0
 41
0.9
 72
     1
 11
212.97125218368549
 21
-95.628571428571377
 31
0.0
  0
POINT
  8
DEFPOINTS
  6
CONTINUOUS
 62
    30
 10
0.0
 20
45.399600000000078
 30
0.0
  0
POINT
  8
DEFPOINTS
  6
CONTINUOUS
 62
    30
 10
124.47310899999999
 20
0.0
 30
0.0
  0
POINT
  8
DEFPOINTS
  6
CONTINUOUS
 62
    30
 10
237.97125218368549
 20
0.0
 30
0.0
  0
LINE
  8
SIZE
  6
CONTINUOUS
 62
    30
 10
-86.989868999999999
 20
20.0
 30
0.0
 11
-86.989868999999999
 21
267.69071120727301
 31
0.0
  0
LINE
  8
SIZE
  6
CONTINUOUS
 62
    30
 10
86.989868000000115
 20
20.0
 30
0.0
 11
86.989868000000115
 21
267.69071120727301
 31
0.0
  0
LINE
  8
SIZE
  6
CONTINUOUS
 62
    30
 10
-74.989868999999999
 20
247.69071120727301
 30
0.0
 11
74.989868000000115
 21
247.69071120727301
 31
0.0
  0
CIRCLE
  8
SIZE
  6
CONTINUOUS
 62
    30
 10
-86.989868999999999
 20
247.69071120727301
 30
0.0
 40
6.0
  0
LINE
  8
SIZE
  6
CONTINUOUS
 62
    30
 10
-86.989868999999999
 20
247.69071120727301
 30
0.0
 11
-74.989868999999999
 21
247.69071120727301
 31
0.0
  0
CIRCLE
  8
SIZE
  6
CONTINUOUS
 62
    30
 10
86.989868000000115
 20
247.69071120727301
 30
0.0
 40
6.0
  0
LINE
  8
SIZE
  6
CONTINUOUS
 62
    30
 10
86.989868000000115
 20
247.69071120727301
 30
0.0
 11
74.989868000000115
 21
247.69071120727301
 31
0.0
  0
TEXT
  8
SIZE
  6
CONTINUOUS
 62
    30
 10
-106.42285764285729
 20
272.69071120727301
 30
0.0
 40
64.0
  1
□174
 41
0.9
 72
     1
 11
-0.0000005000001693
 21
272.69071120727301
 31
0.0
  0
POINT
  8
DEFPOINTS
  6
CONTINUOUS
 62
    30
 10
-86.989868999999999
 20
0.0
 30
0.0
  0
POINT
  8
DEFPOINTS
  6
CONTINUOUS
 62
    30
 10
86.989868000000115
 20
0.0
 30
0.0
  0
POINT
  8
DEFPOINTS
  6
CONTINUOUS
 62
    30
 10
86.989868000000115
 20
247.69071120727301
 30
0.0
  0
LINE
  8
SIZE
  6
CONTINUOUS
 62
    30
 10
-74.337833000000046
 20
183.97792000000001
 30
0.0
 11
-399.39128594009162
 21
183.97792000000021
 31
0.0
  0
LINE
  8
SIZE
  6
CONTINUOUS
 62
    30
 10
-144.47310999999991
 20
0.0
 30
0.0
 11
-399.39128594009162
 21
0.0
 31
0.0
  0
LINE
  8
SIZE
  6
CONTINUOUS
 62
    30
 10
-379.39128594009162
 20
195.97792000000021
 30
0.0
 11
-379.39128594009162
 21
207.97792000000021
 31
0.0
  0
LINE
  8
SIZE
  6
CONTINUOUS
 62
    30
 10
-379.39128594009162
 20
-12.0
 30
0.0
 11
-379.39128594009162
 21
-24.0
 31
0.0
  0
LINE
  8
SIZE
  6
CONTINUOUS
 62
    30
 10
-379.39128594009162
 20
183.97792000000021
 30
0.0
 11
-379.39128594009162
 21
0.0
 31
0.0
  0
CIRCLE
  8
SIZE
  6
CONTINUOUS
 62
    30
 10
-379.39128594009162
 20
183.97792000000021
 30
0.0
 40
6.0
  0
LINE
  8
SIZE
  6
CONTINUOUS
 62
    30
 10
-379.39128594009162
 20
183.97792000000021
 30
0.0
 11
-379.39128594009162
 21
195.97792000000021
 31
0.0
  0
CIRCLE
  8
SIZE
  6
CONTINUOUS
 62
    30
 10
-379.39128594009162
 20
0.0
 30
0.0
 40
6.0
  0
LINE
  8
SIZE
  6
CONTINUOUS
 62
    30
 10
-379.39128594009162
 20
0.0
 30
0.0
 11
-379.39128594009162
 21
-12.0
 31
0.0
  0
TEXT
  8
SIZE
  6
CONTINUOUS
 62
    30
 10
-404.39128594009162
 20
22.046102857142959
 30
0.0
 40
64.0
  1
184
 50
90.0
 41
0.9
 72
     1
 11
-404.39128594009162
 21
91.988960000000077
 31
0.0
  0
POINT
  8
DEFPOINTS
  6
CONTINUOUS
 62
    30
 10
-54.337833000000053
 20
183.97792000000001
 30
0.0
  0
POINT
  8
DEFPOINTS
  6
CONTINUOUS
 62
    30
 10
-124.47310999999991
 20
0.0
 30
0.0
  0
POINT
  8
DEFPOINTS
  6
CONTINUOUS
 62
    30
 10
-379.39128594009162
 20
0.0
 30
0.0
  0
LINE
  8
SIZE
  6
CONTINUOUS
 62
    30
 10
-144.47310999999991
 20
0.0
 30
0.0
 11
-399.39128594009162
 21
0.0
 31
0.0
  0
LINE
  8
SIZE
  6
CONTINUOUS
 62
    30
 10
-137.80668999999989
 20
-15.0
 30
0.0
 11
-399.39128594009162
 21
-15.0
 31
0.0
  0
LINE
  8
SIZE
  6
CONTINUOUS
 62
    30
 10
-379.39128594009162
 20
12.0
 30
0.0
 11
-379.39128594009162
 21
24.0
 31
0.0
  0
LINE
  8
SIZE
  6
CONTINUOUS
 62
    30
 10
-379.39128594009162
 20
-27.0
 30
0.0
 11
-379.39128594009162
 21
-171.28571428571419
 31
0.0
  0
LINE
  8
SIZE
  6
CONTINUOUS
 62
    30
 10
-379.39128594009162
 20
0.0
 30
0.0
 11
-379.39128594009162
 21
-15.0
 31
0.0
  0
CIRCLE
  8
SIZE
  6
CONTINUOUS
 62
    30
 10
-379.39128594009162
 20
0.0
 30
0.0
 40
6.0
  0
LINE
  8
SIZE
  6
CONTINUOUS
 62
    30
 10
-379.39128594009162
 20
0.0
 30
0.0
 11
-379.39128594009162
 21
12.0
 31
0.0
  0
CIRCLE
  8
SIZE
  6
CONTINUOUS
 62
    30
 10
-379.39128594009162
 20
-15.0
 30
0.0
 40
6.0
  0
LINE
  8
SIZE
  6
CONTINUOUS
 62
    30
 10
-379.39128594009162
 20
-15.0
 30
0.0
 11
-379.39128594009162
 21
-27.0
 31
0.0
  0
TEXT
  8
SIZE
  6
CONTINUOUS
 62
    30
 10
-404.39128594009162
 20
-146.28571428571439
 30
0.0
 40
64.0
  1
15
 50
90.0
 41
0.9
 72
     1
 11
-404.39128594009162
 21
-105.1428571428572
 31
0.0
  0
POINT
  8
DEFPOINTS
  6
CONTINUOUS
 62
    30
 10
-124.47310999999991
 20
0.0
 30
0.0
  0
POINT
  8
DEFPOINTS
  6
CONTINUOUS
 62
    30
 10
-117.8066899999999
 20
-15.0
 30
0.0
  0
POINT
  8
DEFPOINTS
  6
CONTINUOUS
 62
    30
 10
-379.39128594009162
 20
-15.0
 30
0.0
  0
TEXT
  8
NOTE
  6
CONTINUOUS
 62
     4
 10
231.88954352091329
 20
160.05680205336381
 30
0.0
 40
63.999999999999993
  1
8-φ5×8.5
 50
359.85073780173718
 41
0.9
  0
LINE
  8
NOTE
  6
CONTINUOUS
 62
     4
 10
702.64299039262596
 20
137.73829806243259
 30
0.0
 11
221.6314109813394
 21
138.5843924540977
 31
0.0
  0
LINE
  8
NOTE
  6
CONTINUOUS
 62
     4
 10
98.499997754187461
 20
-0.0000030392055805
 30
0.0
 11
221.6314109813394
 21
138.5843924540977
 31
0.0
  0
LINE
  8
NOTE
  6
CONTINUOUS
 62
     4
 10
98.499997754187461
 20
-0.0000030392055805
 30
0.0
 11
129.8127431017665
 21
22.68341937967784
 31
0.0
  0
LINE
  8
NOTE
  6
CONTINUOUS
 62
     4
 10
117.4952724482109
 20
35.199293294555559
 30
0.0
 11
98.499997754187461
 21
-0.0000030392055805
 31
0.0
  0
CIRCLE
  8
FIX
  6
CONTINUOUS
 62
    11
 10
-98.5
 20
0.0
 30
0.0
 40
5.0
  0
CIRCLE
  8
FIX
  6
CONTINUOUS
 62
    11
 10
-65.0
 20
0.0
 30
0.0
 40
5.0
  0
CIRCLE
  8
FIX
  6
CONTINUOUS
 62
    11
 10
98.5
 20
0.0
 30
0.0
 40
5.0
  0
CIRCLE
  8
FIX
  6
CONTINUOUS
 62
    11
 10
65.0
 20
0.0
 30
0.0
 40
5.0
  0
TEXT
  8
NOTE
  6
CONTINUOUS
 62
     4
 10
-38.651100712371317
 20
66.854465900216496
 30
0.0
 40
64.0
  1
EA
 41
0.9
  0
LINE
  8
BASIS
  6
DASHDOT
 62
     6
 10
134.4731124968487
 20
0.0000008484316822
 30
0.0
 11
-134.4731124968487
 21
-0.0000008484316822
 31
0.0
  0
TEXT
  8
ETC
  6
CONTINUOUS
 62
    61
 10
401.75106853216812
 20
318.8095578509276
 30
0.0
 40
50.0
  1
VD-10ZC13-C
 41
0.9
  0
LINE
  8
DETAIL
  6
CONTINUOUS
 62
     5
 10
-52.749622999999701
 20
183.3767180000001
 30
0.0
 11
-50.293949999999768
 21
177.72867000000011
 31
0.0
  0
ARC
  8
DETAIL
  6
CONTINUOUS
 62
     5
 10
-53.666582999999719
 20
182.97804000000011
 30
0.0
 40
0.99988
 50
23.49856600001235
 51
90.0
  0
LINE
  8
DETAIL
  6
CONTINUOUS
 62
     5
 10
54.337833000000053
 20
183.97792000000001
 30
0.0
 11
53.984832999999981
 21
183.97792000000001
 31
0.0
  0
ARC
  8
DETAIL
  6
CONTINUOUS
 62
     5
 10
54.002207999999882
 20
182.97803500000001
 30
0.0
 40
0.99988
 50
0.5002369999988823
 51
90.0
  0
LINE
  8
DETAIL
  6
CONTINUOUS
 62
     5
 10
55.254793000000063
 20
183.3767180000001
 30
0.0
 11
57.710465999999997
 21
177.72867000000011
 31
0.0
  0
ARC
  8
DETAIL
  6
CONTINUOUS
 62
     5
 10
53.984832999999981
 20
182.97803500000001
 30
0.0
 40
0.99988
 50
90.0
 51
179.49972699999839
  0
LINE
  8
DETAIL
  6
CONTINUOUS
 62
     5
 10
55.002050000000047
 20
182.98676499999999
 30
0.0
 11
55.047937000000267
 21
177.72867000000011
 31
0.0
  0
LINE
  8
DETAIL
  6
CONTINUOUS
 62
     5
 10
52.939104000000043
 20
177.72867000000011
 30
0.0
 11
52.984991000000257
 21
182.98676499999999
 31
0.0
  0
ARC
  8
DETAIL
  6
CONTINUOUS
 62
     5
 10
54.337833000000053
 20
182.97804000000011
 30
0.0
 40
0.99988
 50
23.49856600001235
 51
90.0
  0
POINT
  8
DEFPOINTS
  6
CONTINUOUS
 62
    30
 10
54.337833000000053
 20
183.97792000000001
 30
0.0
 50
180.0
  0
LINE
  8
DETAIL
  6
CONTINUOUS
 62
     5
 10
52.749622999999701
 20
183.3767180000001
 30
0.0
 11
50.293949999999768
 21
177.72867000000011
 31
0.0
  0
ARC
  8
DETAIL
  6
CONTINUOUS
 62
     5
 10
53.666582999999719
 20
182.97804000000011
 30
0.0
 40
0.99988
 50
90.0
 51
156.5014339999868
  0
CIRCLE
  8
DETAIL
  6
CONTINUOUS
 62
     5
 10
0.0
 20
102.0
 30
0.0
 40
46.899999999999999
  0
CIRCLE
  8
DETAIL
  6
CONTINUOUS
 62
     5
 10
0.0
 20
102.0
 30
0.0
 40
48.899999999999999
  0
ENDSEC
  0
EOF
