  0
SECTION
  2
HEADER
  9
$ACADVER
  1
AC1009
  9
$INSBASE
 10
0.0
 20
0.0
 30
0.0
  9
$EXTMIN
 10
-664.99513299999967
 20
-586.38341400000002
 30
0.0
  9
$EXTMAX
 10
1264.04913091452
 20
836.83700299999987
 30
50.0
  9
$LIMMIN
 10
-2970.0
 20
-2100.0
  9
$LIMMAX
 10
2970.0
 20
2100.0
  9
$ORTHOMODE
 70
     1
  9
$REGENMODE
 70
     0
  9
$FILLMODE
 70
     1
  9
$QTEXTMODE
 70
     0
  9
$MIRRTEXT
 70
     0
  9
$DRAGMODE
 70
     2
  9
$LTSCALE
 40
20.0
  9
$OSMODE
 70
   167
  9
$ATTMODE
 70
     1
  9
$TEXTSIZE
 40
64.0
  9
$TRACEWID
 40
0.05
  9
$TEXTSTYLE
  7
STANDARD
  9
$CLAYER
  8
SIZE
  9
$CELTYPE
  6
CONTINUOUS
  9
$CECOLOR
 62
    30
  9
$DIMSCALE
 40
1.0
  9
$DIMASZ
 40
12.0
  9
$DIMEXO
 40
20.0
  9
$DIMDLI
 40
200.0
  9
$DIMRND
 40
0.0
  9
$DIMDLE
 40
0.0
  9
$DIMEXE
 40
20.0
  9
$DIMTP
 40
0.0
  9
$DIMTM
 40
0.0
  9
$DIMTXT
 40
64.0
  9
$DIMCEN
 40
0.09
  9
$DIMTSZ
 40
0.0
  9
$DIMTOL
 70
     0
  9
$DIMLIM
 70
     0
  9
$DIMTIH
 70
     0
  9
$DIMTOH
 70
     0
  9
$DIMSE1
 70
     0
  9
$DIMSE2
 70
     0
  9
$DIMTAD
 70
     1
  9
$DIMZIN
 70
     8
  9
$DIMBLK
  1
DOT1
  9
$DIMASO
 70
     1
  9
$DIMSHO
 70
     0
  9
$DIMPOST
  1

  9
$DIMAPOST
  1

  9
$DIMALT
 70
     0
  9
$DIMALTD
 70
     2
  9
$DIMALTF
 40
25.399999999999999
  9
$DIMLFAC
 40
1.0
  9
$DIMTOFL
 70
     1
  9
$DIMTVP
 40
0.0
  9
$DIMTIX
 70
     1
  9
$DIMSOXD
 70
     0
  9
$DIMSAH
 70
     1
  9
$DIMBLK1
  1
ORIGIN
  9
$DIMBLK2
  1
ORIGIN
  9
$DIMSTYLE
  2
STANDARD
  9
$DIMCLRD
 70
     7
  9
$DIMCLRE
 70
     7
  9
$DIMCLRT
 70
     7
  9
$DIMTFAC
 40
1.0
  9
$DIMGAP
 40
25.0
  9
$LUNITS
 70
     2
  9
$LUPREC
 70
     4
  9
$SKETCHINC
 40
0.1
  9
$FILLETRAD
 40
5.0
  9
$AUNITS
 70
     1
  9
$AUPREC
 70
     3
  9
$MENU
  1
ACAD
  9
$ELEVATION
 40
0.0
  9
$PELEVATION
 40
0.0
  9
$THICKNESS
 40
50.0
  9
$LIMCHECK
 70
     0
  9
$BLIPMODE
 70
     0
  9
$CHAMFERA
 40
0.0
  9
$CHAMFERB
 40
0.0
  9
$SKPOLY
 70
     0
  9
$TDCREATE
 40
2453104.7467740048
  9
$TDUPDATE
 40
2454146.468797198
  9
$TDINDWG
 40
0.1408834838
  9
$TDUSRTIMER
 40
0.1408833102
  9
$USRTIMER
 70
     1
  9
$ANGBASE
 50
0.0
  9
$ANGDIR
 70
     0
  9
$PDMODE
 70
     3
  9
$PDSIZE
 40
-2.0
  9
$PLINEWID
 40
0.0
  9
$COORDS
 70
     1
  9
$SPLFRAME
 70
     0
  9
$SPLINETYPE
 70
     6
  9
$SPLINESEGS
 70
     8
  9
$ATTDIA
 70
     0
  9
$ATTREQ
 70
     1
  9
$HANDLING
 70
 22529
  9
$HANDSEED
  5
A24
  9
$SURFTAB1
 70
     6
  9
$SURFTAB2
 70
     6
  9
$SURFTYPE
 70
     6
  9
$SURFU
 70
     6
  9
$SURFV
 70
     6
  9
$UCSNAME
  2

  9
$UCSORG
 10
0.0
 20
0.0
 30
0.0
  9
$UCSXDIR
 10
1.0
 20
0.0
 30
0.0
  9
$UCSYDIR
 10
0.0
 20
1.0
 30
0.0
  9
$PUCSNAME
  2

  9
$PUCSORG
 10
0.0
 20
0.0
 30
0.0
  9
$PUCSXDIR
 10
1.0
 20
0.0
 30
0.0
  9
$PUCSYDIR
 10
0.0
 20
1.0
 30
0.0
  9
$USERI1
 70
     0
  9
$USERI2
 70
     0
  9
$USERI3
 70
     0
  9
$USERI4
 70
     0
  9
$USERI5
 70
     0
  9
$USERR1
 40
20.0
  9
$USERR2
 40
0.0
  9
$USERR3
 40
0.0
  9
$USERR4
 40
0.0
  9
$USERR5
 40
0.0
  9
$WORLDVIEW
 70
     1
  9
$SHADEDGE
 70
     3
  9
$SHADEDIF
 70
    70
  9
$TILEMODE
 70
     1
  9
$MAXACTVP
 70
    48
  9
$PLIMCHECK
 70
     0
  9
$PEXTMIN
 10
-1.0000000000000000E+020
 20
-1.0000000000000000E+020
 30
-1.0000000000000000E+020
  9
$PEXTMAX
 10
1.0000000000000000E+020
 20
1.0000000000000000E+020
 30
1.0000000000000000E+020
  9
$PLIMMIN
 10
0.0
 20
0.0
  9
$PLIMMAX
 10
12.0
 20
9.0
  9
$UNITMODE
 70
     0
  9
$VISRETAIN
 70
     0
  9
$PLINEGEN
 70
     0
  9
$PSLTSCALE
 70
     0
  0
ENDSEC
  0
SECTION
  2
TABLES
  0
TABLE
  2
VPORT
 70
     3
  0
VPORT
  2
*ACTIVE
 70
     0
 10
0.0
 20
0.0
 11
1.0
 21
1.0
 12
284.49858380255642
 22
124.4777059652487
 13
0.0
 23
0.0
 14
1.0
 24
1.0
 15
0.0
 25
0.0
 16
0.0
 26
0.0
 36
1.0
 17
0.0
 27
0.0
 37
0.0
 40
1522.3396837851869
 41
1.710526315789473
 42
50.0
 43
0.0
 44
0.0
 50
0.0
 51
0.0
 71
     0
 72
  1000
 73
     1
 74
     0
 75
     0
 76
     0
 77
     0
 78
     0
  0
ENDTAB
  0
TABLE
  2
LTYPE
 70
     2
  0
LTYPE
  2
CONTINUOUS
 70
     0
  3
実線
 72
    65
 73
     0
 40
0.0
  0
LTYPE
  2
DASHDOT
 70
     0
  3
____ _ ____ _ ____ _ ____ _ ____ _ ____ _ ____
 72
    65
 73
     4
 40
5.5
 49
4.0
 49
-0.6
 49
0.3
 49
-0.6
  0
ENDTAB
  0
TABLE
  2
LAYER
 70
    12
  0
LAYER
  2
0
 70
     0
 62
     7
  6
CONTINUOUS
  0
LAYER
  2
SIZE
 70
     0
 62
    30
  6
CONTINUOUS
  0
LAYER
  2
BASIS
 70
     0
 62
     6
  6
DASHDOT
  0
LAYER
  2
OUTLINE
 70
     0
 62
     3
  6
CONTINUOUS
  0
LAYER
  2
DETAIL
 70
     0
 62
     5
  6
CONTINUOUS
  0
LAYER
  2
ARRANGE
 70
     0
 62
     1
  6
CONTINUOUS
  0
LAYER
  2
DEFPOINTS
 70
     0
 62
     7
  6
CONTINUOUS
  0
LAYER
  2
ETC
 70
     0
 62
    61
  6
CONTINUOUS
  0
LAYER
  2
FIX
 70
     0
 62
    11
  6
CONTINUOUS
  0
LAYER
  2
NOTE
 70
     0
 62
     4
  6
CONTINUOUS
  0
LAYER
  2
SERVICESPACE
 70
     0
 62
     2
  6
DASHDOT
  0
LAYER
  2
SYMBOLLINE
 70
     0
 62
    15
  6
CONTINUOUS
  0
ENDTAB
  0
TABLE
  2
STYLE
 70
     1
  0
STYLE
  2
STANDARD
 70
     0
 40
64.0
 41
0.9
 50
0.0
 71
     0
 42
64.0
  3
SIMPLEX.shx
  4
BIGFONT.shx
  0
ENDTAB
  0
TABLE
  2
VIEW
 70
     1
  0
VIEW
  2
ALL
 70
     0
 40
4282.6198079999967
 10
0.0
 20
41.309903999999989
 41
5940.0
 11
0.0
 21
0.0
 31
1.0
 12
0.0
 22
0.0
 32
0.0
 42
50.0
 43
0.0
 44
0.0
 50
0.0
 71
     0
  0
ENDTAB
  0
TABLE
  2
UCS
 70
     0
  0
ENDTAB
  0
TABLE
  2
APPID
 70
     2
  0
APPID
  2
ACAD
 70
     0
  0
APPID
  2
AUTOCAD_POSTSCRIPT_FIGURE
 70
     0
  0
ENDTAB
  0
TABLE
  2
DIMSTYLE
 70
     1
  0
DIMSTYLE
  2
STANDARD
 70
     0
  3

  4

  5

  6

  7

 40
1.0
 41
0.18
 42
0.0625
 43
0.38
 44
0.18
 45
0.0
 46
0.0
 47
0.0
 48
0.0
140
0.18
141
0.09
142
0.0
143
25.399999999999999
144
1.0
145
0.0
146
1.0
147
0.09
 71
     0
 72
     0
 73
     1
 74
     1
 75
     0
 76
     0
 77
     0
 78
     0
170
     0
171
     2
172
     0
173
     0
174
     0
175
     0
176
     7
177
     7
178
     7
  0
ENDTAB
  0
ENDSEC
  0
SECTION
  2
BLOCKS
  0
BLOCK
  8
0
  2
$MODEL_SPACE
 70
     0
 10
0.0
 20
0.0
 30
0.0
  3
$MODEL_SPACE
  1

  0
ENDBLK
  5
833
  8
0
  0
BLOCK
 67
     1
  8
0
  2
$PAPER_SPACE
 70
     0
 10
0.0
 20
0.0
 30
0.0
  3
$PAPER_SPACE
  1

  0
ENDBLK
  5
82F
 67
     1
  8
0
  0
BLOCK
  8
0
  2
DOT1
 70
     0
 10
0.0
 20
0.0
 30
0.0
  3
DOT1
  1

  0
CIRCLE
  5
84F
  8
SIZE
  6
CONTINUOUS
 62
     7
 10
0.0
 20
0.0
 30
0.0
 40
3.0
  0
ENDBLK
  5
850
  8
0
  0
BLOCK
  8
0
  2
_ORIGIN
 70
     0
 10
0.0
 20
0.0
 30
0.0
  3
_ORIGIN
  1

  0
CIRCLE
  5
853
  8
0
  6
CONTINUOUS
 62
     7
 10
0.0
 20
0.0
 30
0.0
 40
0.5
  0
LINE
  5
854
  8
0
  6
CONTINUOUS
 62
     7
 10
0.0
 20
0.0
 30
0.0
 11
-1.0
 21
0.0
 31
0.0
  0
ENDBLK
  5
855
  8
0
  0
ENDSEC
  0
SECTION
  2
ENTITIES
  0
TEXT
  5
856
  8
NOTE
  6
CONTINUOUS
 62
     4
 10
-43.776780000000002
 20
24.408806999999999
 30
0.0
 40
64.0
  1
EA
 41
0.9
  0
LINE
  5
857
  8
DETAIL
  6
CONTINUOUS
 62
     5
 10
-40.75
 20
122.7999999999999
 30
0.0
 11
-38.75
 21
122.7999999999999
 31
0.0
  0
LINE
  5
858
  8
DETAIL
  6
CONTINUOUS
 62
     5
 10
-40.75
 20
121.7999999999999
 30
0.0
 11
-40.75
 21
125.41874199999999
 31
0.0
  0
LINE
  5
859
  8
DETAIL
  6
CONTINUOUS
 62
     5
 10
-45.376373000000001
 20
102.75909899999991
 30
0.0
 11
-46.933259
 21
99.496165000000005
 31
0.0
  0
LINE
  5
85A
  8
DETAIL
  6
CONTINUOUS
 62
     5
 10
-41.06234899999999
 20
98.013512000000006
 30
0.0
 11
-46.738632000000003
 21
97.050222000000005
 31
0.0
  0
ARC
  5
85B
  8
DETAIL
  6
CONTINUOUS
 62
     5
 10
-42.020596999999981
 20
79.852327000000002
 30
0.0
 40
1.0
 50
328.31593800000002
 51
0.0
  0
ARC
  5
85C
  8
DETAIL
  6
CONTINUOUS
 62
     5
 10
-43.0
 20
103.5355339999999
 30
0.0
 40
2.5
 50
180.0
 51
225.0
  0
LINE
  5
85D
  8
DETAIL
  6
CONTINUOUS
 62
     5
 10
-44.767766999999999
 20
101.76776700000001
 30
0.0
 11
-41.167043999999983
 21
98.167043999999976
 31
0.0
  0
ARC
  5
85E
  8
DETAIL
  6
CONTINUOUS
 62
     5
 10
-41.520596999999981
 20
97.813490999999985
 30
0.0
 40
0.5
 50
0.0
 51
45.0
  0
LINE
  5
85F
  8
DETAIL
  6
CONTINUOUS
 62
     5
 10
-40.75
 20
121.7999999999999
 30
0.0
 11
-38.75
 21
121.7999999999999
 31
0.0
  0
LINE
  5
860
  8
DETAIL
  6
CONTINUOUS
 62
     5
 10
-38.75
 20
124.0
 30
0.0
 11
-38.0
 21
124.0
 31
0.0
  0
LINE
  5
861
  8
DETAIL
  6
CONTINUOUS
 62
     5
 10
-38.0
 20
124.0
 30
0.0
 11
-38.0
 21
129.65863300000001
 31
0.0
  0
LINE
  5
862
  8
DETAIL
  6
CONTINUOUS
 62
     5
 10
-41.020596999999981
 20
97.813490999999985
 30
0.0
 11
-41.020596999999981
 21
79.852327000000002
 31
0.0
  0
LINE
  5
863
  8
DETAIL
  6
CONTINUOUS
 62
     5
 10
-38.75
 20
121.7999999999999
 30
0.0
 11
-38.75
 21
128.59769700000001
 31
0.0
  0
ARC
  5
864
  8
DETAIL
  6
CONTINUOUS
 62
     5
 10
-34.0
 20
126.0
 30
0.0
 40
1.0
 50
270.0
 51
0.0
  0
LINE
  5
865
  8
DETAIL
  6
CONTINUOUS
 62
     5
 10
-33.0
 20
126.0
 30
0.0
 11
-33.0
 21
128.0
 31
0.0
  0
ARC
  5
866
  8
DETAIL
  6
CONTINUOUS
 62
     5
 10
-34.0
 20
128.0
 30
0.0
 40
1.0
 50
0.0
 51
90.0
  0
ARC
  5
867
  8
DETAIL
  6
CONTINUOUS
 62
     5
 10
-42.0
 20
117.7999999999999
 30
0.0
 40
3.5
 50
90.0
 51
105.041701
  0
LINE
  5
868
  8
DETAIL
  6
CONTINUOUS
 62
     5
 10
-42.0
 20
121.3
 30
0.0
 11
-40.75
 21
121.3
 31
0.0
  0
ARC
  5
869
  8
DETAIL
  6
CONTINUOUS
 62
     5
 10
-40.75
 20
121.7999999999999
 30
0.0
 40
0.5
 50
270.0
 51
0.0
  0
ARC
  5
86A
  8
DETAIL
  6
CONTINUOUS
 62
     5
 10
-40.75
 20
121.7999999999999
 30
0.0
 40
2.0
 50
342.76974100000001
 51
0.0
  0
LINE
  5
86B
  8
DETAIL
  6
CONTINUOUS
 62
     5
 10
-45.499999999999993
 20
103.5355339999999
 30
0.0
 11
-45.499999999999993
 21
113.779219
 31
0.0
  0
LINE
  5
86C
  8
DETAIL
  6
CONTINUOUS
 62
     5
 10
-34.0
 20
125.0
 30
0.0
 11
-38.0
 21
125.0
 31
0.0
  0
LINE
  5
86D
  8
DETAIL
  6
CONTINUOUS
 62
     5
 10
-34.0
 20
129.0
 30
0.0
 11
-38.0
 21
129.0
 31
0.0
  0
ARC
  5
86E
  8
DETAIL
  6
CONTINUOUS
 62
     5
 10
-43.0
 20
102.828427
 30
0.0
 40
2.0
 50
180.0
 51
225.0
  0
LINE
  5
86F
  8
DETAIL
  6
CONTINUOUS
 62
     5
 10
-45.0
 20
102.828427
 30
0.0
 11
-45.0
 21
115.56466
 31
0.0
  0
ARC
  5
870
  8
DETAIL
  6
CONTINUOUS
 62
     5
 10
-42.520596999999988
 20
96.692170000000004
 30
0.0
 40
2.0
 50
0.0
 51
45.0
  0
LINE
  5
871
  8
DETAIL
  6
CONTINUOUS
 62
     5
 10
-44.414214000000001
 20
101.414214
 30
0.0
 11
-41.106383999999998
 21
98.106384000000006
 31
0.0
  0
LINE
  5
872
  8
DETAIL
  6
CONTINUOUS
 62
     5
 10
-40.520597000000002
 20
96.692170000000004
 30
0.0
 11
-40.520597000000002
 21
79.361688999999998
 31
0.0
  0
LINE
  5
873
  8
DETAIL
  6
CONTINUOUS
 62
     5
 10
-37.5
 20
121.20757500000001
 30
0.0
 11
-37.5
 21
125.0
 31
0.0
  0
LINE
  5
874
  8
DETAIL
  6
CONTINUOUS
 62
     5
 10
-36.29999999999999
 20
121.20757500000001
 30
0.0
 11
-36.29999999999999
 21
125.0
 31
0.0
  0
LINE
  5
875
  8
DETAIL
  6
CONTINUOUS
 62
     5
 10
-37.5
 20
121.20757500000001
 30
0.0
 11
-36.29999999999999
 21
121.20757500000001
 31
0.0
  0
ARC
  5
876
  8
DETAIL
  6
CONTINUOUS
 62
     5
 10
-30.520596999999999
 20
79.361688999999998
 30
0.0
 40
10.0
 50
180.0
 51
187.610738
  0
LINE
  5
877
  8
DETAIL
  6
CONTINUOUS
 62
     5
 10
-36.899999999999991
 20
121.20757500000001
 30
0.0
 11
-41.0
 21
121.20757500000001
 31
0.0
  0
ARC
  5
878
  8
DETAIL
  6
CONTINUOUS
 62
     5
 10
-41.0
 20
117.20757500000001
 30
0.0
 40
4.0
 50
90.0
 51
123.01506499999979
  0
LINE
  5
879
  8
DETAIL
  6
CONTINUOUS
 62
     5
 10
-37.5
 20
129.0
 30
0.0
 11
-37.5
 21
130.332843
 31
0.0
  0
LINE
  5
87A
  8
DETAIL
  6
CONTINUOUS
 62
     5
 10
-36.29999999999999
 20
129.0
 30
0.0
 11
-36.29999999999999
 21
131.854815
 31
0.0
  0
LINE
  5
87B
  8
DETAIL
  6
CONTINUOUS
 62
     5
 10
0.0
 20
97.0
 30
0.0
 11
-40.544429000000001
 21
97.0
 31
0.0
  0
LINE
  5
87C
  8
DETAIL
  6
CONTINUOUS
 62
     5
 10
-42.5
 20
102.0
 30
0.0
 11
-46.0
 21
102.0
 31
0.0
  0
LINE
  5
87D
  8
BASIS
  6
DASHDOT
 62
     6
 10
10.0
 20
204.57161499999989
 30
0.0
 11
10.0
 21
158.6845329999999
 31
0.0
  0
LINE
  5
87E
  8
BASIS
  6
DASHDOT
 62
     6
 10
73.313097999999982
 20
102.0
 30
0.0
 11
-72.13696299999998
 21
102.0
 31
0.0
  0
LINE
  5
87F
  8
DETAIL
  6
CONTINUOUS
 62
     5
 10
61.056854000000001
 20
172.5
 30
0.0
 11
-61.056854000000001
 21
172.5
 31
0.0
  0
LINE
  5
880
  8
DETAIL
  6
CONTINUOUS
 62
     5
 10
79.000773999999979
 20
167.5
 30
0.0
 11
-79.000773999999979
 21
167.5
 31
0.0
  0
ARC
  5
881
  8
DETAIL
  6
CONTINUOUS
 62
     5
 10
-61.056854000000001
 20
171.5
 30
0.0
 40
1.0
 50
90.0
 51
180.0
  0
ARC
  5
882
  8
DETAIL
  6
CONTINUOUS
 62
     5
 10
-61.056854000000001
 20
171.5
 30
0.0
 40
1.0
 50
90.0
 51
180.0
  0
LINE
  5
883
  8
DETAIL
  6
CONTINUOUS
 62
     5
 10
-62.056854000000001
 20
167.5
 30
0.0
 11
-62.056854000000001
 21
171.5
 31
0.0
  0
ARC
  5
884
  8
DETAIL
  6
CONTINUOUS
 62
     5
 10
-79.000773999999979
 20
162.5
 30
0.0
 40
5.0
 50
90.0
 51
178.99196699999999
  0
ARC
  5
885
  8
DETAIL
  6
CONTINUOUS
 62
     5
 10
-61.056854000000001
 20
171.5
 30
0.0
 40
1.0
 50
90.0
 51
180.0
  0
LINE
  5
886
  8
DETAIL
  6
CONTINUOUS
 62
     5
 10
-49.079622999999998
 20
155.74596199999991
 30
0.0
 11
49.079622999999998
 21
155.74596199999991
 31
0.0
  0
ARC
  5
887
  8
DETAIL
  6
CONTINUOUS
 62
     5
 10
-48.0
 20
138.78027900000001
 30
0.0
 40
17.0
 50
93.641144999999995
 51
180.0
  0
ARC
  5
888
  8
DETAIL
  6
CONTINUOUS
 62
     5
 10
-50.0
 20
60.0
 30
0.0
 40
15.0
 50
180.0
 51
270.0
  0
LINE
  5
889
  8
DETAIL
  6
CONTINUOUS
 62
     5
 10
-65.0
 20
59.817022999999999
 30
0.0
 11
-65.0
 21
138.78027900000001
 31
0.0
  0
ARC
  5
88A
  8
DETAIL
  6
CONTINUOUS
 62
     5
 10
0.0
 20
102.0
 30
0.0
 40
47.0
 50
90.0
 51
270.0
  0
LINE
  5
88B
  8
DETAIL
  6
CONTINUOUS
 62
     5
 10
50.0
 20
45.0
 30
0.0
 11
-50.0
 21
45.0
 31
0.0
  0
LINE
  5
88C
  8
DETAIL
  6
CONTINUOUS
 62
     5
 10
-47.5
 20
184.0
 30
0.0
 11
-45.0
 21
184.0
 31
0.0
  0
LINE
  5
88D
  8
DETAIL
  6
CONTINUOUS
 62
     5
 10
-55.0
 20
184.0
 30
0.0
 11
-52.5
 21
184.0
 31
0.0
  0
LINE
  5
88E
  8
DETAIL
  6
CONTINUOUS
 62
     5
 10
-55.0
 20
184.0
 30
0.0
 11
-55.222676999999997
 21
172.5
 31
0.0
  0
LINE
  5
88F
  8
DETAIL
  6
CONTINUOUS
 62
     5
 10
-47.5
 20
184.0
 30
0.0
 11
-47.72267699999999
 21
172.5
 31
0.0
  0
LINE
  5
890
  8
DETAIL
  6
CONTINUOUS
 62
     5
 10
-52.5
 20
184.0
 30
0.0
 11
-52.391030999999998
 21
172.5
 31
0.0
  0
LINE
  5
891
  8
DETAIL
  6
CONTINUOUS
 62
     5
 10
-44.891030999999998
 20
172.5
 30
0.0
 11
-45.0
 21
184.0
 31
0.0
  0
LINE
  5
892
  8
BASIS
  6
DASHDOT
 62
     6
 10
0.0
 20
214.11794199999991
 30
0.0
 11
0.0
 21
-48.349547999999999
 31
0.0
  0
LINE
  5
893
  8
DETAIL
  6
CONTINUOUS
 62
     5
 10
-84.0
 20
162.587963
 30
0.0
 11
-87.0
 21
0.0
 31
0.0
  0
LINE
  5
894
  8
DETAIL
  6
CONTINUOUS
 62
     5
 10
84.0
 20
162.587963
 30
0.0
 11
87.0
 21
0.0
 31
0.0
  0
ARC
  5
895
  8
DETAIL
  6
CONTINUOUS
 62
     5
 10
79.000773999999979
 20
162.5
 30
0.0
 40
5.0
 50
1.0080329999999991
 51
90.0
  0
ARC
  5
896
  8
DETAIL
  6
CONTINUOUS
 62
     5
 10
48.0
 20
138.78027900000001
 30
0.0
 40
17.0
 50
0.0
 51
86.358855000000005
  0
ARC
  5
897
  8
DETAIL
  6
CONTINUOUS
 62
     5
 10
50.0
 20
60.0
 30
0.0
 40
15.0
 50
270.0
 51
0.0
  0
LINE
  5
898
  8
DETAIL
  6
CONTINUOUS
 62
     5
 10
65.0
 20
59.817022999999999
 30
0.0
 11
65.0
 21
138.78027900000001
 31
0.0
  0
LINE
  5
899
  8
DETAIL
  6
CONTINUOUS
 62
     5
 10
45.376373000000001
 20
102.75909899999991
 30
0.0
 11
46.933259
 21
99.496165000000005
 31
0.0
  0
LINE
  5
89A
  8
DETAIL
  6
CONTINUOUS
 62
     5
 10
44.767766999999999
 20
101.76776700000001
 30
0.0
 11
41.167043999999983
 21
98.167043999999976
 31
0.0
  0
ARC
  5
89B
  8
DETAIL
  6
CONTINUOUS
 62
     5
 10
43.0
 20
102.828427
 30
0.0
 40
2.0
 50
315.0
 51
0.0
  0
LINE
  5
89C
  8
DETAIL
  6
CONTINUOUS
 62
     5
 10
44.414214000000001
 20
101.414214
 30
0.0
 11
41.106383999999998
 21
98.106384000000006
 31
0.0
  0
ARC
  5
89D
  8
DETAIL
  6
CONTINUOUS
 62
     5
 10
0.0
 20
102.0
 30
0.0
 40
47.0
 50
270.0
 51
90.0
  0
LINE
  5
89E
  8
DETAIL
  6
CONTINUOUS
 62
     5
 10
0.0
 20
97.0
 30
0.0
 11
40.544429000000001
 21
97.0
 31
0.0
  0
LINE
  5
89F
  8
DETAIL
  6
CONTINUOUS
 62
     5
 10
41.06234899999999
 20
98.013512000000006
 30
0.0
 11
46.738632000000003
 21
97.050222000000005
 31
0.0
  0
ARC
  5
8A0
  8
DETAIL
  6
CONTINUOUS
 62
     5
 10
42.020596999999981
 20
79.852327000000002
 30
0.0
 40
1.0
 50
180.0
 51
211.68406200000001
  0
ARC
  5
8A1
  8
DETAIL
  6
CONTINUOUS
 62
     5
 10
41.520596999999981
 20
97.813490999999985
 30
0.0
 40
0.5
 50
135.0
 51
180.0
  0
LINE
  5
8A2
  8
DETAIL
  6
CONTINUOUS
 62
     5
 10
41.020596999999981
 20
97.813490999999985
 30
0.0
 11
41.020596999999981
 21
79.852327000000002
 31
0.0
  0
ARC
  5
8A3
  8
DETAIL
  6
CONTINUOUS
 62
     5
 10
42.520596999999988
 20
96.692170000000004
 30
0.0
 40
2.0
 50
135.0
 51
180.0
  0
LINE
  5
8A4
  8
DETAIL
  6
CONTINUOUS
 62
     5
 10
40.520597000000002
 20
96.692170000000004
 30
0.0
 11
40.520597000000002
 21
79.361688999999998
 31
0.0
  0
ARC
  5
8A5
  8
DETAIL
  6
CONTINUOUS
 62
     5
 10
30.520596999999999
 20
79.361688999999998
 30
0.0
 40
10.0
 50
352.38926199999992
 51
0.0
  0
ARC
  5
8A6
  8
DETAIL
  6
CONTINUOUS
 62
     5
 10
34.0
 20
126.0
 30
0.0
 40
1.0
 50
180.0
 51
270.0
  0
LINE
  5
8A7
  8
DETAIL
  6
CONTINUOUS
 62
     5
 10
33.0
 20
126.0
 30
0.0
 11
33.0
 21
128.0
 31
0.0
  0
ARC
  5
8A8
  8
DETAIL
  6
CONTINUOUS
 62
     5
 10
34.0
 20
128.0
 30
0.0
 40
1.0
 50
90.0
 51
180.0
  0
LINE
  5
8A9
  8
DETAIL
  6
CONTINUOUS
 62
     5
 10
36.29999999999999
 20
121.20757500000001
 30
0.0
 11
36.29999999999999
 21
125.0
 31
0.0
  0
LINE
  5
8AA
  8
DETAIL
  6
CONTINUOUS
 62
     5
 10
36.29999999999999
 20
129.0
 30
0.0
 11
36.29999999999999
 21
131.854815
 31
0.0
  0
LINE
  5
8AB
  8
DETAIL
  6
CONTINUOUS
 62
     5
 10
40.75
 20
122.7999999999999
 30
0.0
 11
38.75
 21
122.7999999999999
 31
0.0
  0
LINE
  5
8AC
  8
DETAIL
  6
CONTINUOUS
 62
     5
 10
40.75
 20
121.7999999999999
 30
0.0
 11
40.75
 21
125.41874199999999
 31
0.0
  0
LINE
  5
8AD
  8
DETAIL
  6
CONTINUOUS
 62
     5
 10
40.75
 20
121.7999999999999
 30
0.0
 11
38.75
 21
121.7999999999999
 31
0.0
  0
LINE
  5
8AE
  8
DETAIL
  6
CONTINUOUS
 62
     5
 10
38.75
 20
124.0
 30
0.0
 11
38.0
 21
124.0
 31
0.0
  0
LINE
  5
8AF
  8
DETAIL
  6
CONTINUOUS
 62
     5
 10
38.0
 20
124.0
 30
0.0
 11
38.0
 21
129.65863300000001
 31
0.0
  0
LINE
  5
8B0
  8
DETAIL
  6
CONTINUOUS
 62
     5
 10
38.75
 20
121.7999999999999
 30
0.0
 11
38.75
 21
128.59769700000001
 31
0.0
  0
ARC
  5
8B1
  8
DETAIL
  6
CONTINUOUS
 62
     5
 10
42.0
 20
117.7999999999999
 30
0.0
 40
3.5
 50
74.958298999999982
 51
90.0
  0
LINE
  5
8B2
  8
DETAIL
  6
CONTINUOUS
 62
     5
 10
42.0
 20
121.3
 30
0.0
 11
40.75
 21
121.3
 31
0.0
  0
ARC
  5
8B3
  8
DETAIL
  6
CONTINUOUS
 62
     5
 10
40.75
 20
121.7999999999999
 30
0.0
 40
0.5
 50
180.0
 51
270.0
  0
ARC
  5
8B4
  8
DETAIL
  6
CONTINUOUS
 62
     5
 10
40.75
 20
121.7999999999999
 30
0.0
 40
2.0
 50
180.0
 51
197.2302589999999
  0
LINE
  5
8B5
  8
DETAIL
  6
CONTINUOUS
 62
     5
 10
37.5
 20
121.20757500000001
 30
0.0
 11
37.5
 21
125.0
 31
0.0
  0
ARC
  5
8B6
  8
DETAIL
  6
CONTINUOUS
 62
     5
 10
41.0
 20
117.20757500000001
 30
0.0
 40
4.0
 50
56.984935000000007
 51
90.0
  0
LINE
  5
8B7
  8
DETAIL
  6
CONTINUOUS
 62
     5
 10
37.5
 20
129.0
 30
0.0
 11
37.5
 21
130.332843
 31
0.0
  0
ARC
  5
8B8
  8
DETAIL
  6
CONTINUOUS
 62
     5
 10
43.0
 20
103.5355339999999
 30
0.0
 40
2.5
 50
315.0
 51
0.0
  0
LINE
  5
8B9
  8
DETAIL
  6
CONTINUOUS
 62
     5
 10
42.5
 20
102.0
 30
0.0
 11
46.0
 21
102.0
 31
0.0
  0
LINE
  5
8BA
  8
DETAIL
  6
CONTINUOUS
 62
     5
 10
45.499999999999993
 20
103.5355339999999
 30
0.0
 11
45.499999999999993
 21
113.779219
 31
0.0
  0
LINE
  5
8BB
  8
DETAIL
  6
CONTINUOUS
 62
     5
 10
45.0
 20
102.828427
 30
0.0
 11
45.0
 21
115.56466
 31
0.0
  0
LINE
  5
8BC
  8
DETAIL
  6
CONTINUOUS
 62
     5
 10
34.0
 20
125.0
 30
0.0
 11
38.0
 21
125.0
 31
0.0
  0
LINE
  5
8BD
  8
DETAIL
  6
CONTINUOUS
 62
     5
 10
34.0
 20
129.0
 30
0.0
 11
38.0
 21
129.0
 31
0.0
  0
LINE
  5
8BE
  8
DETAIL
  6
CONTINUOUS
 62
     5
 10
37.5
 20
121.20757500000001
 30
0.0
 11
36.29999999999999
 21
121.20757500000001
 31
0.0
  0
LINE
  5
8BF
  8
DETAIL
  6
CONTINUOUS
 62
     5
 10
36.899999999999991
 20
121.20757500000001
 30
0.0
 11
41.0
 21
121.20757500000001
 31
0.0
  0
CIRCLE
  5
8C0
  8
DETAIL
  6
CONTINUOUS
 62
     5
 39
50.0
 10
0.0
 20
102.0
 30
0.0
 40
49.0
  0
CIRCLE
  5
8C1
  8
DETAIL
  6
CONTINUOUS
 62
     5
 39
50.0
 10
0.0
 20
102.0
 30
0.0
 40
52.5
  0
ARC
  5
8C2
  8
DETAIL
  6
CONTINUOUS
 62
     5
 10
37.5
 20
178.0
 30
0.0
 40
3.0
 50
0.0
 51
90.0
  0
LINE
  5
8C3
  8
DETAIL
  6
CONTINUOUS
 62
     5
 10
-20.5
 20
178.0
 30
0.0
 11
-20.5
 21
172.5
 31
0.0
  0
ARC
  5
8C4
  8
DETAIL
  6
CONTINUOUS
 62
     5
 10
-17.5
 20
178.0
 30
0.0
 40
3.0
 50
90.0
 51
180.0
  0
LINE
  5
8C5
  8
DETAIL
  6
CONTINUOUS
 62
     5
 10
0.0
 20
183.63264599999999
 30
0.0
 11
20.0
 21
183.63264599999999
 31
0.0
  0
ARC
  5
8C6
  8
DETAIL
  6
CONTINUOUS
 62
     5
 10
20.0
 20
178.63264599999991
 30
0.0
 40
5.0
 50
28.259833
 51
90.0
  0
ARC
  5
8C7
  8
DETAIL
  6
CONTINUOUS
 62
     5
 10
0.0
 20
178.63264599999991
 30
0.0
 40
5.0
 50
90.0
 51
151.74016700000001
  0
LINE
  5
8C8
  8
DETAIL
  6
CONTINUOUS
 62
     5
 10
37.5
 20
181.0
 30
0.0
 11
-17.5
 21
181.0
 31
0.0
  0
LINE
  5
8C9
  8
DETAIL
  6
CONTINUOUS
 62
     5
 10
40.499999999999993
 20
178.0
 30
0.0
 11
40.499999999999993
 21
172.5
 31
0.0
  0
CIRCLE
  5
8CA
  8
FIX
  6
CONTINUOUS
 62
    11
 39
50.0
 10
-111.4999999999999
 20
0.0
 30
0.0
 40
2.5
  0
LINE
  5
8CB
  8
NOTE
  6
CONTINUOUS
 62
     4
 10
-111.4999999999999
 20
-20.0
 30
0.0
 11
-111.4999999999999
 21
20.0
 31
0.0
  0
LINE
  5
8CC
  8
NOTE
  6
CONTINUOUS
 62
     4
 10
-131.49999999999969
 20
0.0
 30
0.0
 11
-91.5
 21
0.0
 31
0.0
  0
CIRCLE
  5
8CD
  8
FIX
  6
CONTINUOUS
 62
    11
 39
50.0
 10
-65.0
 20
0.0
 30
0.0
 40
2.5
  0
LINE
  5
8CE
  8
NOTE
  6
CONTINUOUS
 62
     4
 10
-65.0
 20
-20.0
 30
0.0
 11
-65.0
 21
20.0
 31
0.0
  0
LINE
  5
8CF
  8
NOTE
  6
CONTINUOUS
 62
     4
 10
-85.0
 20
0.0
 30
0.0
 11
-45.0
 21
0.0
 31
0.0
  0
CIRCLE
  5
8D0
  8
FIX
  6
CONTINUOUS
 62
    11
 39
50.0
 10
65.0
 20
0.0
 30
0.0
 40
2.5
  0
LINE
  5
8D1
  8
NOTE
  6
CONTINUOUS
 62
     4
 10
65.0
 20
-20.0
 30
0.0
 11
65.0
 21
20.0
 31
0.0
  0
LINE
  5
8D2
  8
NOTE
  6
CONTINUOUS
 62
     4
 10
45.0
 20
0.0
 30
0.0
 11
85.0
 21
0.0
 31
0.0
  0
CIRCLE
  5
8D3
  8
FIX
  6
CONTINUOUS
 62
    11
 39
50.0
 10
111.4999999999999
 20
0.0
 30
0.0
 40
2.5
  0
LINE
  5
8D4
  8
NOTE
  6
CONTINUOUS
 62
     4
 10
111.4999999999999
 20
-20.0
 30
0.0
 11
111.4999999999999
 21
20.0
 31
0.0
  0
LINE
  5
8D5
  8
NOTE
  6
CONTINUOUS
 62
     4
 10
91.5
 20
0.0
 30
0.0
 11
131.49999999999969
 21
0.0
 31
0.0
  0
LINE
  5
8D6
  8
NOTE
  6
CONTINUOUS
 62
     4
 10
312.73579599999982
 20
308.48531800000001
 30
0.0
 11
103.0
 21
121.97960500000001
 31
0.0
  0
LINE
  5
8D7
  8
NOTE
  6
CONTINUOUS
 62
     4
 10
124.7082849999999
 20
155.57648499999991
 30
0.0
 11
103.0
 21
121.97960500000001
 31
0.0
  0
LINE
  5
8D8
  8
NOTE
  6
CONTINUOUS
 62
     4
 10
103.0
 20
121.97960500000001
 30
0.0
 11
138.59836699999991
 21
140.221214
 31
0.0
  0
TEXT
  5
8D9
  8
NOTE
  6
CONTINUOUS
 62
     4
 10
320.94332700000001
 20
333.71413799999982
 30
0.0
 40
64.0
  1
2-AH
 41
0.9
  0
LINE
  5
8DA
  8
NOTE
  6
CONTINUOUS
 62
     4
 10
558.47584900000004
 20
308.48531800000001
 30
0.0
 11
312.73579599999982
 21
308.48531800000001
 31
0.0
  0
LINE
  5
8DB
  8
DETAIL
  6
CONTINUOUS
 62
     5
 39
50.0
 10
-116.5
 20
127.2111439999999
 30
0.0
 11
-116.587262
 21
122.211905
 31
0.0
  0
LINE
  5
8DC
  8
DETAIL
  6
CONTINUOUS
 62
     5
 39
50.0
 10
-116.587262
 20
122.211905
 30
0.0
 11
-94.834877000000006
 21
121.840006
 31
0.0
  0
LINE
  5
8DD
  8
DETAIL
  6
CONTINUOUS
 62
     5
 39
50.0
 10
-116.5
 20
127.2111439999999
 30
0.0
 11
-92.778800000000004
 21
126.804895
 31
0.0
  0
CIRCLE
  5
8DE
  8
FIX
  6
CONTINUOUS
 62
    11
 39
50.0
 10
-103.0
 20
122.0
 30
0.0
 40
7.5
  0
ARC
  5
8DF
  8
DETAIL
  6
CONTINUOUS
 62
     5
 39
50.0
 10
-112.7307049999999
 20
115.5605379999997
 30
0.0
 40
1.5184949999999979
 50
179.0
 51
269.0
  0
ARC
  5
8E0
  8
DETAIL
  6
CONTINUOUS
 62
     5
 39
50.0
 10
-94.499358999999984
 20
115.2419789999999
 30
0.0
 40
1.5184949999999979
 50
269.0
 51
359.0
  0
LINE
  5
8E1
  8
DETAIL
  6
CONTINUOUS
 62
     5
 39
50.0
 10
-112.75720699999999
 20
114.04227399999991
 30
0.0
 11
-94.525859999999994
 21
113.7237149999997
 31
0.0
  0
LINE
  5
8E2
  8
DETAIL
  6
CONTINUOUS
 62
     5
 39
50.0
 10
-114.13413
 20
122.166184
 30
0.0
 11
-114.24897
 21
115.587039
 31
0.0
  0
LINE
  5
8E3
  8
DETAIL
  6
CONTINUOUS
 62
     5
 39
50.0
 10
-92.873101000000005
 20
121.4024009999999
 30
0.0
 11
-92.981093999999985
 21
115.215478
 31
0.0
  0
LINE
  5
8E4
  8
DETAIL
  6
CONTINUOUS
 62
     5
 39
50.0
 10
-112.4709919999999
 20
133.47651799999991
 30
0.0
 11
-112.541658
 21
129.428045
 31
0.0
  0
ARC
  5
8E5
  8
DETAIL
  6
CONTINUOUS
 62
     5
 39
50.0
 10
-111.964904
 20
133.46768399999991
 30
0.0
 40
0.5061650000000001
 50
89.0
 51
179.0
  0
LINE
  5
8E6
  8
DETAIL
  6
CONTINUOUS
 62
     5
 39
50.0
 10
-110.4908079999999
 20
129.392247
 30
0.0
 11
-110.5305599999998
 21
127.1148509999999
 31
0.0
  0
LINE
  5
8E7
  8
DETAIL
  6
CONTINUOUS
 62
     5
 39
50.0
 10
-94.239644999999996
 20
133.15795999999969
 30
0.0
 11
-94.310310999999999
 21
129.109486
 31
0.0
  0
ARC
  5
8E8
  8
DETAIL
  6
CONTINUOUS
 62
     5
 39
50.0
 10
-94.745733000000016
 20
133.1667939999997
 30
0.0
 40
0.5061650000000001
 50
359.0
 51
89.0
  0
LINE
  5
8E9
  8
DETAIL
  6
CONTINUOUS
 62
     5
 39
50.0
 10
-96.308166000000014
 20
129.14435900000001
 30
0.0
 11
-96.347918000000021
 21
126.8669629999999
 31
0.0
  0
LINE
  5
8EA
  8
DETAIL
  6
CONTINUOUS
 62
     5
 39
50.0
 10
-112.51516100000001
 20
129.42758199999969
 30
0.0
 11
-94.310310999999999
 21
129.109486
 31
0.0
  0
LINE
  5
8EB
  8
DETAIL
  6
CONTINUOUS
 62
     5
 39
50.0
 10
-111.95607
 20
133.973772
 30
0.0
 11
-94.736898999999994
 21
133.6728819999999
 31
0.0
  0
ARC
  5
8EC
  8
DETAIL
  6
CONTINUOUS
 62
     5
 39
50.0
 10
-93.051822000000001
 20
118.47905900000001
 30
0.0
 40
8.330311
 50
11.829786
 51
88.121825999999984
  0
LINE
  5
8ED
  8
NOTE
  6
CONTINUOUS
 62
     4
 10
-103.0
 20
102.0
 30
0.0
 11
-103.0
 21
142.0
 31
0.0
  0
LINE
  5
8EE
  8
NOTE
  6
CONTINUOUS
 62
     4
 10
-83.0
 20
122.0
 30
0.0
 11
-123.0
 21
122.0
 31
0.0
  0
LINE
  5
8EF
  8
DETAIL
  6
CONTINUOUS
 62
     5
 39
50.0
 10
-89.921142000000003
 20
116.7516879999999
 30
0.0
 11
-91.999210000000005
 21
0.08889
 31
0.0
  0
LINE
  5
8F0
  8
SIZE
  6
CONTINUOUS
 62
    30
 10
-65.0
 20
-40.0
 30
0.0
 11
-65.0
 21
-213.848491
 31
0.0
  0
LINE
  5
8F1
  8
SIZE
  6
CONTINUOUS
 62
    30
 10
65.0
 20
-40.0
 30
0.0
 11
65.0
 21
-213.848491
 31
0.0
  0
LINE
  5
8F2
  8
SIZE
  6
CONTINUOUS
 62
    30
 10
-65.0
 20
-193.84849099999991
 30
0.0
 11
65.0
 21
-193.84849099999991
 31
0.0
  0
CIRCLE
  5
8F3
  8
SIZE
  6
CONTINUOUS
 62
    30
 10
-65.0
 20
-193.84849099999991
 30
0.0
 40
6.0
  0
CIRCLE
  5
8F4
  8
SIZE
  6
CONTINUOUS
 62
    30
 10
65.0
 20
-193.84849099999991
 30
0.0
 40
6.0
  0
TEXT
  5
8F5
  8
SIZE
  6
CONTINUOUS
 62
    30
 10
-68.571428571428569
 20
-168.84849099999991
 30
0.0
 40
64.0
  1
130
 41
0.9
 72
     1
 11
0.0
 21
-168.84849099999991
 31
0.0
  0
LINE
  5
8F7
  8
SIZE
  6
CONTINUOUS
 62
    30
 10
111.4999999999999
 20
-40.0
 30
0.0
 11
111.4999999999999
 21
-454.22008599999998
 31
0.0
  0
LINE
  5
8F8
  8
SIZE
  6
CONTINUOUS
 62
    30
 10
-111.4999999999999
 20
-40.0
 30
0.0
 11
-111.4999999999999
 21
-454.22008599999998
 31
0.0
  0
LINE
  5
8F9
  8
SIZE
  6
CONTINUOUS
 62
    30
 10
99.500000000000014
 20
-434.22008599999998
 30
0.0
 11
-99.500000000000014
 21
-434.22008599999998
 31
0.0
  0
CIRCLE
  5
8FA
  8
SIZE
  6
CONTINUOUS
 62
    30
 10
111.4999999999999
 20
-434.22008599999998
 30
0.0
 40
6.0
  0
LINE
  5
8FB
  8
SIZE
  6
CONTINUOUS
 62
    30
 10
111.4999999999999
 20
-434.22008599999998
 30
0.0
 11
99.500000000000014
 21
-434.22008599999998
 31
0.0
  0
CIRCLE
  5
8FC
  8
SIZE
  6
CONTINUOUS
 62
    30
 10
-111.4999999999999
 20
-434.22008599999998
 30
0.0
 40
6.0
  0
LINE
  5
8FD
  8
SIZE
  6
CONTINUOUS
 62
    30
 10
-111.4999999999999
 20
-434.22008599999998
 30
0.0
 11
-99.500000000000014
 21
-434.22008599999998
 31
0.0
  0
TEXT
  5
8FE
  8
SIZE
  6
CONTINUOUS
 62
    30
 10
-74.057142857142836
 20
-409.22008599999998
 30
0.0
 40
64.0
  1
223
 41
0.9
 72
     1
 11
0.0
 21
-409.22008599999998
 31
0.0
  0
LINE
  5
900
  8
SIZE
  6
CONTINUOUS
 62
    30
 10
87.0
 20
-20.0
 30
0.0
 11
87.0
 21
-337.34853099999992
 31
0.0
  0
LINE
  5
901
  8
SIZE
  6
CONTINUOUS
 62
    30
 10
-87.0
 20
-20.0
 30
0.0
 11
-87.0
 21
-337.34853099999992
 31
0.0
  0
LINE
  5
902
  8
SIZE
  6
CONTINUOUS
 62
    30
 10
87.0
 20
-317.34853099999992
 30
0.0
 11
-87.0
 21
-317.34853099999992
 31
0.0
  0
CIRCLE
  5
903
  8
SIZE
  6
CONTINUOUS
 62
    30
 10
87.0
 20
-317.34853099999992
 30
0.0
 40
6.0
  0
CIRCLE
  5
904
  8
SIZE
  6
CONTINUOUS
 62
    30
 10
-87.0
 20
-317.34853099999992
 30
0.0
 40
6.0
  0
TEXT
  5
905
  8
SIZE
  6
CONTINUOUS
 62
    30
 10
-106.4228571428571
 20
-292.34853099999992
 30
0.0
 40
64.0
  1
□174
 41
0.9
 72
     1
 11
0.0
 21
-292.34853099999992
 31
0.0
  0
LINE
  5
907
  8
SIZE
  6
CONTINUOUS
 62
    30
 10
125.0
 20
-26.958570999999999
 30
0.0
 11
125.0
 21
-586.38341400000002
 31
0.0
  0
LINE
  5
908
  8
SIZE
  6
CONTINUOUS
 62
    30
 10
-125.0
 20
-26.958570999999999
 30
0.0
 11
-125.0
 21
-586.38341400000002
 31
0.0
  0
LINE
  5
909
  8
SIZE
  6
CONTINUOUS
 62
    30
 10
125.0
 20
-566.38341400000002
 30
0.0
 11
-125.0
 21
-566.38341400000002
 31
0.0
  0
CIRCLE
  5
90A
  8
SIZE
  6
CONTINUOUS
 62
    30
 10
125.0
 20
-566.38341400000002
 30
0.0
 40
6.0
  0
CIRCLE
  5
90B
  8
SIZE
  6
CONTINUOUS
 62
    30
 10
-125.0
 20
-566.38341400000002
 30
0.0
 40
6.0
  0
TEXT
  5
90C
  8
SIZE
  6
CONTINUOUS
 62
    30
 10
-110.5371428571428
 20
-541.38341400000002
 30
0.0
 40
64.0
  1
□250
 41
0.9
 72
     1
 11
0.0
 21
-541.38341400000002
 31
0.0
  0
LINE
  5
90E
  8
SIZE
  6
CONTINUOUS
 62
    30
 10
145.0
 20
0.0
 30
0.0
 11
363.610704
 21
0.0
 31
0.0
  0
LINE
  5
90F
  8
SIZE
  6
CONTINUOUS
 62
    30
 10
143.0
 20
122.0
 30
0.0
 11
363.610704
 21
122.0
 31
0.0
  0
LINE
  5
910
  8
SIZE
  6
CONTINUOUS
 62
    30
 10
343.610704
 20
12.0
 30
0.0
 11
343.610704
 21
110.0
 31
0.0
  0
LINE
  5
911
  8
SIZE
  6
CONTINUOUS
 62
    30
 10
343.610704
 20
-213.10988900000001
 30
0.0
 11
343.610704
 21
0.0
 31
0.0
  0
TEXT
  5
912
  8
SIZE
  6
CONTINUOUS
 62
    30
 10
318.610704
 20
-188.10988857142851
 30
0.0
 40
64.0
  1
122
 50
90.0
 41
0.9
 72
     1
 11
318.610704
 21
-119.53846
 31
0.0
  0
CIRCLE
  5
913
  8
SIZE
  6
CONTINUOUS
 62
    30
 10
343.610704
 20
0.0
 30
0.0
 40
6.0
  0
LINE
  5
914
  8
SIZE
  6
CONTINUOUS
 62
    30
 10
343.610704
 20
0.0
 30
0.0
 11
343.610704
 21
12.0
 31
0.0
  0
CIRCLE
  5
915
  8
SIZE
  6
CONTINUOUS
 62
    30
 10
343.610704
 20
122.0
 30
0.0
 40
6.0
  0
LINE
  5
916
  8
SIZE
  6
CONTINUOUS
 62
    30
 10
343.610704
 20
122.0
 30
0.0
 11
343.610704
 21
110.0
 31
0.0
  0
LINE
  5
918
  8
SIZE
  6
CONTINUOUS
 62
    30
 10
145.0
 20
0.0
 30
0.0
 11
485.84038999999979
 21
0.0
 31
0.0
  0
LINE
  5
919
  8
SIZE
  6
CONTINUOUS
 62
    30
 10
57.5
 20
181.0
 30
0.0
 11
485.84038999999979
 21
181.0
 31
0.0
  0
LINE
  5
91A
  8
SIZE
  6
CONTINUOUS
 62
    30
 10
465.84039000000001
 20
12.0
 30
0.0
 11
465.84039000000001
 21
169.0
 31
0.0
  0
CIRCLE
  5
91B
  8
SIZE
  6
CONTINUOUS
 62
    30
 10
465.84039000000001
 20
0.0
 30
0.0
 40
6.0
  0
LINE
  5
91C
  8
SIZE
  6
CONTINUOUS
 62
    30
 10
465.84039000000001
 20
0.0
 30
0.0
 11
465.84039000000001
 21
12.0
 31
0.0
  0
CIRCLE
  5
91D
  8
SIZE
  6
CONTINUOUS
 62
    30
 10
465.84039000000001
 20
181.0
 30
0.0
 40
6.0
  0
LINE
  5
91E
  8
SIZE
  6
CONTINUOUS
 62
    30
 10
465.84039000000001
 20
181.0
 30
0.0
 11
465.84039000000001
 21
169.0
 31
0.0
  0
TEXT
  5
91F
  8
SIZE
  6
CONTINUOUS
 62
    30
 10
440.84039000000001
 20
34.271428571428579
 30
0.0
 40
64.0
  1
181
 50
90.0
 41
0.9
 72
     1
 11
440.84039000000001
 21
90.5
 31
0.0
  0
LINE
  5
921
  8
SIZE
  6
CONTINUOUS
 62
    30
 10
145.0
 20
0.0
 30
0.0
 11
598.38291500000003
 21
0.0
 31
0.0
  0
LINE
  5
922
  8
SIZE
  6
CONTINUOUS
 62
    30
 10
75.0
 20
184.0
 30
0.0
 11
598.38291500000003
 21
184.0
 31
0.0
  0
LINE
  5
923
  8
SIZE
  6
CONTINUOUS
 62
    30
 10
578.38291500000003
 20
-12.0
 30
0.0
 11
578.38291500000003
 21
-24.0
 31
0.0
  0
LINE
  5
924
  8
SIZE
  6
CONTINUOUS
 62
    30
 10
578.38291500000003
 20
0.0
 30
0.0
 11
578.38291500000003
 21
184.0
 31
0.0
  0
CIRCLE
  5
925
  8
SIZE
  6
CONTINUOUS
 62
    30
 10
578.38291500000003
 20
0.0
 30
0.0
 40
6.0
  0
LINE
  5
926
  8
SIZE
  6
CONTINUOUS
 62
    30
 10
578.38291500000003
 20
0.0
 30
0.0
 11
578.38291500000003
 21
-12.0
 31
0.0
  0
CIRCLE
  5
927
  8
SIZE
  6
CONTINUOUS
 62
    30
 10
578.38291500000003
 20
184.0
 30
0.0
 40
6.0
  0
TEXT
  5
928
  8
SIZE
  6
CONTINUOUS
 62
    30
 10
553.38291500000003
 20
22.057142857142871
 30
0.0
 40
64.0
  1
184
 50
90.0
 41
0.9
 72
     1
 11
553.38291500000003
 21
92.0
 31
0.0
  0
LINE
  5
92A
  8
SIZE
  6
CONTINUOUS
 62
    30
 10
145.0
 20
0.0
 30
0.0
 11
598.38291500000003
 21
0.0
 31
0.0
  0
LINE
  5
92B
  8
SIZE
  6
CONTINUOUS
 62
    30
 10
117.0
 20
-15.0
 30
0.0
 11
598.38291500000003
 21
-15.0
 31
0.0
  0
LINE
  5
92C
  8
SIZE
  6
CONTINUOUS
 62
    30
 10
578.38291500000003
 20
12.0
 30
0.0
 11
578.38291500000003
 21
24.0
 31
0.0
  0
LINE
  5
92D
  8
SIZE
  6
CONTINUOUS
 62
    30
 10
578.38291500000003
 20
-27.0
 30
0.0
 11
578.38291500000003
 21
-39.0
 31
0.0
  0
LINE
  5
92E
  8
SIZE
  6
CONTINUOUS
 62
    30
 10
578.38291500000003
 20
-181.897786
 30
0.0
 11
578.38291500000003
 21
-15.0
 31
0.0
  0
TEXT
  5
92F
  8
SIZE
  6
CONTINUOUS
 62
    30
 10
553.38291500000003
 20
-156.89778614285709
 30
0.0
 40
64.0
  1
15
 50
90.0
 41
0.9
 72
     1
 11
553.38291500000003
 21
-115.754929
 31
0.0
  0
LINE
  5
930
  8
SIZE
  6
CONTINUOUS
 62
    30
 10
578.38291500000003
 20
0.0
 30
0.0
 11
578.38291500000003
 21
-15.0
 31
0.0
  0
LINE
  5
931
  8
SIZE
  6
CONTINUOUS
 62
    30
 10
578.38291500000003
 20
0.0
 30
0.0
 11
578.38291500000003
 21
-15.0
 31
0.0
  0
CIRCLE
  5
932
  8
SIZE
  6
CONTINUOUS
 62
    30
 10
578.38291500000003
 20
0.0
 30
0.0
 40
6.0
  0
LINE
  5
933
  8
SIZE
  6
CONTINUOUS
 62
    30
 10
578.38291500000003
 20
0.0
 30
0.0
 11
578.38291500000003
 21
12.0
 31
0.0
  0
CIRCLE
  5
934
  8
SIZE
  6
CONTINUOUS
 62
    30
 10
578.38291500000003
 20
-15.0
 30
0.0
 40
6.0
  0
LINE
  5
935
  8
SIZE
  6
CONTINUOUS
 62
    30
 10
578.38291500000003
 20
-15.0
 30
0.0
 11
578.38291500000003
 21
-27.0
 31
0.0
  0
LINE
  5
937
  8
SIZE
  6
CONTINUOUS
 62
    30
 10
-145.0
 20
0.0
 30
0.0
 11
-271.6565549999998
 21
0.0
 31
0.0
  0
LINE
  5
938
  8
SIZE
  6
CONTINUOUS
 62
    30
 10
-70.0
 20
45.0
 30
0.0
 11
-271.6565549999998
 21
45.0
 31
0.0
  0
LINE
  5
939
  8
SIZE
  6
CONTINUOUS
 62
    30
 10
-251.65655499999991
 20
-12.0
 30
0.0
 11
-251.65655499999991
 21
-24.0
 31
0.0
  0
LINE
  5
93A
  8
SIZE
  6
CONTINUOUS
 62
    30
 10
-251.65655499999991
 20
57.0
 30
0.0
 11
-251.65655499999991
 21
69.0
 31
0.0
  0
LINE
  5
93B
  8
SIZE
  6
CONTINUOUS
 62
    30
 10
-251.65655499999991
 20
-175.8259289999998
 30
0.0
 11
-251.65655499999991
 21
0.0
 31
0.0
  0
TEXT
  5
93C
  8
SIZE
  6
CONTINUOUS
 62
    30
 10
-276.65655499999991
 20
-150.82592942857141
 30
0.0
 40
64.0
  1
45
 50
90.0
 41
0.9
 72
     1
 11
-276.65655499999991
 21
-104.19735799999999
 31
0.0
  0
LINE
  5
93D
  8
SIZE
  6
CONTINUOUS
 62
    30
 10
-251.65655499999991
 20
0.0
 30
0.0
 11
-251.65655499999991
 21
45.0
 31
0.0
  0
LINE
  5
93E
  8
SIZE
  6
CONTINUOUS
 62
    30
 10
-251.65655499999991
 20
0.0
 30
0.0
 11
-251.65655499999991
 21
45.0
 31
0.0
  0
CIRCLE
  5
93F
  8
SIZE
  6
CONTINUOUS
 62
    30
 10
-251.65655499999991
 20
0.0
 30
0.0
 40
6.0
  0
LINE
  5
940
  8
SIZE
  6
CONTINUOUS
 62
    30
 10
-251.65655499999991
 20
0.0
 30
0.0
 11
-251.65655499999991
 21
-12.0
 31
0.0
  0
CIRCLE
  5
941
  8
SIZE
  6
CONTINUOUS
 62
    30
 10
-251.65655499999991
 20
45.0
 30
0.0
 40
6.0
  0
LINE
  5
942
  8
SIZE
  6
CONTINUOUS
 62
    30
 10
-251.65655499999991
 20
45.0
 30
0.0
 11
-251.65655499999991
 21
57.0
 31
0.0
  0
LINE
  5
944
  8
SIZE
  6
CONTINUOUS
 62
    30
 10
-145.0
 20
0.0
 30
0.0
 11
-381.97676999999987
 21
0.0
 31
0.0
  0
LINE
  5
945
  8
SIZE
  6
CONTINUOUS
 62
    30
 10
-92.136962999999994
 20
102.0
 30
0.0
 11
-381.97676999999987
 21
102.0
 31
0.0
  0
LINE
  5
946
  8
SIZE
  6
CONTINUOUS
 62
    30
 10
-361.97676999999999
 20
12.0
 30
0.0
 11
-361.97676999999999
 21
90.0
 31
0.0
  0
LINE
  5
947
  8
SIZE
  6
CONTINUOUS
 62
    30
 10
-361.97676999999999
 20
-203.21648300000001
 30
0.0
 11
-361.97676999999999
 21
0.0
 31
0.0
  0
TEXT
  5
948
  8
SIZE
  6
CONTINUOUS
 62
    30
 10
-386.97676999999999
 20
-178.2164825714284
 30
0.0
 40
64.0
  1
102
 50
90.0
 41
0.9
 72
     1
 11
-386.97676999999999
 21
-109.6450539999999
 31
0.0
  0
CIRCLE
  5
949
  8
SIZE
  6
CONTINUOUS
 62
    30
 10
-361.97676999999999
 20
0.0
 30
0.0
 40
6.0
  0
LINE
  5
94A
  8
SIZE
  6
CONTINUOUS
 62
    30
 10
-361.97676999999999
 20
0.0
 30
0.0
 11
-361.97676999999999
 21
12.0
 31
0.0
  0
CIRCLE
  5
94B
  8
SIZE
  6
CONTINUOUS
 62
    30
 10
-361.97676999999999
 20
102.0
 30
0.0
 40
6.0
  0
LINE
  5
94C
  8
SIZE
  6
CONTINUOUS
 62
    30
 10
-361.97676999999999
 20
102.0
 30
0.0
 11
-361.97676999999999
 21
90.0
 31
0.0
  0
LINE
  5
94E
  8
SIZE
  6
CONTINUOUS
 62
    30
 10
-20.0
 20
53.0
 30
0.0
 11
-486.98801999999989
 21
53.0
 31
0.0
  0
LINE
  5
94F
  8
SIZE
  6
CONTINUOUS
 62
    30
 10
-20.0
 20
151.0
 30
0.0
 11
-486.98801999999989
 21
151.0
 31
0.0
  0
LINE
  5
950
  8
SIZE
  6
CONTINUOUS
 62
    30
 10
-466.98802000000001
 20
65.0
 30
0.0
 11
-466.98802000000001
 21
139.0
 31
0.0
  0
LINE
  5
951
  8
SIZE
  6
CONTINUOUS
 62
    30
 10
-466.98802000000001
 20
-175.07727600000001
 30
0.0
 11
-466.98802000000001
 21
53.0
 31
0.0
  0
TEXT
  5
952
  8
SIZE
  6
CONTINUOUS
 62
    30
 10
-491.98802000000001
 20
-164.34013342857139
 30
0.0
 40
64.0
  1
φ98
 50
90.0
 41
0.9
 72
     1
 11
-491.98802000000001
 21
-77.391561999999979
 31
0.0
  0
CIRCLE
  5
953
  8
SIZE
  6
CONTINUOUS
 62
    30
 10
-466.98802000000001
 20
53.0
 30
0.0
 40
6.0
  0
LINE
  5
954
  8
SIZE
  6
CONTINUOUS
 62
    30
 10
-466.98802000000001
 20
53.0
 30
0.0
 11
-466.98802000000001
 21
65.0
 31
0.0
  0
CIRCLE
  5
955
  8
SIZE
  6
CONTINUOUS
 62
    30
 10
-466.98802000000001
 20
151.0
 30
0.0
 40
6.0
  0
LINE
  5
956
  8
SIZE
  6
CONTINUOUS
 62
    30
 10
-466.98802000000001
 20
151.0
 30
0.0
 11
-466.98802000000001
 21
139.0
 31
0.0
  0
LINE
  5
958
  8
SIZE
  6
CONTINUOUS
 62
    30
 10
-20.0
 20
154.4999999999998
 30
0.0
 11
-595.9951329999999
 21
154.4999999999998
 31
0.0
  0
LINE
  5
959
  8
SIZE
  6
CONTINUOUS
 62
    30
 10
-20.0
 20
49.5
 30
0.0
 11
-595.9951329999999
 21
49.5
 31
0.0
  0
LINE
  5
95A
  8
SIZE
  6
CONTINUOUS
 62
    30
 10
-575.99513299999978
 20
142.5
 30
0.0
 11
-575.99513299999978
 21
61.5
 31
0.0
  0
LINE
  5
95B
  8
SIZE
  6
CONTINUOUS
 62
    30
 10
-575.99513299999978
 20
-212.72152500000001
 30
0.0
 11
-575.99513299999978
 21
49.5
 31
0.0
  0
TEXT
  5
95C
  8
SIZE
  6
CONTINUOUS
 62
    30
 10
-600.99513299999978
 20
-201.98438257142851
 30
0.0
 40
64.0
  1
φ105
 50
90.0
 41
0.9
 72
     1
 11
-600.99513299999978
 21
-93.092954000000006
 31
0.0
  0
CIRCLE
  5
95D
  8
SIZE
  6
CONTINUOUS
 62
    30
 10
-575.99513299999978
 20
154.4999999999998
 30
0.0
 40
6.0
  0
LINE
  5
95E
  8
SIZE
  6
CONTINUOUS
 62
    30
 10
-575.99513299999978
 20
154.4999999999998
 30
0.0
 11
-575.99513299999978
 21
142.5
 31
0.0
  0
CIRCLE
  5
95F
  8
SIZE
  6
CONTINUOUS
 62
    30
 10
-575.99513299999978
 20
49.5
 30
0.0
 40
6.0
  0
LINE
  5
960
  8
SIZE
  6
CONTINUOUS
 62
    30
 10
-575.99513299999978
 20
49.5
 30
0.0
 11
-575.99513299999978
 21
61.5
 31
0.0
  0
LINE
  5
962
  8
SIZE
  6
CONTINUOUS
 62
    30
 10
0.0
 20
234.117942
 30
0.0
 11
0.0
 21
302.65756800000003
 31
0.0
  0
LINE
  5
963
  8
SIZE
  6
CONTINUOUS
 62
    30
 10
10.0
 20
224.57161499999981
 30
0.0
 11
10.0
 21
302.65756800000003
 31
0.0
  0
LINE
  5
964
  8
SIZE
  6
CONTINUOUS
 62
    30
 10
-12.0
 20
282.65756800000003
 30
0.0
 11
-24.0
 21
282.65756800000003
 31
0.0
  0
LINE
  5
965
  8
SIZE
  6
CONTINUOUS
 62
    30
 10
22.0
 20
282.65756800000003
 30
0.0
 11
34.0
 21
282.65756800000003
 31
0.0
  0
LINE
  5
966
  8
SIZE
  6
CONTINUOUS
 62
    30
 10
0.0
 20
282.65756800000003
 30
0.0
 11
10.0
 21
282.65756800000003
 31
0.0
  0
CIRCLE
  5
967
  8
SIZE
  6
CONTINUOUS
 62
    30
 10
0.0
 20
282.65756800000003
 30
0.0
 40
6.0
  0
LINE
  5
968
  8
SIZE
  6
CONTINUOUS
 62
    30
 10
0.0
 20
282.65756800000003
 30
0.0
 11
-12.0
 21
282.65756800000003
 31
0.0
  0
CIRCLE
  5
969
  8
SIZE
  6
CONTINUOUS
 62
    30
 10
10.0
 20
282.65756800000003
 30
0.0
 40
6.0
  0
LINE
  5
96A
  8
SIZE
  6
CONTINUOUS
 62
    30
 10
10.0
 20
282.65756800000003
 30
0.0
 11
22.0
 21
282.65756800000003
 31
0.0
  0
TEXT
  5
96B
  8
SIZE
  6
CONTINUOUS
 62
    30
 10
-36.142857142857132
 20
307.65756800000003
 30
0.0
 40
64.0
  1
10
 41
0.9
 72
     1
 11
5.0
 21
307.65756800000003
 31
0.0
  0
LINE
  5
96D
  8
SIZE
  6
CONTINUOUS
 62
    30
 10
-65.0
 20
158.78027900000001
 30
0.0
 11
-65.0
 21
413.75138399999992
 31
0.0
  0
LINE
  5
96E
  8
SIZE
  6
CONTINUOUS
 62
    30
 10
65.0
 20
158.78027900000001
 30
0.0
 11
65.0
 21
413.75138399999992
 31
0.0
  0
LINE
  5
96F
  8
SIZE
  6
CONTINUOUS
 62
    30
 10
-65.0
 20
393.75138399999992
 30
0.0
 11
65.0
 21
393.75138399999992
 31
0.0
  0
CIRCLE
  5
970
  8
SIZE
  6
CONTINUOUS
 62
    30
 10
-65.0
 20
393.75138399999992
 30
0.0
 40
6.0
  0
CIRCLE
  5
971
  8
SIZE
  6
CONTINUOUS
 62
    30
 10
65.0
 20
393.75138399999992
 30
0.0
 40
6.0
  0
TEXT
  5
972
  8
SIZE
  6
CONTINUOUS
 62
    30
 10
-68.571428571428569
 20
418.75138399999992
 30
0.0
 40
64.0
  1
130
 41
0.9
 72
     1
 11
0.0
 21
418.75138399999992
 31
0.0
  0
LINE
  5
974
  8
SIZE
  6
CONTINUOUS
 62
    30
 10
103.0
 20
162.0
 30
0.0
 11
103.0
 21
646.24574099999995
 31
0.0
  0
LINE
  5
975
  8
SIZE
  6
CONTINUOUS
 62
    30
 10
-103.0
 20
162.0
 30
0.0
 11
-103.0
 21
646.24574099999995
 31
0.0
  0
LINE
  5
976
  8
SIZE
  6
CONTINUOUS
 62
    30
 10
91.0
 20
626.24574099999995
 30
0.0
 11
-91.0
 21
626.24574099999995
 31
0.0
  0
CIRCLE
  5
977
  8
SIZE
  6
CONTINUOUS
 62
    30
 10
103.0
 20
626.24574099999995
 30
0.0
 40
6.0
  0
LINE
  5
978
  8
SIZE
  6
CONTINUOUS
 62
    30
 10
103.0
 20
626.24574099999995
 30
0.0
 11
91.0
 21
626.24574099999995
 31
0.0
  0
CIRCLE
  5
979
  8
SIZE
  6
CONTINUOUS
 62
    30
 10
-103.0
 20
626.24574099999995
 30
0.0
 40
6.0
  0
LINE
  5
97A
  8
SIZE
  6
CONTINUOUS
 62
    30
 10
-103.0
 20
626.24574099999995
 30
0.0
 11
-91.0
 21
626.24574099999995
 31
0.0
  0
TEXT
  5
97B
  8
SIZE
  6
CONTINUOUS
 62
    30
 10
-72.685714285714283
 20
651.24574099999995
 30
0.0
 40
64.0
  1
206
 41
0.9
 72
     1
 11
0.0
 21
651.24574099999995
 31
0.0
  0
LINE
  5
97D
  8
SIZE
  6
CONTINUOUS
 62
    30
 10
116.5
 20
147.2111439999999
 30
0.0
 11
116.5
 21
767.83700299999987
 31
0.0
  0
LINE
  5
97E
  8
SIZE
  6
CONTINUOUS
 62
    30
 10
-116.5
 20
147.2111439999999
 30
0.0
 11
-116.5
 21
767.83700299999987
 31
0.0
  0
LINE
  5
97F
  8
SIZE
  6
CONTINUOUS
 62
    30
 10
104.4999999999999
 20
747.83700299999964
 30
0.0
 11
-104.4999999999999
 21
747.83700299999964
 31
0.0
  0
CIRCLE
  5
980
  8
SIZE
  6
CONTINUOUS
 62
    30
 10
116.5
 20
747.83700299999964
 30
0.0
 40
6.0
  0
LINE
  5
981
  8
SIZE
  6
CONTINUOUS
 62
    30
 10
116.5
 20
747.83700299999964
 30
0.0
 11
104.4999999999999
 21
747.83700299999964
 31
0.0
  0
CIRCLE
  5
982
  8
SIZE
  6
CONTINUOUS
 62
    30
 10
-116.5
 20
747.83700299999964
 30
0.0
 40
6.0
  0
LINE
  5
983
  8
SIZE
  6
CONTINUOUS
 62
    30
 10
-116.5
 20
747.83700299999964
 30
0.0
 11
-104.4999999999999
 21
747.83700299999964
 31
0.0
  0
TEXT
  5
984
  8
SIZE
  6
CONTINUOUS
 62
    30
 10
-74.05714285714285
 20
772.83700299999964
 30
0.0
 40
64.0
  1
233
 41
0.9
 72
     1
 11
0.0
 21
772.83700299999964
 31
0.0
  0
LINE
  5
986
  8
NOTE
  6
CONTINUOUS
 62
     4
 39
50.0
 10
-111.4999999999999
 20
0.0
 30
0.0
 11
-287.18007399999988
 21
-367.80302
 31
0.0
  0
LINE
  5
987
  8
NOTE
  6
CONTINUOUS
 62
     4
 10
-287.18007399999988
 20
-367.80302
 30
0.0
 11
-564.16568199999995
 21
-367.80302
 31
0.0
  0
TEXT
  5
988
  8
NOTE
  6
CONTINUOUS
 62
     4
 10
-545.30434699999989
 20
-336.10774900000001
 30
0.0
 40
64.0
  1
8-φ5
 41
0.9
  0
LINE
  5
989
  8
NOTE
  6
CONTINUOUS
 62
     4
 10
-118.97749399999969
 20
-39.294874
 30
0.0
 11
-111.4999999999999
 21
0.0
 31
0.0
  0
LINE
  5
98A
  8
NOTE
  6
CONTINUOUS
 62
     4
 10
-111.4999999999999
 20
0.0
 30
0.0
 11
-137.62313700000001
 21
-30.291612000000001
 31
0.0
  0
POINT
  5
98B
  8
ARRANGE
  6
CONTINUOUS
 62
     1
 10
0.0
 20
0.0
 30
0.0
 39
50.0
  0
CIRCLE
  5
98C
  8
ARRANGE
  6
CONTINUOUS
 62
     1
 39
50.0
 10
0.0
 20
0.0
 30
0.0
 40
40.0
  0
LINE
  5
98D
  8
DETAIL
  6
CONTINUOUS
 62
     5
 10
125.0
 20
0.0
 30
0.0
 11
-125.0
 21
0.0
 31
0.0
  0
LINE
  5
98E
  8
DETAIL
  6
CONTINUOUS
 62
     5
 10
-83.499999999999986
 20
-8.0
 30
0.0
 11
-118.2885299999998
 21
-8.0
 31
0.0
  0
ARC
  5
98F
  8
DETAIL
  6
CONTINUOUS
 62
     5
 10
-83.499999999999986
 20
165.0
 30
0.0
 40
180.0
 50
257.69778400000001
 51
270.0
  0
ARC
  5
990
  8
DETAIL
  6
CONTINUOUS
 62
     5
 10
-121.0
 20
-6.9585710000000001
 30
0.0
 40
4.0
 50
180.0
 51
257.69778400000001
  0
LINE
  5
991
  8
DETAIL
  6
CONTINUOUS
 62
     5
 10
-125.0
 20
0.0
 30
0.0
 11
-125.0
 21
-6.9585710000000001
 31
0.0
  0
ARC
  5
992
  8
DETAIL
  6
CONTINUOUS
 62
     5
 10
83.499999999999986
 20
165.0
 30
0.0
 40
180.0
 50
270.0
 51
282.30221599999982
  0
LINE
  5
993
  8
DETAIL
  6
CONTINUOUS
 62
     5
 10
83.499999999999986
 20
-8.0
 30
0.0
 11
118.2885299999998
 21
-8.0
 31
0.0
  0
LINE
  5
994
  8
DETAIL
  6
CONTINUOUS
 62
     5
 10
-82.0
 20
-8.0
 30
0.0
 11
82.0
 21
-8.0
 31
0.0
  0
LINE
  5
995
  8
DETAIL
  6
CONTINUOUS
 62
     5
 10
82.0
 20
-15.0
 30
0.0
 11
-82.0
 21
-15.0
 31
0.0
  0
LINE
  5
996
  8
DETAIL
  6
CONTINUOUS
 62
     5
 10
-83.499999999999986
 20
-15.0
 30
0.0
 11
-83.499999999999986
 21
0.0
 31
0.0
  0
LINE
  5
997
  8
DETAIL
  6
CONTINUOUS
 62
     5
 10
-82.0
 20
-15.0
 30
0.0
 11
-82.0
 21
0.0
 31
0.0
  0
LINE
  5
998
  8
DETAIL
  6
CONTINUOUS
 62
     5
 10
-83.499999999999986
 20
-14.0
 30
0.0
 11
-82.0
 21
-14.0
 31
0.0
  0
LINE
  5
999
  8
DETAIL
  6
CONTINUOUS
 62
     5
 10
83.499999999999986
 20
-14.0
 30
0.0
 11
82.0
 21
-14.0
 31
0.0
  0
LINE
  5
99A
  8
DETAIL
  6
CONTINUOUS
 62
     5
 10
82.0
 20
-15.0
 30
0.0
 11
82.0
 21
0.0
 31
0.0
  0
LINE
  5
99B
  8
DETAIL
  6
CONTINUOUS
 62
     5
 10
83.499999999999986
 20
-15.0
 30
0.0
 11
83.499999999999986
 21
0.0
 31
0.0
  0
LINE
  5
99C
  8
DETAIL
  6
CONTINUOUS
 62
     5
 10
125.0
 20
0.0
 30
0.0
 11
125.0
 21
-6.9585710000000001
 31
0.0
  0
ARC
  5
99D
  8
DETAIL
  6
CONTINUOUS
 62
     5
 10
121.0
 20
-6.9585710000000001
 30
0.0
 40
4.0
 50
282.30221599999982
 51
0.0
  0
ARC
  5
99E
  8
DETAIL
  6
CONTINUOUS
 62
     5
 10
61.056854000000001
 20
171.5
 30
0.0
 40
1.0
 50
0.0
 51
90.0
  0
ARC
  5
99F
  8
DETAIL
  6
CONTINUOUS
 62
     5
 10
61.056854000000001
 20
171.5
 30
0.0
 40
1.0
 50
0.0
 51
90.0
  0
LINE
  5
9A0
  8
DETAIL
  6
CONTINUOUS
 62
     5
 10
62.056854000000001
 20
167.5
 30
0.0
 11
62.056854000000001
 21
171.5
 31
0.0
  0
ARC
  5
9A1
  8
DETAIL
  6
CONTINUOUS
 62
     5
 10
61.056854000000001
 20
171.5
 30
0.0
 40
1.0
 50
0.0
 51
90.0
  0
LINE
  5
9A2
  8
DETAIL
  6
CONTINUOUS
 62
     5
 10
44.891030999999998
 20
172.5
 30
0.0
 11
45.0
 21
184.0
 31
0.0
  0
LINE
  5
9A3
  8
DETAIL
  6
CONTINUOUS
 62
     5
 10
52.5
 20
184.0
 30
0.0
 11
52.391030999999998
 21
172.5
 31
0.0
  0
LINE
  5
9A4
  8
DETAIL
  6
CONTINUOUS
 62
     5
 10
47.5
 20
184.0
 30
0.0
 11
47.72267699999999
 21
172.5
 31
0.0
  0
LINE
  5
9A5
  8
DETAIL
  6
CONTINUOUS
 62
     5
 10
55.0
 20
184.0
 30
0.0
 11
55.222676999999997
 21
172.5
 31
0.0
  0
LINE
  5
9A6
  8
DETAIL
  6
CONTINUOUS
 62
     5
 10
55.0
 20
184.0
 30
0.0
 11
52.5
 21
184.0
 31
0.0
  0
LINE
  5
9A7
  8
DETAIL
  6
CONTINUOUS
 62
     5
 10
47.5
 20
184.0
 30
0.0
 11
45.0
 21
184.0
 31
0.0
  0
LINE
  5
9A8
  8
SIZE
  6
CONTINUOUS
 62
    30
 10
84.0
 20
182.587963
 30
0.0
 11
84.0
 21
531.92500099999995
 31
0.0
  0
LINE
  5
9A9
  8
SIZE
  6
CONTINUOUS
 62
    30
 10
-84.0
 20
182.587963
 30
0.0
 11
-84.0
 21
531.92500099999995
 31
0.0
  0
LINE
  5
9AA
  8
SIZE
  6
CONTINUOUS
 62
    30
 10
84.0
 20
511.92500100000001
 30
0.0
 11
-84.0
 21
511.92500100000001
 31
0.0
  0
CIRCLE
  5
9AB
  8
SIZE
  6
CONTINUOUS
 62
    30
 10
84.0
 20
511.92500100000001
 30
0.0
 40
6.0
  0
CIRCLE
  5
9AC
  8
SIZE
  6
CONTINUOUS
 62
    30
 10
-84.0
 20
511.92500100000001
 30
0.0
 40
6.0
  0
TEXT
  5
9AD
  8
SIZE
  6
CONTINUOUS
 62
    30
 10
-68.571428571428555
 20
536.92500099999995
 30
0.0
 40
64.0
  1
168
 41
0.9
 72
     1
 11
0.0
 21
536.92500099999995
 31
0.0
  0
ARC
  5
9AF
  8
DETAIL
  6
CONTINUOUS
 62
     5
 39
50.0
 10
-94.920349000000002
 20
116.840737
 30
0.0
 40
5.0
 50
358.97952099999992
 51
89.020514000000006
  0
LINE
  5
9B0
  8
DETAIL
  6
CONTINUOUS
 62
     5
 39
50.0
 10
92.873101000000005
 20
121.4024009999999
 30
0.0
 11
92.981093999999985
 21
115.215478
 31
0.0
  0
ARC
  5
9B1
  8
DETAIL
  6
CONTINUOUS
 62
     5
 39
50.0
 10
94.920349000000002
 20
116.840737
 30
0.0
 40
5.0
 50
90.979485999999994
 51
181.02047899999999
  0
LINE
  5
9B2
  8
DETAIL
  6
CONTINUOUS
 62
     5
 39
50.0
 10
116.587262
 20
122.211905
 30
0.0
 11
94.834877000000006
 21
121.840006
 31
0.0
  0
LINE
  5
9B3
  8
DETAIL
  6
CONTINUOUS
 62
     5
 39
50.0
 10
111.95607
 20
133.973772
 30
0.0
 11
94.736898999999994
 21
133.6728819999999
 31
0.0
  0
LINE
  5
9B4
  8
DETAIL
  6
CONTINUOUS
 62
     5
 39
50.0
 10
112.51516100000001
 20
129.42758199999969
 30
0.0
 11
94.310310999999999
 21
129.109486
 31
0.0
  0
LINE
  5
9B5
  8
DETAIL
  6
CONTINUOUS
 62
     5
 39
50.0
 10
110.4908079999999
 20
129.392247
 30
0.0
 11
110.5305599999998
 21
127.1148509999999
 31
0.0
  0
ARC
  5
9B6
  8
DETAIL
  6
CONTINUOUS
 62
     5
 39
50.0
 10
111.964904
 20
133.46768399999991
 30
0.0
 40
0.5061650000000001
 50
1.0
 51
91.0
  0
LINE
  5
9B7
  8
DETAIL
  6
CONTINUOUS
 62
     5
 39
50.0
 10
112.4709919999999
 20
133.47651799999991
 30
0.0
 11
112.541658
 21
129.428045
 31
0.0
  0
LINE
  5
9B8
  8
DETAIL
  6
CONTINUOUS
 62
     5
 39
50.0
 10
114.13413
 20
122.166184
 30
0.0
 11
114.24897
 21
115.587039
 31
0.0
  0
LINE
  5
9B9
  8
DETAIL
  6
CONTINUOUS
 62
     5
 39
50.0
 10
112.75720699999999
 20
114.04227399999991
 30
0.0
 11
94.525859999999994
 21
113.7237149999997
 31
0.0
  0
ARC
  5
9BA
  8
DETAIL
  6
CONTINUOUS
 62
     5
 39
50.0
 10
112.7307049999999
 20
115.5605379999997
 30
0.0
 40
1.5184949999999979
 50
271.0
 51
1.0
  0
LINE
  5
9BB
  8
DETAIL
  6
CONTINUOUS
 62
     5
 39
50.0
 10
116.5
 20
127.2111439999999
 30
0.0
 11
92.778800000000004
 21
126.804895
 31
0.0
  0
LINE
  5
9BC
  8
DETAIL
  6
CONTINUOUS
 62
     5
 39
50.0
 10
116.5
 20
127.2111439999999
 30
0.0
 11
116.587262
 21
122.211905
 31
0.0
  0
CIRCLE
  5
9BD
  8
FIX
  6
CONTINUOUS
 62
    11
 39
50.0
 10
103.0
 20
122.0
 30
0.0
 40
7.5
  0
ARC
  5
9BE
  8
DETAIL
  6
CONTINUOUS
 62
     5
 39
50.0
 10
94.499358999999984
 20
115.2419789999999
 30
0.0
 40
1.5184949999999979
 50
181.0
 51
271.0
  0
LINE
  5
9BF
  8
DETAIL
  6
CONTINUOUS
 62
     5
 39
50.0
 10
94.239644999999996
 20
133.15795999999969
 30
0.0
 11
94.310310999999999
 21
129.109486
 31
0.0
  0
ARC
  5
9C0
  8
DETAIL
  6
CONTINUOUS
 62
     5
 39
50.0
 10
94.745733000000016
 20
133.1667939999997
 30
0.0
 40
0.5061650000000001
 50
91.0
 51
181.0
  0
LINE
  5
9C1
  8
DETAIL
  6
CONTINUOUS
 62
     5
 39
50.0
 10
96.308166000000014
 20
129.14435900000001
 30
0.0
 11
96.347918000000021
 21
126.8669629999999
 31
0.0
  0
ARC
  5
9C2
  8
DETAIL
  6
CONTINUOUS
 62
     5
 39
50.0
 10
93.051822000000001
 20
118.47905900000001
 30
0.0
 40
8.330311
 50
91.878174000000001
 51
168.17021399999979
  0
LINE
  5
9C3
  8
NOTE
  6
CONTINUOUS
 62
     4
 10
103.0
 20
102.0
 30
0.0
 11
103.0
 21
142.0
 31
0.0
  0
LINE
  5
9C4
  8
NOTE
  6
CONTINUOUS
 62
     4
 10
83.0
 20
122.0
 30
0.0
 11
123.0
 21
122.0
 31
0.0
  0
LINE
  5
9C5
  8
DETAIL
  6
CONTINUOUS
 62
     5
 39
50.0
 10
89.921142000000003
 20
116.7516879999999
 30
0.0
 11
91.999210000000005
 21
0.08889
 31
0.0
  0
LINE
  5
9C6
  8
OUTLINE
  6
CONTINUOUS
 62
     3
 10
79.000773999999979
 20
167.5
 30
0.0
 11
-79.000773999999979
 21
167.5
 31
0.0
  0
LINE
  5
9C7
  8
OUTLINE
  6
CONTINUOUS
 62
     3
 10
-84.0
 20
162.587963
 30
0.0
 11
-87.0
 21
0.0
 31
0.0
  0
ARC
  5
9C8
  8
OUTLINE
  6
CONTINUOUS
 62
     3
 10
-79.000773999999979
 20
162.5
 30
0.0
 40
5.0
 50
90.0
 51
178.99196699999999
  0
LINE
  5
9C9
  8
OUTLINE
  6
CONTINUOUS
 62
     3
 10
84.0
 20
162.587963
 30
0.0
 11
87.0
 21
0.0
 31
0.0
  0
ARC
  5
9CA
  8
OUTLINE
  6
CONTINUOUS
 62
     3
 10
79.000773999999979
 20
162.5
 30
0.0
 40
5.0
 50
1.0080329999999991
 51
90.0
  0
LINE
  5
9CB
  8
OUTLINE
  6
CONTINUOUS
 62
     3
 10
125.0
 20
0.0
 30
0.0
 11
-125.0
 21
0.0
 31
0.0
  0
TEXT
  5
9DD
  8
ETC
  6
CONTINUOUS
 62
    61
 10
786.19198805737676
 20
314.92969602064932
 30
0.0
 40
50.0
  1
VD-10ZLC7-S
 41
0.9
  0
TEXT
  5
9DE
  8
ETC
  6
CONTINUOUS
 62
    61
 10
786.19198805737676
 20
402.26701102064931
 30
0.0
 40
50.0
  1
VD-10ZLC7
 41
0.9
  0
TEXT
  5
9DF
  8
ETC
  6
CONTINUOUS
 62
    61
 10
786.19198805737676
 20
501.63467102064931
 30
0.0
 40
50.0
  1
VD-10ZC7-BL
 41
0.9
  0
TEXT
  5
9E0
  8
ETC
  6
CONTINUOUS
 62
    61
 10
786.19198805737676
 20
594.51799602064921
 30
0.0
 40
50.0
  1
VD-10ZC7
 41
0.9
  0
TEXT
  5
9E1
  8
ETC
  6
CONTINUOUS
 62
    61
 10
686.91250115867786
 20
767.18544386195333
 30
0.0
 40
64.0
  1
VD-10ZC7_2
 41
0.9
  0
TEXT
  5
9E2
  8
ETC
  6
CONTINUOUS
 62
    61
 10
678.99679415867786
 20
669.83891286195342
 30
0.0
 40
64.0
  1
換気扇
 41
0.9
  0
ENDSEC
  0
EOF
