  0
SECTION
  2
HEADER
  9
$ACADVER
  1
AC1009
  9
$DWGCODEPAGE
  3
dos932
  9
$INSBASE
 10
0.0
 20
0.0
 30
0.0
  9
$EXTMIN
 10
-751.83561591179568
 20
-650.16173169734247
 30
-0.0015258207003583
  9
$EXTMAX
 10
1196.864330613593
 20
737.64038905226698
 30
0.0000000349246037
  9
$LIMMIN
 10
-2970.0
 20
-2100.0
  9
$LIMMAX
 10
2970.0
 20
2100.0
  9
$ORTHOMODE
 70
     1
  9
$REGENMODE
 70
     1
  9
$FILLMODE
 70
     1
  9
$QTEXTMODE
 70
     0
  9
$MIRRTEXT
 70
     0
  9
$LTSCALE
 40
20.0
  9
$ATTMODE
 70
     1
  9
$TEXTSIZE
 40
64.0
  9
$TRACEWID
 40
0.05
  9
$TEXTSTYLE
  7
STANDARD
  9
$CLAYER
  8
SIZE
  9
$CELTYPE
  6
CONTINUOUS
  9
$CECOLOR
 62
     7
  9
$DIMSCALE
 40
1.0
  9
$DIMASZ
 40
12.0
  9
$DIMEXO
 40
20.0
  9
$DIMDLI
 40
200.0
  9
$DIMRND
 40
0.0
  9
$DIMDLE
 40
0.0
  9
$DIMEXE
 40
20.0
  9
$DIMTP
 40
0.0
  9
$DIMTM
 40
0.0
  9
$DIMTXT
 40
64.0
  9
$DIMCEN
 40
0.09
  9
$DIMTSZ
 40
0.0
  9
$DIMTOL
 70
     0
  9
$DIMLIM
 70
     0
  9
$DIMTIH
 70
     0
  9
$DIMTOH
 70
     0
  9
$DIMSE1
 70
     0
  9
$DIMSE2
 70
     0
  9
$DIMTAD
 70
     1
  9
$DIMZIN
 70
     8
  9
$DIMBLK
  1

  9
$DIMASO
 70
     1
  9
$DIMSHO
 70
     0
  9
$DIMPOST
  1

  9
$DIMAPOST
  1

  9
$DIMALT
 70
     0
  9
$DIMALTD
 70
     2
  9
$DIMALTF
 40
25.399999999999999
  9
$DIMLFAC
 40
1.0
  9
$DIMTOFL
 70
     1
  9
$DIMTVP
 40
0.0
  9
$DIMTIX
 70
     1
  9
$DIMSOXD
 70
     0
  9
$DIMSAH
 70
     0
  9
$DIMBLK1
  1

  9
$DIMBLK2
  1

  9
$DIMSTYLE
  2
STANDARD
  9
$DIMCLRD
 70
     7
  9
$DIMCLRE
 70
     7
  9
$DIMCLRT
 70
     7
  9
$DIMTFAC
 40
1.0
  9
$DIMGAP
 40
25.0
  9
$LUNITS
 70
     2
  9
$LUPREC
 70
     4
  9
$SKETCHINC
 40
0.1
  9
$FILLETRAD
 40
3.0
  9
$AUNITS
 70
     1
  9
$AUPREC
 70
     3
  9
$MENU
  1
ACAD
  9
$ELEVATION
 40
0.0
  9
$PELEVATION
 40
0.0
  9
$THICKNESS
 40
0.0
  9
$LIMCHECK
 70
     0
  9
$CHAMFERA
 40
0.0
  9
$CHAMFERB
 40
0.0
  9
$SKPOLY
 70
     0
  9
$TDCREATE
 40
2453019.62301037
  9
$TDUPDATE
 40
2459025.486253866
  9
$TDINDWG
 40
1.7252358912
  9
$TDUSRTIMER
 40
1.7252358912
  9
$USRTIMER
 70
     1
  9
$ANGBASE
 50
0.0
  9
$ANGDIR
 70
     0
  9
$PDMODE
 70
     3
  9
$PDSIZE
 40
-2.0
  9
$PLINEWID
 40
0.0
  9
$SPLFRAME
 70
     0
  9
$SPLINETYPE
 70
     6
  9
$SPLINESEGS
 70
     8
  9
$SURFTAB1
 70
     6
  9
$SURFTAB2
 70
     6
  9
$SURFTYPE
 70
     6
  9
$SURFU
 70
     6
  9
$SURFV
 70
     6
  9
$UCSNAME
  2

  9
$UCSORG
 10
0.0
 20
0.0
 30
0.0
  9
$UCSXDIR
 10
1.0
 20
0.0
 30
0.0
  9
$UCSYDIR
 10
0.0
 20
1.0
 30
0.0
  9
$PUCSNAME
  2

  9
$PUCSORG
 10
0.0
 20
0.0
 30
0.0
  9
$PUCSXDIR
 10
1.0
 20
0.0
 30
0.0
  9
$PUCSYDIR
 10
0.0
 20
1.0
 30
0.0
  9
$USERI1
 70
     0
  9
$USERI2
 70
     0
  9
$USERI3
 70
     0
  9
$USERI4
 70
     0
  9
$USERI5
 70
     0
  9
$USERR1
 40
20.0
  9
$USERR2
 40
0.0
  9
$USERR3
 40
0.0
  9
$USERR4
 40
0.0
  9
$USERR5
 40
0.0
  9
$WORLDVIEW
 70
     1
  9
$SHADEDGE
 70
     3
  9
$SHADEDIF
 70
    70
  9
$TILEMODE
 70
     1
  9
$MAXACTVP
 70
    48
  9
$PINSBASE
 10
0.0
 20
0.0
 30
0.0
  9
$PLIMCHECK
 70
     0
  9
$PEXTMIN
 10
-100000000000000000000.0
 20
-100000000000000000000.0
 30
-100000000000000000000.0
  9
$PEXTMAX
 10
100000000000000000000.0
 20
100000000000000000000.0
 30
100000000000000000000.0
  9
$PLIMMIN
 10
0.0
 20
0.0
  9
$PLIMMAX
 10
12.0
 20
9.0
  9
$UNITMODE
 70
     0
  9
$VISRETAIN
 70
     0
  9
$PLINEGEN
 70
     0
  9
$PSLTSCALE
 70
     0
  9
$TREEDEPTH
 70
  3020
  9
$ATTDIA
 70
     0
  9
$ATTREQ
 70
     1
  9
$BLIPMODE
 70
     1
  9
$COORDS
 70
     1
  9
$DRAGMODE
 70
     2
  9
$OSMODE
 70
     0
  9
$HANDLING
 70
     0
  9
$HANDSEED
  5
F236
  0
ENDSEC
  0
SECTION
  2
TABLES
  0
TABLE
  2
LTYPE
 70
     3
  0
LTYPE
  2
CONTINUOUS
 70
     0
  3
実線
 72
    65
 73
     0
 40
0.0
  0
LTYPE
  2
DASHDOT
 70
     0
  3
____ _ ____ _ ____ _ ____ _ ____ _ ____ _ ____
 72
    65
 73
     4
 40
5.5
 49
4.0
 49
-0.6
 49
0.3
 49
-0.6
  0
LTYPE
  2
DASHED
 70
     0
  3
-- -- -- -- -- -- -- -- -- -- -- -- -- -- --
 72
    65
 73
     2
 40
0.75
 49
0.5
 49
-0.25
  0
ENDTAB
  0
TABLE
  2
LAYER
 70
    12
  0
LAYER
  2
0
 70
     0
 62
     7
  6
CONTINUOUS
  0
LAYER
  2
BASIS
 70
     0
 62
     6
  6
DASHDOT
  0
LAYER
  2
OUTLINE
 70
     0
 62
     3
  6
CONTINUOUS
  0
LAYER
  2
DETAIL
 70
     0
 62
     5
  6
CONTINUOUS
  0
LAYER
  2
SIZE
 70
     0
 62
    30
  6
CONTINUOUS
  0
LAYER
  2
ARRANGE
 70
     0
 62
     1
  6
CONTINUOUS
  0
LAYER
  2
DEFPOINTS
 70
     0
 62
     7
  6
CONTINUOUS
  0
LAYER
  2
ETC
 70
     0
 62
    61
  6
CONTINUOUS
  0
LAYER
  2
FIX
 70
     0
 62
    11
  6
CONTINUOUS
  0
LAYER
  2
NOTE
 70
     0
 62
     4
  6
CONTINUOUS
  0
LAYER
  2
SERVICESPACE
 70
    64
 62
     2
  6
DASHDOT
  0
LAYER
  2
SYMBOLLINE
 70
    64
 62
    15
  6
CONTINUOUS
  0
ENDTAB
  0
TABLE
  2
STYLE
 70
     1
  0
STYLE
  2
STANDARD
 70
     0
 40
64.0
 41
0.9
 50
0.0
 71
     0
 42
64.0
  3
SIMPLEX.shx
  4
BIGFONT.shx
  0
ENDTAB
  0
TABLE
  2
APPID
 70
    19
  0
APPID
  2
ACAD
 70
     0
  0
APPID
  2
AUTOCAD_POSTSCRIPT_FIGURE
 70
     0
  0
APPID
  2
ACAD_EXEMPT_FROM_CAD_STANDARDS
 70
     0
  0
APPID
  2
ACAD_PSEXT
 70
     0
  0
APPID
  2
ACAUTHENVIRON
 70
     0
  0
APPID
  2
GENIUS_GENOENT_13
 70
     0
  0
APPID
  2
GENIUS_GENCFG_13
 70
     0
  0
APPID
  2
GENIUS_GENCFG0_13
 70
     0
  0
APPID
  2
GENIUS_GENCFG1_13
 70
     0
  0
APPID
  2
GENIUS_GENCFG2_13
 70
     0
  0
APPID
  2
GENIUS_GENCFG3_13
 70
     0
  0
APPID
  2
GENIUS_GENCFG4_13
 70
     0
  0
APPID
  2
GENIUS_GEVCFG0_13
 70
     0
  0
APPID
  2
CONTENTBLOCKICON
 70
     0
  0
APPID
  2
CONTENTBLOCKDESCRIPTION
 70
     0
  0
APPID
  2
ACAD_NAV_VCDISPLAY
 70
     0
  0
APPID
  2
ACAD_MLEADERVER
 70
     0
  0
APPID
  2
ACDBDYNAMICBLOCKTRUENAME
 70
     0
  0
APPID
  2
ACDBDYNAMICBLOCKGUID
 70
     0
  0
ENDTAB
  0
TABLE
  2
DIMSTYLE
 70
     1
  0
DIMSTYLE
  2
STANDARD
 70
     0
  3

  4

  5
_ORIGIN
  6

  7

 40
1.0
 41
12.0
 42
20.0
 43
200.0
 44
20.0
 45
0.0
 46
0.0
 47
0.0
 48
0.0
140
64.0
141
0.09
142
0.0
143
25.399999999999999
144
1.0
145
0.0
146
1.0
147
25.0
 71
     0
 72
     0
 73
     0
 74
     0
 75
     0
 76
     0
 77
     1
 78
     8
170
     0
171
     2
172
     1
173
     0
174
     1
175
     0
176
     7
177
     7
178
     7
  0
ENDTAB
  0
TABLE
  2
VIEW
 70
     1
  0
VIEW
  2
ALL
 70
     0
 40
4282.6198079999986
 10
0.0
 20
41.309904000000003
 41
5940.0
 11
0.0
 21
0.0
 31
1.0
 12
0.0
 22
0.0
 32
0.0
 42
50.0
 43
0.0
 44
0.0
 50
0.0
 71
     0
  0
ENDTAB
  0
TABLE
  2
UCS
 70
     0
  0
ENDTAB
  0
TABLE
  2
VPORT
 70
     1
  0
VPORT
  2
*ACTIVE
 70
     0
 10
0.0
 20
0.0
 11
1.0
 21
1.0
 12
222.51435735089839
 22
43.739328677462247
 13
0.0
 23
0.0
 14
1.0
 24
1.0
 15
0.0
 25
0.0
 16
0.0
 26
0.0
 36
1.0
 17
0.0
 27
0.0
 37
0.0
 40
1397.003018787728
 41
1.747787610619469
 42
50.0
 43
0.0
 44
0.0
 50
0.0
 51
0.0
 71
     0
 72
  1000
 73
     1
 74
     3
 75
     0
 76
     0
 77
     0
 78
     0
  0
ENDTAB
  0
ENDSEC
  0
SECTION
  2
BLOCKS
  0
BLOCK
  8
0
  2
_ORIGIN
 70
     0
 10
0.0
 20
0.0
 30
0.0
  3
_ORIGIN
  1
_ORIGIN
  0
CIRCLE
  8
0
  6
CONTINUOUS
 62
     7
 10
0.0
 20
0.0
 30
0.0
 40
0.5
  0
LINE
  8
0
  6
CONTINUOUS
 62
     7
 10
0.0
 20
0.0
 30
0.0
 11
-1.0
 21
0.0
 31
0.0
  0
ENDBLK
  8
0
  0
ENDSEC
  0
SECTION
  2
ENTITIES
  0
TEXT
  8
ETC
  6
CONTINUOUS
 62
    61
 10
445.11141099999992
 20
673.40114100000028
 30
0.0
 40
64.0
  1
VD-10ZCC7-M_4
 41
0.9
  0
TEXT
  8
ETC
  6
CONTINUOUS
 62
    61
 10
440.92541699999992
 20
555.445831
 30
0.0
 40
64.0
  1
換気扇
 41
0.9
  0
TEXT
  8
ETC
  6
CONTINUOUS
 62
    61
 10
491.5329200000001
 20
448.52489500000001
 30
0.0
 40
40.0
  1
VD-10ZCC7-M
 41
0.9
  0
CIRCLE
  8
ARRANGE
  6
CONTINUOUS
 62
     1
 10
0.0
 20
0.0
 30
0.0
 40
40.0
  0
POINT
  8
ARRANGE
  6
CONTINUOUS
 62
     1
 10
0.0
 20
0.0
 30
0.0
  0
CIRCLE
  8
SIZE
  6
CONTINUOUS
 62
    30
 10
0.0
 20
-194.85318000000001
 30
0.0
 40
6.0
  0
CIRCLE
  8
SIZE
  6
CONTINUOUS
 62
    30
 10
0.0
 20
-335.70951300000002
 30
0.0
 40
6.0
  0
TEXT
  8
SIZE
  6
CONTINUOUS
 62
    30
 10
-96.491481999999905
 20
-588.03661099999999
 30
0.0
 40
64.0
  1
φ250
 41
0.9
  0
LINE
  8
SIZE
  6
CONTINUOUS
 62
    30
 10
123.0
 20
-620.03661099999999
 30
0.0
 11
0.0
 21
-620.03661099999999
 31
0.0
  0
TEXT
  8
SIZE
  6
CONTINUOUS
 62
    30
 10
-71.855256999999938
 20
-442.60633600000011
 30
0.0
 40
64.0
  1
174
 41
0.9
  0
LINE
  8
SIZE
  6
CONTINUOUS
 62
    30
 10
-81.948200999999926
 20
-474.60633600000011
 30
0.0
 11
3.0517989999998458
 21
-474.60633600000011
 31
0.0
  0
TEXT
  8
SIZE
  6
CONTINUOUS
 62
    30
 10
-71.612576999999874
 20
607.18525
 30
0.0
 40
64.0
  1
162
 41
0.9
  0
LINE
  8
SIZE
  6
CONTINUOUS
 62
    30
 10
75.958850999999868
 20
575.18525
 30
0.0
 11
-3.0411490000001322
 21
575.18525
 31
0.0
  0
LINE
  8
OUTLINE
  6
CONTINUOUS
 62
     3
 10
49.986198999999942
 20
126.5
 30
0.0
 11
78.0
 21
126.5
 31
0.0
  0
LINE
  8
OUTLINE
  6
CONTINUOUS
 62
     3
 10
-51.922293000000082
 20
150.0
 30
0.0
 11
-49.013801000000058
 21
150.0
 31
0.0
  0
LINE
  8
OUTLINE
  6
CONTINUOUS
 62
     3
 10
-61.5
 20
126.5
 30
0.0
 11
-49.013801000000058
 21
126.5
 31
0.0
  0
CIRCLE
  8
FIX
  6
CONTINUOUS
 62
    11
 10
0.0
 20
0.0
 30
0.0
 40
2.5
  0
LINE
  8
OUTLINE
  6
CONTINUOUS
 62
     3
 10
29.5
 20
187.0
 30
0.0
 11
-23.5
 21
187.0
 31
0.0
  0
ARC
  8
OUTLINE
  6
CONTINUOUS
 62
     3
 10
0.0
 20
1942.963
 30
0.0
 40
1960.963
 50
266.56335499999892
 51
273.43664500000108
  0
LINE
  8
OUTLINE
  6
CONTINUOUS
 62
     3
 10
125.0
 20
0.0
 30
0.0
 11
90.0
 21
0.0
 31
0.0
  0
LINE
  8
NOTE
  6
CONTINUOUS
 62
     4
 10
0.0
 20
-20.0
 30
0.0
 11
0.0
 21
20.0
 31
0.0
  0
LINE
  8
NOTE
  6
CONTINUOUS
 62
     4
 10
-102.0
 20
-20.0
 30
0.0
 11
-102.0
 21
20.0
 31
0.0
  0
CIRCLE
  8
SIZE
  6
CONTINUOUS
 62
    30
 10
-655.51879800000017
 20
0.0
 30
0.0
 40
6.0
  0
LINE
  8
SIZE
  6
CONTINUOUS
 62
    30
 10
-655.51879800000017
 20
102.0
 30
0.0
 11
-655.51879800000017
 21
0.0
 31
0.0
  0
LINE
  8
SIZE
  6
CONTINUOUS
 62
    30
 10
-197.0
 20
29.5
 30
0.0
 11
-197.0
 21
-224.85318000000001
 31
0.0
  0
LINE
  8
OUTLINE
  6
CONTINUOUS
 62
     3
 10
-84.0
 20
171.0
 30
0.0
 11
-84.0
 21
0.0
 31
0.0
  0
LINE
  8
OUTLINE
  6
CONTINUOUS
 62
     3
 10
-61.5
 20
171.0
 30
0.0
 11
-61.5
 21
126.5
 31
0.0
  0
LINE
  8
OUTLINE
  6
CONTINUOUS
 62
     3
 10
-61.5
 20
171.0
 30
0.0
 11
-61.5
 21
126.5
 31
0.0
  0
LINE
  8
OUTLINE
  6
CONTINUOUS
 62
     3
 10
-84.0
 20
171.0
 30
0.0
 11
-84.0
 21
0.0
 31
0.0
  0
CIRCLE
  8
FIX
  6
CONTINUOUS
 62
    11
 10
-102.0
 20
0.0
 30
0.0
 40
2.5
  0
LINE
  8
BASIS
  6
DASHDOT
 62
     6
 10
0.0
 20
219.23425599999999
 30
0.0
 11
0.0
 21
-60.804918000000043
 31
0.0
  0
LINE
  8
SIZE
  6
CONTINUOUS
 62
    30
 10
-141.49838800000001
 20
0.0
 30
0.0
 11
-685.51879800000017
 21
0.0
 31
0.0
  0
TEXT
  8
SIZE
  6
CONTINUOUS
 62
    30
 10
-687.51879800000017
 20
-168.54483200000001
 30
0.0
 40
64.0
  1
102
 50
90.0
 41
0.9
  0
LINE
  8
SIZE
  6
CONTINUOUS
 62
    30
 10
-125.0
 20
-26.49248399999999
 30
0.0
 11
-125.0
 21
-650.03661099999999
 31
0.0
  0
LINE
  8
SIZE
  6
CONTINUOUS
 62
    30
 10
-83.948200999999926
 20
-20.0
 30
0.0
 11
-83.948200999999926
 21
-504.60633600000011
 31
0.0
  0
LINE
  8
SIZE
  6
CONTINUOUS
 62
    30
 10
-123.0
 20
-620.03661099999999
 30
0.0
 11
0.0
 21
-620.03661099999999
 31
0.0
  0
CIRCLE
  8
SIZE
  6
CONTINUOUS
 62
    30
 10
-125.0
 20
-620.03661099999999
 30
0.0
 40
6.0
  0
CIRCLE
  8
SIZE
  6
CONTINUOUS
 62
    30
 10
-83.948200999999926
 20
-474.60633600000011
 30
0.0
 40
6.0
  0
TEXT
  8
SIZE
  6
CONTINUOUS
 62
    30
 10
-369.43939
 20
-162.85318000000001
 30
0.0
 40
64.0
  1
197
 41
0.9
  0
LINE
  8
SIZE
  6
CONTINUOUS
 62
    30
 10
-195.0
 20
-194.85318000000001
 30
0.0
 11
-371.70837599999999
 21
-194.85318000000001
 31
0.0
  0
LINE
  8
SIZE
  6
CONTINUOUS
 62
    30
 10
-655.51879800000017
 20
0.0
 30
0.0
 11
-655.51879800000017
 21
-162.72557
 31
0.0
  0
LINE
  8
SIZE
  6
CONTINUOUS
 62
    30
 10
-655.51879800000017
 20
-2.0
 30
0.0
 11
-655.51879800000017
 21
-4.0
 31
0.0
  0
LINE
  8
SIZE
  6
CONTINUOUS
 62
    30
 10
-102.0
 20
-40.0
 30
0.0
 11
-102.0
 21
-365.70951300000002
 31
0.0
  0
LINE
  8
SIZE
  6
CONTINUOUS
 62
    30
 10
0.0
 20
-80.804918000000043
 30
0.0
 11
0.0
 21
-365.70951300000002
 31
0.0
  0
TEXT
  8
SIZE
  6
CONTINUOUS
 62
    30
 10
-282.87485299999997
 20
-303.70951300000002
 30
0.0
 40
64.0
  1
102
 41
0.9
  0
LINE
  8
SIZE
  6
CONTINUOUS
 62
    30
 10
-18.0
 20
-335.70951300000002
 30
0.0
 11
-290.10158799999999
 21
-335.70951300000002
 31
0.0
  0
LINE
  8
SIZE
  6
CONTINUOUS
 62
    30
 10
-102.0
 20
-335.70951300000002
 30
0.0
 11
0.0
 21
-335.70951300000002
 31
0.0
  0
CIRCLE
  8
SIZE
  6
CONTINUOUS
 62
    30
 10
-102.0
 20
-335.70951300000002
 30
0.0
 40
6.0
  0
LINE
  8
SIZE
  6
CONTINUOUS
 62
    30
 10
-104.0
 20
-335.70951300000002
 30
0.0
 11
-106.0
 21
-335.70951300000002
 31
0.0
  0
LINE
  8
SIZE
  6
CONTINUOUS
 62
    30
 10
-195.0
 20
-194.85318000000001
 30
0.0
 11
-98.5
 21
-194.85318000000001
 31
0.0
  0
CIRCLE
  8
SIZE
  6
CONTINUOUS
 62
    30
 10
-197.0
 20
-194.85318000000001
 30
0.0
 40
6.0
  0
LINE
  8
SIZE
  6
CONTINUOUS
 62
    30
 10
0.0
 20
-80.804918000000043
 30
0.0
 11
0.0
 21
-224.85318000000001
 31
0.0
  0
LINE
  8
SIZE
  6
CONTINUOUS
 62
    30
 10
-2.0
 20
-194.85318000000001
 30
0.0
 11
-98.5
 21
-194.85318000000001
 31
0.0
  0
ARC
  8
OUTLINE
  6
CONTINUOUS
 62
     3
 10
-117.0
 20
-6.4924839999999904
 30
0.0
 40
8.0
 50
180.0
 51
266.06104500000259
  0
LINE
  8
OUTLINE
  6
CONTINUOUS
 62
     3
 10
-125.0
 20
0.0
 30
0.0
 11
-125.0
 21
-6.4924839999999904
 31
0.0
  0
LINE
  8
SIZE
  6
CONTINUOUS
 62
    30
 10
-245.23965300000009
 20
102.0
 30
0.0
 11
-685.51879800000017
 21
102.0
 31
0.0
  0
LINE
  8
SIZE
  6
CONTINUOUS
 62
    30
 10
-84.041149000000132
 20
191.0
 30
0.0
 11
-84.041149000000132
 21
605.18525
 31
0.0
  0
LINE
  8
SIZE
  6
CONTINUOUS
 62
    30
 10
-197.0411490000001
 20
167.5
 30
0.0
 11
-197.0411490000001
 21
605.18525
 31
0.0
  0
LINE
  8
SIZE
  6
CONTINUOUS
 62
    30
 10
-84.041149000000132
 20
191.0
 30
0.0
 11
-84.041149000000132
 21
605.18525
 31
0.0
  0
LINE
  8
SIZE
  6
CONTINUOUS
 62
    30
 10
-127.0411490000001
 20
174.5
 30
0.0
 11
-127.0411490000001
 21
496.83901500000002
 31
0.0
  0
LINE
  8
SIZE
  6
CONTINUOUS
 62
    30
 10
-197.0411490000001
 20
167.5
 30
0.0
 11
-197.0411490000001
 21
466.18222500000002
 31
0.0
  0
LINE
  8
SIZE
  6
CONTINUOUS
 62
    30
 10
-348.01661400000012
 20
266.63688000000002
 30
0.0
 11
-172.86342300000001
 21
266.63688000000002
 31
0.0
  0
TEXT
  8
SIZE
  6
CONTINUOUS
 62
    30
 10
-378.43999400000013
 20
279.25069699999989
 30
0.0
 40
64.0
  1
(18)
 41
0.9
  0
LINE
  8
SIZE
  6
CONTINUOUS
 62
    30
 10
-180.78782099999989
 20
154.5
 30
0.0
 11
-569.0507379999998
 21
154.5
 31
0.0
  0
LINE
  8
SIZE
  6
CONTINUOUS
 62
    30
 10
-216.49838800000001
 20
49.5
 30
0.0
 11
-569.0507379999998
 21
49.5
 31
0.0
  0
LINE
  8
SIZE
  6
CONTINUOUS
 62
    30
 10
-216.49838800000001
 20
147.5
 30
0.0
 11
-446.73122100000001
 21
147.5
 31
0.0
  0
LINE
  8
SIZE
  6
CONTINUOUS
 62
    30
 10
-216.49838800000001
 20
49.5
 30
0.0
 11
-446.73122100000001
 21
49.5
 31
0.0
  0
LINE
  8
SIZE
  6
CONTINUOUS
 62
    30
 10
-199.0411490000001
 20
361.18513000000007
 30
0.0
 11
-351.72301499999998
 21
361.18513000000007
 31
0.0
  0
TEXT
  8
NOTE
  6
CONTINUOUS
 62
     4
 10
-351.04344300000002
 20
58.255957999999957
 30
0.0
 40
64.0
  1
EA
 41
0.9
  0
TEXT
  8
SIZE
  6
CONTINUOUS
 62
    30
 10
-571.0507379999998
 20
177.730054
 30
0.0
 40
64.0
  1
φ105
 50
90.0
 41
0.9
  0
TEXT
  8
SIZE
  6
CONTINUOUS
 62
    30
 10
-448.73122100000001
 20
178.728576
 30
0.0
 40
64.0
  1
φ98
 50
90.0
 41
0.9
  0
LINE
  8
SIZE
  6
CONTINUOUS
 62
    30
 10
-416.73122100000001
 20
147.5
 30
0.0
 11
-416.73122100000001
 21
346.87892099999999
 31
0.0
  0
LINE
  8
SIZE
  6
CONTINUOUS
 62
    30
 10
-539.05073799999991
 20
154.5
 30
0.0
 11
-539.05073799999991
 21
396.96825100000001
 31
0.0
  0
LINE
  8
SIZE
  6
CONTINUOUS
 62
    30
 10
-539.05073799999991
 20
154.5
 30
0.0
 11
-539.05073799999991
 21
49.5
 31
0.0
  0
CIRCLE
  8
SIZE
  6
CONTINUOUS
 62
    30
 10
-655.51879800000017
 20
102.0
 30
0.0
 40
6.0
  0
LINE
  8
SIZE
  6
CONTINUOUS
 62
    30
 10
-655.51879800000017
 20
104.0
 30
0.0
 11
-655.51879800000017
 21
106.0
 31
0.0
  0
CIRCLE
  8
SIZE
  6
CONTINUOUS
 62
    30
 10
-539.05073799999991
 20
49.5
 30
0.0
 40
6.0
  0
LINE
  8
SIZE
  6
CONTINUOUS
 62
    30
 10
-539.05073799999991
 20
47.5
 30
0.0
 11
-539.05073799999991
 21
45.5
 31
0.0
  0
CIRCLE
  8
SIZE
  6
CONTINUOUS
 62
    30
 10
-539.05073799999991
 20
154.5
 30
0.0
 40
6.0
  0
LINE
  8
SIZE
  6
CONTINUOUS
 62
    30
 10
-539.05073799999991
 20
156.5
 30
0.0
 11
-539.05073799999991
 21
158.5
 31
0.0
  0
LINE
  8
SIZE
  6
CONTINUOUS
 62
    30
 10
-416.73122100000001
 20
147.5
 30
0.0
 11
-416.73122100000001
 21
49.5
 31
0.0
  0
CIRCLE
  8
SIZE
  6
CONTINUOUS
 62
    30
 10
-416.73122100000001
 20
49.5
 30
0.0
 40
6.0
  0
LINE
  8
SIZE
  6
CONTINUOUS
 62
    30
 10
-416.73122100000001
 20
47.5
 30
0.0
 11
-416.73122100000001
 21
45.5
 31
0.0
  0
CIRCLE
  8
SIZE
  6
CONTINUOUS
 62
    30
 10
-416.73122100000001
 20
147.5
 30
0.0
 40
6.0
  0
LINE
  8
SIZE
  6
CONTINUOUS
 62
    30
 10
-416.73122100000001
 20
149.5
 30
0.0
 11
-416.73122100000001
 21
151.5
 31
0.0
  0
LINE
  8
SIZE
  6
CONTINUOUS
 62
    30
 10
-215.0411490000001
 20
134.19181699999999
 30
0.0
 11
-215.0411490000001
 21
288.71105899999998
 31
0.0
  0
LINE
  8
SIZE
  6
CONTINUOUS
 62
    30
 10
-167.0411490000001
 20
167.5
 30
0.0
 11
-167.0411490000001
 21
383.31467300000008
 31
0.0
  0
LINE
  8
SIZE
  6
CONTINUOUS
 62
    30
 10
-197.0411490000001
 20
167.5
 30
0.0
 11
-197.0411490000001
 21
347.03677499999998
 31
0.0
  0
LINE
  8
BASIS
  6
DASHDOT
 62
     6
 10
-67.59060199999999
 20
102.0
 30
0.0
 11
-225.74126500000011
 21
102.0
 31
0.0
  0
LINE
  8
OUTLINE
  6
CONTINUOUS
 62
     3
 10
-61.5
 20
171.0
 30
0.0
 11
-84.0
 21
171.0
 31
0.0
  0
LINE
  8
OUTLINE
  6
CONTINUOUS
 62
     3
 10
-61.5
 20
171.0
 30
0.0
 11
-84.0
 21
171.0
 31
0.0
  0
LINE
  8
OUTLINE
  6
CONTINUOUS
 62
     3
 10
-51.922293000000082
 20
179.0
 30
0.0
 11
-28.5
 21
179.0
 31
0.0
  0
LINE
  8
OUTLINE
  6
CONTINUOUS
 62
     3
 10
-51.922293000000082
 20
179.0
 30
0.0
 11
-51.922293000000082
 21
150.0
 31
0.0
  0
LINE
  8
OUTLINE
  6
CONTINUOUS
 62
     3
 10
-49.013801000000058
 20
150.0
 30
0.0
 11
-49.013801000000058
 21
126.5
 31
0.0
  0
LINE
  8
OUTLINE
  6
CONTINUOUS
 62
     3
 10
-49.013801000000058
 20
150.0
 30
0.0
 11
-49.013801000000058
 21
126.5
 31
0.0
  0
CIRCLE
  8
SIZE
  6
CONTINUOUS
 62
    30
 10
-167.0411490000001
 20
361.18513000000007
 30
0.0
 40
6.0
  0
LINE
  8
SIZE
  6
CONTINUOUS
 62
    30
 10
-165.0411490000001
 20
361.18513000000007
 30
0.0
 11
-163.0411490000001
 21
361.18513000000007
 31
0.0
  0
CIRCLE
  8
SIZE
  6
CONTINUOUS
 62
    30
 10
-197.0411490000001
 20
266.63688000000002
 30
0.0
 40
6.0
  0
CIRCLE
  8
SIZE
  6
CONTINUOUS
 62
    30
 10
-215.0411490000001
 20
266.63688000000002
 30
0.0
 40
6.0
  0
TEXT
  8
SIZE
  6
CONTINUOUS
 62
    30
 10
-327.87138800000002
 20
380.16122200000001
 30
0.0
 40
64.0
  1
30
 41
0.9
  0
CIRCLE
  8
SIZE
  6
CONTINUOUS
 62
    30
 10
-197.0411490000001
 20
361.18513000000007
 30
0.0
 40
6.0
  0
LINE
  8
SIZE
  6
CONTINUOUS
 62
    30
 10
-167.0411490000001
 20
361.18513000000007
 30
0.0
 11
-197.0411490000001
 21
361.18513000000007
 31
0.0
  0
LINE
  8
SIZE
  6
CONTINUOUS
 62
    30
 10
-199.0411490000001
 20
361.18513000000007
 30
0.0
 11
-201.0411490000001
 21
361.18513000000007
 31
0.0
  0
TEXT
  8
SIZE
  6
CONTINUOUS
 62
    30
 10
-360.19817000000012
 20
607.18525
 30
0.0
 40
64.0
  1
113
 41
0.9
  0
LINE
  8
SIZE
  6
CONTINUOUS
 62
    30
 10
-197.0411490000001
 20
575.18525
 30
0.0
 11
-382.79823600000009
 21
575.18525
 31
0.0
  0
LINE
  8
SIZE
  6
CONTINUOUS
 62
    30
 10
-199.0411490000001
 20
474.02367400000003
 30
0.0
 11
-350.52781399999998
 21
474.02367400000003
 31
0.0
  0
LINE
  8
SIZE
  6
CONTINUOUS
 62
    30
 10
-197.0411490000001
 20
575.18525
 30
0.0
 11
-84.041149000000132
 21
575.18525
 31
0.0
  0
LINE
  8
SIZE
  6
CONTINUOUS
 62
    30
 10
-127.0411490000001
 20
474.02367400000003
 30
0.0
 11
-197.0411490000001
 21
474.02367400000003
 31
0.0
  0
CIRCLE
  8
SIZE
  6
CONTINUOUS
 62
    30
 10
-197.0411490000001
 20
575.18525
 30
0.0
 40
6.0
  0
TEXT
  8
SIZE
  6
CONTINUOUS
 62
    30
 10
-325.79939999999988
 20
487.37865299999999
 30
0.0
 40
64.0
  1
70
 41
0.9
  0
CIRCLE
  8
SIZE
  6
CONTINUOUS
 62
    30
 10
-197.0411490000001
 20
474.02367400000003
 30
0.0
 40
6.0
  0
LINE
  8
SIZE
  6
CONTINUOUS
 62
    30
 10
-199.0411490000001
 20
575.18525
 30
0.0
 11
-201.0411490000001
 21
575.18525
 31
0.0
  0
LINE
  8
SIZE
  6
CONTINUOUS
 62
    30
 10
-199.0411490000001
 20
474.02367400000003
 30
0.0
 11
-201.0411490000001
 21
474.02367400000003
 31
0.0
  0
CIRCLE
  8
SIZE
  6
CONTINUOUS
 62
    30
 10
-84.041149000000132
 20
575.18525
 30
0.0
 40
6.0
  0
CIRCLE
  8
SIZE
  6
CONTINUOUS
 62
    30
 10
-84.041149000000132
 20
575.18525
 30
0.0
 40
6.0
  0
LINE
  8
SIZE
  6
CONTINUOUS
 62
    30
 10
-82.041149000000132
 20
575.18525
 30
0.0
 11
-3.0411490000001322
 21
575.18525
 31
0.0
  0
LINE
  8
SIZE
  6
CONTINUOUS
 62
    30
 10
-82.041149000000132
 20
575.18525
 30
0.0
 11
-80.041149000000132
 21
575.18525
 31
0.0
  0
CIRCLE
  8
SIZE
  6
CONTINUOUS
 62
    30
 10
-127.0411490000001
 20
474.02367400000003
 30
0.0
 40
6.0
  0
LINE
  8
SIZE
  6
CONTINUOUS
 62
    30
 10
-125.0411490000001
 20
474.02367400000003
 30
0.0
 11
-123.0411490000001
 21
474.02367400000003
 31
0.0
  0
LINE
  8
NOTE
  6
CONTINUOUS
 62
     4
 10
104.0
 20
-20.0
 30
0.0
 11
104.0
 21
20.0
 31
0.0
  0
CIRCLE
  8
SIZE
  6
CONTINUOUS
 62
    30
 10
397.34556100000009
 20
0.0
 30
0.0
 40
6.0
  0
CIRCLE
  8
SIZE
  6
CONTINUOUS
 62
    30
 10
397.34556100000009
 20
0.0
 30
0.0
 40
6.0
  0
LINE
  8
OUTLINE
  6
CONTINUOUS
 62
     3
 10
90.0
 20
56.5
 30
0.0
 11
90.0
 21
0.0
 31
0.0
  0
LINE
  8
OUTLINE
  6
CONTINUOUS
 62
     3
 10
90.0
 20
56.5
 30
0.0
 11
90.0
 21
0.0
 31
0.0
  0
CIRCLE
  8
FIX
  6
CONTINUOUS
 62
    11
 10
104.0
 20
0.0
 30
0.0
 40
2.5
  0
LINE
  8
SIZE
  6
CONTINUOUS
 62
    30
 10
125.0
 20
-26.49248399999999
 30
0.0
 11
125.0
 21
-650.03661099999999
 31
0.0
  0
LINE
  8
SIZE
  6
CONTINUOUS
 62
    30
 10
90.051798999999846
 20
-20.0
 30
0.0
 11
90.051798999999846
 21
-504.60633600000011
 31
0.0
  0
CIRCLE
  8
SIZE
  6
CONTINUOUS
 62
    30
 10
125.0
 20
-620.03661099999999
 30
0.0
 40
6.0
  0
LINE
  8
SIZE
  6
CONTINUOUS
 62
    30
 10
88.051798999999846
 20
-474.60633600000011
 30
0.0
 11
3.0517989999998458
 21
-474.60633600000011
 31
0.0
  0
CIRCLE
  8
SIZE
  6
CONTINUOUS
 62
    30
 10
90.051798999999846
 20
-474.60633600000011
 30
0.0
 40
6.0
  0
TEXT
  8
SIZE
  6
CONTINUOUS
 62
    30
 10
365.34556100000009
 20
-136.789176
 30
0.0
 40
64.0
  1
18
 50
90.0
 41
0.9
  0
LINE
  8
SIZE
  6
CONTINUOUS
 62
    30
 10
20.0
 20
-18.0
 30
0.0
 11
427.34556100000009
 21
-18.0
 31
0.0
  0
LINE
  8
SIZE
  6
CONTINUOUS
 62
    30
 10
145.0
 20
0.0
 30
0.0
 11
427.34556100000009
 21
0.0
 31
0.0
  0
LINE
  8
SIZE
  6
CONTINUOUS
 62
    30
 10
144.0
 20
0.0
 30
0.0
 11
427.34556100000009
 21
0.0
 31
0.0
  0
LINE
  8
NOTE
  6
CONTINUOUS
 62
     4
 10
213.8654160000001
 20
-236.6478860977013
 30
0.0
 11
464.59649900000022
 21
-236.6478860977013
 31
0.0
  0
TEXT
  8
NOTE
  6
CONTINUOUS
 62
     4
 10
228.44281499999991
 20
-212.30549709770131
 30
0.0
 40
64.0
  1
4-φ5
 41
0.9
  0
LINE
  8
NOTE
  6
CONTINUOUS
 62
     4
 10
104.0
 20
0.0
 30
0.0
 11
213.8654160000001
 21
-236.6478860977013
 31
0.0
  0
LINE
  8
SIZE
  6
CONTINUOUS
 62
    30
 10
2.0
 20
-335.70951300000002
 30
0.0
 11
4.0
 21
-335.70951300000002
 31
0.0
  0
LINE
  8
NOTE
  6
CONTINUOUS
 62
     4
 10
104.0
 20
0.0
 30
0.0
 11
130.66348759913649
 21
-29.817082976957181
 31
0.0
  0
LINE
  8
NOTE
  6
CONTINUOUS
 62
     4
 10
112.1827168140298
 20
-39.154094487952307
 30
0.0
 11
104.0
 21
0.0
 31
0.0
  0
ARC
  8
OUTLINE
  6
CONTINUOUS
 62
     3
 10
117.0
 20
-6.4924839999999904
 30
0.0
 40
8.0
 50
273.93895499999741
 51
0.0
  0
LINE
  8
OUTLINE
  6
CONTINUOUS
 62
     3
 10
125.0
 20
0.0
 30
0.0
 11
125.0
 21
-6.4924839999999904
 31
0.0
  0
LINE
  8
SIZE
  6
CONTINUOUS
 62
    30
 10
397.34556100000009
 20
-18.0
 30
0.0
 11
397.34556100000009
 21
-141.908905
 31
0.0
  0
CIRCLE
  8
SIZE
  6
CONTINUOUS
 62
    30
 10
397.34556100000009
 20
-18.0
 30
0.0
 40
6.0
  0
LINE
  8
SIZE
  6
CONTINUOUS
 62
    30
 10
397.34556100000009
 20
-18.0
 30
0.0
 11
397.34556100000009
 21
0.0
 31
0.0
  0
LINE
  8
SIZE
  6
CONTINUOUS
 62
    30
 10
397.34556100000009
 20
-20.0
 30
0.0
 11
397.34556100000009
 21
-22.0
 31
0.0
  0
LINE
  8
SIZE
  6
CONTINUOUS
 62
    30
 10
397.34556100000009
 20
-2.0
 30
0.0
 11
397.34556100000009
 21
-4.0
 31
0.0
  0
LINE
  8
SIZE
  6
CONTINUOUS
 62
    30
 10
77.958850999999868
 20
146.5
 30
0.0
 11
77.958850999999868
 21
605.18525
 31
0.0
  0
LINE
  8
OUTLINE
  6
CONTINUOUS
 62
     3
 10
78.0
 20
126.5
 30
0.0
 11
80.326276000000007
 21
56.5
 31
0.0
  0
LINE
  8
OUTLINE
  6
CONTINUOUS
 62
     3
 10
78.0
 20
126.5
 30
0.0
 11
80.326276000000007
 21
56.5
 31
0.0
  0
LINE
  8
OUTLINE
  6
CONTINUOUS
 62
     3
 10
80.326276000000007
 20
56.5
 30
0.0
 11
90.0
 21
56.5
 31
0.0
  0
LINE
  8
OUTLINE
  6
CONTINUOUS
 62
     3
 10
49.986198999999942
 20
150.0
 30
0.0
 11
49.986198999999942
 21
126.5
 31
0.0
  0
LINE
  8
OUTLINE
  6
CONTINUOUS
 62
     3
 10
49.986198999999942
 20
150.0
 30
0.0
 11
49.986198999999942
 21
126.5
 31
0.0
  0
ARC
  8
OUTLINE
  6
CONTINUOUS
 62
     3
 10
29.5
 20
182.0
 30
0.0
 40
5.0
 50
0.0
 51
90.0
  0
LINE
  8
OUTLINE
  6
CONTINUOUS
 62
     3
 10
34.5
 20
150.0
 30
0.0
 11
34.5
 21
182.0
 31
0.0
  0
LINE
  8
SIZE
  6
CONTINUOUS
 62
    30
 10
397.34556100000009
 20
2.0
 30
0.0
 11
397.34556100000009
 21
4.0
 31
0.0
  0
CIRCLE
  8
SIZE
  6
CONTINUOUS
 62
    30
 10
77.958850999999868
 20
575.18525
 30
0.0
 40
6.0
  0
ARC
  8
OUTLINE
  6
CONTINUOUS
 62
     3
 10
-23.5
 20
182.0
 30
0.0
 40
5.0
 50
90.0
 51
180.0
  0
LINE
  8
OUTLINE
  6
CONTINUOUS
 62
     3
 10
-28.5
 20
179.0
 30
0.0
 11
-28.5
 21
182.0
 31
0.0
  0
LINE
  8
SIZE
  6
CONTINUOUS
 62
    30
 10
-28.5
 20
202.0
 30
0.0
 11
-28.5
 21
371.72214899999989
 31
0.0
  0
LINE
  8
SIZE
  6
CONTINUOUS
 62
    30
 10
34.5
 20
202.0
 30
0.0
 11
34.5
 21
371.72214899999989
 31
0.0
  0
LINE
  8
SIZE
  6
CONTINUOUS
 62
    30
 10
-40.5
 20
351.72214899999972
 30
0.0
 11
-52.5
 21
351.72214899999972
 31
0.0
  0
LINE
  8
SIZE
  6
CONTINUOUS
 62
    30
 10
46.5
 20
351.72214899999972
 30
0.0
 11
259.35714300000018
 21
351.72214899999972
 31
0.0
  0
LINE
  8
SIZE
  6
CONTINUOUS
 62
    30
 10
-28.5
 20
351.72214899999972
 30
0.0
 11
34.5
 21
351.72214899999972
 31
0.0
  0
CIRCLE
  8
SIZE
  6
CONTINUOUS
 62
    30
 10
-28.5
 20
351.72214899999972
 30
0.0
 40
6.0
  0
LINE
  8
SIZE
  6
CONTINUOUS
 62
    30
 10
-28.5
 20
351.72214899999972
 30
0.0
 11
-40.5
 21
351.72214899999972
 31
0.0
  0
CIRCLE
  8
SIZE
  6
CONTINUOUS
 62
    30
 10
34.5
 20
351.72214899999972
 30
0.0
 40
6.0
  0
LINE
  8
SIZE
  6
CONTINUOUS
 62
    30
 10
34.5
 20
351.72214899999972
 30
0.0
 11
46.5
 21
351.72214899999972
 31
0.0
  0
TEXT
  8
SIZE
  6
CONTINUOUS
 62
    30
 10
71.979999571428479
 20
376.72214899999989
 30
0.0
 40
64.0
  1
φ63
 41
0.9
 72
     1
 11
158.92857099999989
 21
376.72214899999989
 31
0.0
  0
POINT
  8
DEFPOINTS
  6
CONTINUOUS
 62
    30
 10
-28.5
 20
182.0
 30
0.0
  0
POINT
  8
DEFPOINTS
  6
CONTINUOUS
 62
    30
 10
34.5
 20
182.0
 30
0.0
  0
POINT
  8
DEFPOINTS
  6
CONTINUOUS
 62
    30
 10
34.5
 20
351.72214899999972
 30
0.0
  0
LINE
  8
SIZE
  6
CONTINUOUS
 62
    30
 10
49.5
 20
187.0
 30
0.0
 11
417.34556100000009
 21
187.0
 31
0.0
  0
LINE
  8
SIZE
  6
CONTINUOUS
 62
    30
 10
145.0
 20
0.0
 30
0.0
 11
417.34556100000009
 21
0.0
 31
0.0
  0
LINE
  8
SIZE
  6
CONTINUOUS
 62
    30
 10
397.34556100000009
 20
175.0
 30
0.0
 11
397.34556100000009
 21
12.0
 31
0.0
  0
CIRCLE
  8
SIZE
  6
CONTINUOUS
 62
    30
 10
397.34556100000009
 20
187.0
 30
0.0
 40
6.0
  0
LINE
  8
SIZE
  6
CONTINUOUS
 62
    30
 10
397.34556100000009
 20
187.0
 30
0.0
 11
397.34556100000009
 21
175.0
 31
0.0
  0
CIRCLE
  8
SIZE
  6
CONTINUOUS
 62
    30
 10
397.34556100000009
 20
0.0
 30
0.0
 40
6.0
  0
LINE
  8
SIZE
  6
CONTINUOUS
 62
    30
 10
397.34556100000009
 20
0.0
 30
0.0
 11
397.34556100000009
 21
12.0
 31
0.0
  0
TEXT
  8
SIZE
  6
CONTINUOUS
 62
    30
 10
372.34556100000009
 20
24.928571428571441
 30
0.0
 40
64.0
  1
187
 50
90.0
 41
0.9
 72
     1
 11
372.34556100000009
 21
93.5
 31
0.0
  0
POINT
  8
DEFPOINTS
  6
CONTINUOUS
 62
    30
 10
29.5
 20
187.0
 30
0.0
  0
POINT
  8
DEFPOINTS
  6
CONTINUOUS
 62
    30
 10
125.0
 20
0.0
 30
0.0
  0
POINT
  8
DEFPOINTS
  6
CONTINUOUS
 62
    30
 10
397.34556100000009
 20
0.0
 30
0.0
  0
LINE
  8
DETAIL
  6
CONTINUOUS
 62
     5
 10
125.0
 20
0.0
 30
0.0
 11
-125.0
 21
0.0
 31
0.0
  0
LINE
  8
DETAIL
  6
CONTINUOUS
 62
     5
 10
-61.5
 20
126.5
 30
0.0
 11
78.0
 21
126.5
 31
0.0
  0
LINE
  8
DETAIL
  6
CONTINUOUS
 62
     5
 10
-49.013801000000058
 20
150.0
 30
0.0
 11
49.986198999999942
 21
150.0
 31
0.0
  0
LINE
  8
DETAIL
  6
CONTINUOUS
 62
     5
 10
26.0
 20
85.0
 30
0.0
 11
-26.0
 21
85.0
 31
0.0
  0
LINE
  8
DETAIL
  6
CONTINUOUS
 62
     5
 10
26.0
 20
77.0
 30
0.0
 11
-26.0
 21
77.0
 31
0.0
  0
LINE
  8
DETAIL
  6
CONTINUOUS
 62
     5
 10
22.0
 20
59.5
 30
0.0
 11
-22.0
 21
59.5
 31
0.0
  0
LINE
  8
DETAIL
  6
CONTINUOUS
 62
     5
 10
26.0
 20
53.5
 30
0.0
 11
-26.0
 21
53.5
 31
0.0
  0
LINE
  8
DETAIL
  6
CONTINUOUS
 62
     5
 10
30.0
 20
17.5
 30
0.0
 11
-30.0
 21
17.5
 31
0.0
  0
LINE
  8
DETAIL
  6
CONTINUOUS
 62
     5
 10
11.75
 20
97.5
 30
0.0
 11
-11.75
 21
97.5
 31
0.0
  0
LINE
  8
DETAIL
  6
CONTINUOUS
 62
     5
 10
-51.922293000000082
 20
150.0
 30
0.0
 11
49.986198999999942
 21
150.0
 31
0.0
  0
LINE
  8
DETAIL
  6
CONTINUOUS
 62
     5
 10
-61.5
 20
126.5
 30
0.0
 11
78.0
 21
126.5
 31
0.0
  0
LINE
  8
DETAIL
  6
CONTINUOUS
 62
     5
 10
29.5
 20
187.0
 30
0.0
 11
-23.5
 21
187.0
 31
0.0
  0
ARC
  8
DETAIL
  6
CONTINUOUS
 62
     5
 10
0.0
 20
1942.963
 30
0.0
 40
1960.963
 50
266.56335499999892
 51
273.43664500000108
  0
LINE
  8
DETAIL
  6
CONTINUOUS
 62
     5
 10
125.0
 20
0.0
 30
0.0
 11
-125.0
 21
0.0
 31
0.0
  0
LINE
  8
DETAIL
  6
CONTINUOUS
 62
     5
 10
-84.0
 20
171.0
 30
0.0
 11
-84.0
 21
0.0
 31
0.0
  0
LINE
  8
DETAIL
  6
CONTINUOUS
 62
     5
 10
-61.5
 20
171.0
 30
0.0
 11
-61.5
 21
0.0
 31
0.0
  0
LINE
  8
DETAIL
  6
CONTINUOUS
 62
     5
 10
-30.0
 20
17.5
 30
0.0
 11
-30.0
 21
0.0
 31
0.0
  0
LINE
  8
DETAIL
  6
CONTINUOUS
 62
     5
 10
-53.5
 20
126.5
 30
0.0
 11
-53.5
 21
0.0
 31
0.0
  0
LINE
  8
DETAIL
  6
CONTINUOUS
 62
     5
 10
-61.5
 20
171.0
 30
0.0
 11
-61.5
 21
0.0
 31
0.0
  0
LINE
  8
DETAIL
  6
CONTINUOUS
 62
     5
 10
-84.0
 20
171.0
 30
0.0
 11
-84.0
 21
0.0
 31
0.0
  0
ARC
  8
DETAIL
  6
CONTINUOUS
 62
     5
 10
-117.0
 20
-6.4924839999999904
 30
0.0
 40
8.0
 50
180.0
 51
266.06104500000259
  0
LINE
  8
DETAIL
  6
CONTINUOUS
 62
     5
 10
-125.0
 20
0.0
 30
0.0
 11
-125.0
 21
-6.4924839999999904
 31
0.0
  0
LINE
  8
DETAIL
  6
DASHED
 62
     5
 10
-120.57546000000001
 20
121.438143
 30
0.0
 11
-166.14113800000001
 21
121.438143
 31
0.0
  0
LINE
  8
DETAIL
  6
DASHED
 62
     5
 10
-120.57546000000001
 20
122.438143
 30
0.0
 11
-166.14113800000001
 21
122.438143
 31
0.0
  0
ARC
  8
DETAIL
  6
DASHED
 62
     5
 10
-145.0278510000002
 20
128.0
 30
0.0
 40
70.857187999999994
 50
191.586739999999
 51
269.99999700000228
  0
LINE
  8
DETAIL
  6
CONTINUOUS
 62
     5
 10
-167.0
 20
147.5
 30
0.0
 11
-161.28943299999989
 21
154.5
 31
0.0
  0
LINE
  8
DETAIL
  6
CONTINUOUS
 62
     5
 10
-84.0
 20
49.5
 30
0.0
 11
-197.0
 21
49.5
 31
0.0
  0
LINE
  8
DETAIL
  6
DASHED
 62
     5
 10
-165.964461
 20
121.453874
 30
0.0
 11
-214.2644169999999
 21
112.783979
 31
0.0
  0
LINE
  8
DETAIL
  6
DASHED
 62
     5
 10
-166.14113800000001
 20
122.438143
 30
0.0
 11
-214.44109399999999
 21
113.768248
 31
0.0
  0
LINE
  8
DETAIL
  6
CONTINUOUS
 62
     5
 10
-167.0
 20
147.5
 30
0.0
 11
-167.0
 21
49.5
 31
0.0
  0
LINE
  8
DETAIL
  6
CONTINUOUS
 62
     5
 10
-197.0
 20
147.5
 30
0.0
 11
-197.0
 21
49.5
 31
0.0
  0
LINE
  8
DETAIL
  6
DASHED
 62
     5
 10
-214.44109399999999
 20
113.768248
 30
0.0
 11
-214.23322800000011
 21
112.78957699999999
 31
0.0
  0
LINE
  8
DETAIL
  6
CONTINUOUS
 62
     5
 10
-167.0
 20
147.5
 30
0.0
 11
-197.0
 21
147.5
 31
0.0
  0
LINE
  8
DETAIL
  6
DASHED
 62
     5
 10
-145.02785499999999
 20
138.9897559999998
 30
0.0
 11
-145.02785499999999
 21
114.556422
 31
0.0
  0
LINE
  8
DETAIL
  6
DASHED
 62
     5
 10
-145.02785499999999
 20
122.438143
 30
0.0
 11
-145.02785399999991
 21
57.142812000000049
 31
0.0
  0
LINE
  8
DETAIL
  6
CONTINUOUS
 62
     5
 10
-50.5
 20
126.5
 30
0.0
 11
-49.002687000000151
 21
56.5
 31
0.0
  0
LINE
  8
DETAIL
  6
CONTINUOUS
 62
     5
 10
-50.5
 20
126.5
 30
0.0
 11
-49.002687000000151
 21
56.5
 31
0.0
  0
LINE
  8
DETAIL
  6
CONTINUOUS
 62
     5
 10
-127.0
 20
154.5
 30
0.0
 11
-127.0
 21
49.5
 31
0.0
  0
ARC
  8
DETAIL
  6
CONTINUOUS
 62
     5
 10
-22.0
 20
55.5
 30
0.0
 40
4.0
 50
90.0
 51
180.0
  0
ARC
  8
DETAIL
  6
CONTINUOUS
 62
     5
 10
-11.75
 20
94.5
 30
0.0
 40
3.0
 50
90.0
 51
180.0
  0
LINE
  8
DETAIL
  6
CONTINUOUS
 62
     5
 10
-26.0
 20
85.0
 30
0.0
 11
-26.0
 21
77.0
 31
0.0
  0
LINE
  8
DETAIL
  6
CONTINUOUS
 62
     5
 10
-13.0
 20
53.5
 30
0.0
 11
-13.0
 21
17.5
 31
0.0
  0
LINE
  8
DETAIL
  6
CONTINUOUS
 62
     5
 10
-26.0
 20
55.5
 30
0.0
 11
-26.0
 21
53.5
 31
0.0
  0
LINE
  8
DETAIL
  6
CONTINUOUS
 62
     5
 10
-14.75
 20
94.5
 30
0.0
 11
-14.75
 21
53.5
 31
0.0
  0
LINE
  8
DETAIL
  6
CONTINUOUS
 62
     5
 10
-49.002687000000151
 20
56.5
 30
0.0
 11
-25.87298299999998
 21
56.5
 31
0.0
  0
LINE
  8
DETAIL
  6
CONTINUOUS
 62
     5
 10
-61.5
 20
171.0
 30
0.0
 11
-84.0
 21
171.0
 31
0.0
  0
LINE
  8
DETAIL
  6
CONTINUOUS
 62
     5
 10
-61.5
 20
171.0
 30
0.0
 11
-84.0
 21
171.0
 31
0.0
  0
LINE
  8
DETAIL
  6
DASHED
 62
     5
 10
-120.57546000000001
 20
122.438143
 30
0.0
 11
-120.57546000000001
 21
121.438143
 31
0.0
  0
LINE
  8
DETAIL
  6
DASHED
 62
     5
 10
-139.0278510000002
 20
128.0
 30
0.0
 11
-139.0278510000002
 21
122.438143
 31
0.0
  0
LINE
  8
DETAIL
  6
DASHED
 62
     5
 10
-151.0278510000002
 20
128.0
 30
0.0
 11
-151.0278510000002
 21
122.438143
 31
0.0
  0
CIRCLE
  8
DETAIL
  6
DASHED
 62
     5
 10
-145.0278510000002
 20
128.0
 30
0.0
 40
2.5
  0
ARC
  8
DETAIL
  6
DASHED
 62
     5
 10
-145.0278510000002
 20
128.0
 30
0.0
 40
6.0
 50
0.0
 51
180.0
  0
LINE
  8
DETAIL
  6
DASHED
 62
     5
 10
-130.829688
 20
128.0
 30
0.0
 11
-159.22601399999991
 21
128.0
 31
0.0
  0
LINE
  8
DETAIL
  6
DASHED
 62
     5
 10
-128.45930700000011
 20
128.0
 30
0.0
 11
-161.5964020000001
 21
128.0
 31
0.0
  0
LINE
  8
DETAIL
  6
CONTINUOUS
 62
     5
 10
-84.0
 20
154.5
 30
0.0
 11
-161.28943299999989
 21
154.5
 31
0.0
  0
LINE
  8
DETAIL
  6
CONTINUOUS
 62
     5
 10
-51.922293000000082
 20
179.0
 30
0.0
 11
-28.5
 21
179.0
 31
0.0
  0
LINE
  8
DETAIL
  6
CONTINUOUS
 62
     5
 10
-51.922293000000082
 20
179.0
 30
0.0
 11
-51.922293000000082
 21
150.0
 31
0.0
  0
LINE
  8
DETAIL
  6
CONTINUOUS
 62
     5
 10
-49.013801000000058
 20
150.0
 30
0.0
 11
-49.013801000000058
 21
126.5
 31
0.0
  0
LINE
  8
DETAIL
  6
CONTINUOUS
 62
     5
 10
-49.013801000000058
 20
150.0
 30
0.0
 11
-49.013801000000058
 21
126.5
 31
0.0
  0
LINE
  8
DETAIL
  6
CONTINUOUS
 62
     5
 10
90.0
 20
56.5
 30
0.0
 11
90.0
 21
0.0
 31
0.0
  0
LINE
  8
DETAIL
  6
CONTINUOUS
 62
     5
 10
30.0
 20
17.5
 30
0.0
 11
30.0
 21
0.0
 31
0.0
  0
LINE
  8
DETAIL
  6
CONTINUOUS
 62
     5
 10
90.0
 20
56.5
 30
0.0
 11
90.0
 21
0.0
 31
0.0
  0
ARC
  8
DETAIL
  6
CONTINUOUS
 62
     5
 10
117.0
 20
-6.4924839999999904
 30
0.0
 40
8.0
 50
273.93895499999741
 51
0.0
  0
LINE
  8
DETAIL
  6
CONTINUOUS
 62
     5
 10
125.0
 20
0.0
 30
0.0
 11
125.0
 21
-6.4924839999999904
 31
0.0
  0
LINE
  8
DETAIL
  6
CONTINUOUS
 62
     5
 10
78.0
 20
126.5
 30
0.0
 11
80.326276000000007
 21
56.5
 31
0.0
  0
LINE
  8
DETAIL
  6
CONTINUOUS
 62
     5
 10
78.0
 20
126.5
 30
0.0
 11
80.326276000000007
 21
56.5
 31
0.0
  0
LINE
  8
DETAIL
  6
CONTINUOUS
 62
     5
 10
25.87298299999998
 20
56.5
 30
0.0
 11
90.0
 21
56.5
 31
0.0
  0
ARC
  8
DETAIL
  6
CONTINUOUS
 62
     5
 10
22.0
 20
55.5
 30
0.0
 40
4.0
 50
0.0
 51
90.0
  0
ARC
  8
DETAIL
  6
CONTINUOUS
 62
     5
 10
11.75
 20
94.5
 30
0.0
 40
3.0
 50
0.0
 51
90.0
  0
LINE
  8
DETAIL
  6
CONTINUOUS
 62
     5
 10
26.0
 20
85.0
 30
0.0
 11
26.0
 21
77.0
 31
0.0
  0
LINE
  8
DETAIL
  6
CONTINUOUS
 62
     5
 10
13.0
 20
53.5
 30
0.0
 11
13.0
 21
17.5
 31
0.0
  0
LINE
  8
DETAIL
  6
CONTINUOUS
 62
     5
 10
26.0
 20
55.5
 30
0.0
 11
26.0
 21
53.5
 31
0.0
  0
LINE
  8
DETAIL
  6
CONTINUOUS
 62
     5
 10
14.75
 20
94.5
 30
0.0
 11
14.75
 21
53.5
 31
0.0
  0
LINE
  8
DETAIL
  6
CONTINUOUS
 62
     5
 10
49.986198999999942
 20
150.0
 30
0.0
 11
49.986198999999942
 21
126.5
 31
0.0
  0
LINE
  8
DETAIL
  6
CONTINUOUS
 62
     5
 10
49.986198999999942
 20
150.0
 30
0.0
 11
49.986198999999942
 21
126.5
 31
0.0
  0
ARC
  8
DETAIL
  6
CONTINUOUS
 62
     5
 10
29.5
 20
182.0
 30
0.0
 40
5.0
 50
0.0
 51
90.0
  0
LINE
  8
DETAIL
  6
CONTINUOUS
 62
     5
 10
34.5
 20
150.0
 30
0.0
 11
34.5
 21
182.0
 31
0.0
  0
ARC
  8
DETAIL
  6
CONTINUOUS
 62
     5
 10
-23.5
 20
182.0
 30
0.0
 40
5.0
 50
90.0
 51
180.0
  0
LINE
  8
DETAIL
  6
CONTINUOUS
 62
     5
 10
-28.5
 20
150.0
 30
0.0
 11
-28.5
 21
182.0
 31
0.0
  0
LINE
  8
OUTLINE
  6
CONTINUOUS
 62
     3
 10
34.5
 20
150.0
 30
0.0
 11
49.986198999999942
 21
150.0
 31
0.0
  0
LINE
  8
OUTLINE
  6
CONTINUOUS
 62
     3
 10
-84.0
 20
0.0
 30
0.0
 11
-125.0
 21
0.0
 31
0.0
  0
LINE
  8
DETAIL
  6
CONTINUOUS
 62
     5
 10
-92.499983000000157
 20
37.999993000000018
 30
0.0
 11
-92.499983000000157
 21
0.0
 31
0.0
  0
LINE
  8
DETAIL
  6
CONTINUOUS
 62
     5
 10
-96.499982000000045
 20
37.999993000000018
 30
0.0
 11
-96.499982000000045
 21
0.0
 31
0.0
  0
LINE
  8
DETAIL
  6
CONTINUOUS
 62
     5
 10
-90.499983000000157
 20
39.99999200000002
 30
0.0
 11
-120.4999769999999
 21
39.99999200000002
 31
0.0
  0
LINE
  8
DETAIL
  6
CONTINUOUS
 62
     5
 10
-90.499983000000157
 20
37.999993000000018
 30
0.0
 11
-120.4999769999999
 21
37.999993000000018
 31
0.0
  0
LINE
  8
DETAIL
  6
CONTINUOUS
 62
     5
 10
-100.49998099999991
 20
41.49999200000002
 30
0.0
 11
-84.0
 21
41.49999200000002
 31
0.0
  0
LINE
  8
DETAIL
  6
CONTINUOUS
 62
     5
 10
-100.49998099999991
 20
42.99999200000002
 30
0.0
 11
-84.0
 21
42.99999200000002
 31
0.0
  0
LINE
  8
DETAIL
  6
CONTINUOUS
 62
     5
 10
-84.0
 20
39.99999200000002
 30
0.0
 11
-95.499982000000045
 21
39.99999200000002
 31
0.0
  0
LINE
  8
DETAIL
  6
CONTINUOUS
 62
     5
 10
-96.499982000000045
 20
44.49999200000002
 30
0.0
 11
-96.499982000000045
 21
42.99999200000002
 31
0.0
  0
LINE
  8
DETAIL
  6
CONTINUOUS
 62
     5
 10
-92.499983000000157
 20
44.49999200000002
 30
0.0
 11
-92.499983000000157
 21
42.99999200000002
 31
0.0
  0
LINE
  8
DETAIL
  6
CONTINUOUS
 62
     5
 10
-90.499983000000157
 20
37.999993000000018
 30
0.0
 11
-90.499983000000157
 21
39.99999200000002
 31
0.0
  0
LINE
  8
DETAIL
  6
CONTINUOUS
 62
     5
 10
-95.499982000000045
 20
41.49999200000002
 30
0.0
 11
-95.499982000000045
 21
39.99999200000002
 31
0.0
  0
LINE
  8
DETAIL
  6
CONTINUOUS
 62
     5
 10
-96.499982000000045
 20
41.49999200000002
 30
0.0
 11
-96.499982000000045
 21
39.99999200000002
 31
0.0
  0
LINE
  8
DETAIL
  6
CONTINUOUS
 62
     5
 10
-92.499983000000157
 20
44.49999200000002
 30
0.0
 11
-96.499982000000045
 21
44.49999200000002
 31
0.0
  0
LINE
  8
DETAIL
  6
CONTINUOUS
 62
     5
 10
-100.49998099999991
 20
41.49999200000002
 30
0.0
 11
-100.49998099999991
 21
42.99999200000002
 31
0.0
  0
LINE
  8
DETAIL
  6
CONTINUOUS
 62
     5
 10
-110.4999790000002
 20
36.999993000000018
 30
0.0
 11
-115.4999780000001
 21
37.999993000000018
 31
0.0
  0
LINE
  8
DETAIL
  6
CONTINUOUS
 62
     5
 10
-110.29997899999989
 20
37.999993000000018
 30
0.0
 11
-110.4999790000002
 21
36.999993000000018
 31
0.0
  0
LINE
  8
DETAIL
  6
CONTINUOUS
 62
     5
 10
-120.4999769999999
 20
39.99999200000002
 30
0.0
 11
-120.4999769999999
 21
37.999993000000018
 31
0.0
  0
LINE
  8
SIZE
  6
CONTINUOUS
 62
    30
 10
-145.0
 20
0.0
 30
0.0
 11
-492.76584099999991
 21
0.0
 31
0.0
  0
LINE
  8
SIZE
  6
CONTINUOUS
 62
    30
 10
-140.4999769999998
 20
37.999993000000018
 30
0.0
 11
-492.76584099999991
 21
37.999993000000018
 31
0.0
  0
LINE
  8
SIZE
  6
CONTINUOUS
 62
    30
 10
-472.76584099999991
 20
49.999993000000018
 30
0.0
 11
-472.76584099999991
 21
61.999993000000018
 31
0.0
  0
LINE
  8
SIZE
  6
CONTINUOUS
 62
    30
 10
-472.76584099999991
 20
-12.0
 30
0.0
 11
-472.76584099999991
 21
-167.25714300000001
 31
0.0
  0
LINE
  8
SIZE
  6
CONTINUOUS
 62
    30
 10
-472.76584099999991
 20
37.999993000000018
 30
0.0
 11
-472.76584099999991
 21
0.0
 31
0.0
  0
CIRCLE
  8
SIZE
  6
CONTINUOUS
 62
    30
 10
-472.76584099999991
 20
37.999993000000018
 30
0.0
 40
6.0
  0
LINE
  8
SIZE
  6
CONTINUOUS
 62
    30
 10
-472.76584099999991
 20
37.999993000000018
 30
0.0
 11
-472.76584099999991
 21
49.999993000000018
 31
0.0
  0
CIRCLE
  8
SIZE
  6
CONTINUOUS
 62
    30
 10
-472.76584099999991
 20
0.0
 30
0.0
 40
6.0
  0
LINE
  8
SIZE
  6
CONTINUOUS
 62
    30
 10
-472.76584099999991
 20
0.0
 30
0.0
 11
-472.76584099999991
 21
-12.0
 31
0.0
  0
TEXT
  8
SIZE
  6
CONTINUOUS
 62
    30
 10
-497.76584099999991
 20
-142.2571424285714
 30
0.0
 40
64.0
  1
38
 50
90.0
 41
0.9
 72
     1
 11
-497.76584099999991
 21
-95.628570999999965
 31
0.0
  0
POINT
  8
DEFPOINTS
  6
CONTINUOUS
 62
    30
 10
-125.0
 20
0.0
 30
0.0
  0
POINT
  8
DEFPOINTS
  6
CONTINUOUS
 62
    30
 10
-120.4999769999999
 20
37.999993000000018
 30
0.0
  0
POINT
  8
DEFPOINTS
  6
CONTINUOUS
 62
    30
 10
-472.76584099999991
 20
37.999993000000018
 30
0.0
  0
LINE
  8
SIZE
  6
CONTINUOUS
 62
    30
 10
0.0
 20
-80.804918000000043
 30
0.0
 11
0.0
 21
-355.70951300000002
 31
0.0
  0
LINE
  8
SIZE
  6
CONTINUOUS
 62
    30
 10
104.0
 20
-40.0
 30
0.0
 11
104.0
 21
-355.70951300000002
 31
0.0
  0
LINE
  8
SIZE
  6
CONTINUOUS
 62
    30
 10
12.0
 20
-335.70951300000002
 30
0.0
 11
92.0
 21
-335.70951300000002
 31
0.0
  0
LINE
  8
SIZE
  6
CONTINUOUS
 62
    30
 10
104.0
 20
-335.70951300000002
 30
0.0
 11
320.59892714567559
 21
-335.70951300000002
 31
0.0
  0
CIRCLE
  8
SIZE
  6
CONTINUOUS
 62
    30
 10
0.0
 20
-335.70951300000002
 30
0.0
 40
6.0
  0
LINE
  8
SIZE
  6
CONTINUOUS
 62
    30
 10
0.0
 20
-335.70951300000002
 30
0.0
 11
12.0
 21
-335.70951300000002
 31
0.0
  0
CIRCLE
  8
SIZE
  6
CONTINUOUS
 62
    30
 10
104.0
 20
-335.70951300000002
 30
0.0
 40
6.0
  0
LINE
  8
SIZE
  6
CONTINUOUS
 62
    30
 10
104.0
 20
-335.70951300000002
 30
0.0
 11
92.0
 21
-335.70951300000002
 31
0.0
  0
TEXT
  8
SIZE
  6
CONTINUOUS
 62
    30
 10
155.7132128599614
 20
-310.70951300000002
 30
0.0
 40
64.0
  1
104
 41
0.9
 72
     1
 11
225.6560700028185
 21
-310.70951300000002
 31
0.0
  0
POINT
  8
DEFPOINTS
  6
CONTINUOUS
 62
    30
 10
0.0
 20
-60.804918000000043
 30
0.0
  0
POINT
  8
DEFPOINTS
  6
CONTINUOUS
 62
    30
 10
104.0
 20
-20.0
 30
0.0
  0
POINT
  8
DEFPOINTS
  6
CONTINUOUS
 62
    30
 10
104.0
 20
-335.70951300000002
 30
0.0
  0
LINE
  8
OUTLINE
  6
CONTINUOUS
 62
     3
 10
-167.0
 20
147.5
 30
0.0
 11
-161.28943299999989
 21
154.5
 31
0.0
  0
LINE
  8
OUTLINE
  6
CONTINUOUS
 62
     3
 10
-84.0
 20
49.5
 30
0.0
 11
-197.0
 21
49.5
 31
0.0
  0
LINE
  8
OUTLINE
  6
CONTINUOUS
 62
     3
 10
-167.0
 20
147.5
 30
0.0
 11
-167.0
 21
49.5
 31
0.0
  0
LINE
  8
OUTLINE
  6
CONTINUOUS
 62
     3
 10
-197.0
 20
147.5
 30
0.0
 11
-197.0
 21
49.5
 31
0.0
  0
LINE
  8
OUTLINE
  6
CONTINUOUS
 62
     3
 10
-167.0
 20
147.5
 30
0.0
 11
-197.0
 21
147.5
 31
0.0
  0
LINE
  8
OUTLINE
  6
CONTINUOUS
 62
     3
 10
-127.0
 20
154.5
 30
0.0
 11
-127.0
 21
49.5
 31
0.0
  0
LINE
  8
OUTLINE
  6
CONTINUOUS
 62
     3
 10
-84.0
 20
154.5
 30
0.0
 11
-161.28943299999989
 21
154.5
 31
0.0
  0
ENDSEC
  0
EOF
