  0
SECTION
  2
HEADER
  9
$ACADVER
  1
AC1009
  9
$INSBASE
 10
0.0
 20
0.0
 30
0.0
  9
$EXTMIN
 10
-707.39640899999995
 20
-624.82892400000003
 30
0.0
  9
$EXTMAX
 10
1212.1889080784349
 20
800.98526800000013
 30
50.0
  9
$LIMMIN
 10
-2970.0
 20
-2100.0
  9
$LIMMAX
 10
2970.0
 20
2100.0
  9
$ORTHOMODE
 70
     1
  9
$REGENMODE
 70
     0
  9
$FILLMODE
 70
     1
  9
$QTEXTMODE
 70
     0
  9
$MIRRTEXT
 70
     0
  9
$DRAGMODE
 70
     2
  9
$LTSCALE
 40
20.0
  9
$OSMODE
 70
   167
  9
$ATTMODE
 70
     1
  9
$TEXTSIZE
 40
64.0
  9
$TRACEWID
 40
0.05
  9
$TEXTSTYLE
  7
STANDARD
  9
$CLAYER
  8
SIZE
  9
$CELTYPE
  6
CONTINUOUS
  9
$CECOLOR
 62
    30
  9
$DIMSCALE
 40
1.0
  9
$DIMASZ
 40
12.0
  9
$DIMEXO
 40
20.0
  9
$DIMDLI
 40
200.0
  9
$DIMRND
 40
0.0
  9
$DIMDLE
 40
0.0
  9
$DIMEXE
 40
20.0
  9
$DIMTP
 40
0.0
  9
$DIMTM
 40
0.0
  9
$DIMTXT
 40
64.0
  9
$DIMCEN
 40
0.09
  9
$DIMTSZ
 40
0.0
  9
$DIMTOL
 70
     0
  9
$DIMLIM
 70
     0
  9
$DIMTIH
 70
     0
  9
$DIMTOH
 70
     0
  9
$DIMSE1
 70
     0
  9
$DIMSE2
 70
     0
  9
$DIMTAD
 70
     1
  9
$DIMZIN
 70
     8
  9
$DIMBLK
  1
DOT1
  9
$DIMASO
 70
     1
  9
$DIMSHO
 70
     0
  9
$DIMPOST
  1

  9
$DIMAPOST
  1

  9
$DIMALT
 70
     0
  9
$DIMALTD
 70
     2
  9
$DIMALTF
 40
25.399999999999999
  9
$DIMLFAC
 40
1.0
  9
$DIMTOFL
 70
     1
  9
$DIMTVP
 40
0.0
  9
$DIMTIX
 70
     1
  9
$DIMSOXD
 70
     0
  9
$DIMSAH
 70
     1
  9
$DIMBLK1
  1
ORIGIN
  9
$DIMBLK2
  1
ORIGIN
  9
$DIMSTYLE
  2
STANDARD
  9
$DIMCLRD
 70
     7
  9
$DIMCLRE
 70
     7
  9
$DIMCLRT
 70
     7
  9
$DIMTFAC
 40
1.0
  9
$DIMGAP
 40
25.0
  9
$LUNITS
 70
     2
  9
$LUPREC
 70
     4
  9
$SKETCHINC
 40
0.1
  9
$FILLETRAD
 40
4.0
  9
$AUNITS
 70
     1
  9
$AUPREC
 70
     3
  9
$MENU
  1
ACAD
  9
$ELEVATION
 40
0.0
  9
$PELEVATION
 40
0.0
  9
$THICKNESS
 40
50.0
  9
$LIMCHECK
 70
     0
  9
$BLIPMODE
 70
     0
  9
$CHAMFERA
 40
0.0
  9
$CHAMFERB
 40
0.0
  9
$SKPOLY
 70
     0
  9
$TDCREATE
 40
2453105.4392293049
  9
$TDUPDATE
 40
2454146.8967370139
  9
$TDINDWG
 40
0.1098912847
  9
$TDUSRTIMER
 40
0.1098912847
  9
$USRTIMER
 70
     1
  9
$ANGBASE
 50
0.0
  9
$ANGDIR
 70
     0
  9
$PDMODE
 70
     3
  9
$PDSIZE
 40
-2.0
  9
$PLINEWID
 40
0.0
  9
$COORDS
 70
     1
  9
$SPLFRAME
 70
     0
  9
$SPLINETYPE
 70
     6
  9
$SPLINESEGS
 70
     8
  9
$ATTDIA
 70
     0
  9
$ATTREQ
 70
     1
  9
$HANDLING
 70
 22529
  9
$HANDSEED
  5
28E
  9
$SURFTAB1
 70
     6
  9
$SURFTAB2
 70
     6
  9
$SURFTYPE
 70
     6
  9
$SURFU
 70
     6
  9
$SURFV
 70
     6
  9
$UCSNAME
  2

  9
$UCSORG
 10
0.0
 20
0.0
 30
0.0
  9
$UCSXDIR
 10
1.0
 20
0.0
 30
0.0
  9
$UCSYDIR
 10
0.0
 20
1.0
 30
0.0
  9
$PUCSNAME
  2

  9
$PUCSORG
 10
0.0
 20
0.0
 30
0.0
  9
$PUCSXDIR
 10
1.0
 20
0.0
 30
0.0
  9
$PUCSYDIR
 10
0.0
 20
1.0
 30
0.0
  9
$USERI1
 70
     0
  9
$USERI2
 70
     0
  9
$USERI3
 70
     0
  9
$USERI4
 70
     0
  9
$USERI5
 70
     0
  9
$USERR1
 40
20.0
  9
$USERR2
 40
0.0
  9
$USERR3
 40
0.0
  9
$USERR4
 40
0.0
  9
$USERR5
 40
0.0
  9
$WORLDVIEW
 70
     1
  9
$SHADEDGE
 70
     3
  9
$SHADEDIF
 70
    70
  9
$TILEMODE
 70
     1
  9
$MAXACTVP
 70
    48
  9
$PLIMCHECK
 70
     0
  9
$PEXTMIN
 10
-1.0000000000000000E+020
 20
-1.0000000000000000E+020
 30
-1.0000000000000000E+020
  9
$PEXTMAX
 10
1.0000000000000000E+020
 20
1.0000000000000000E+020
 30
1.0000000000000000E+020
  9
$PLIMMIN
 10
0.0
 20
0.0
  9
$PLIMMAX
 10
12.0
 20
9.0
  9
$UNITMODE
 70
     0
  9
$VISRETAIN
 70
     0
  9
$PLINEGEN
 70
     0
  9
$PSLTSCALE
 70
     0
  0
ENDSEC
  0
SECTION
  2
TABLES
  0
TABLE
  2
VPORT
 70
     3
  0
VPORT
  2
*ACTIVE
 70
     0
 10
0.0
 20
0.0
 11
1.0
 21
1.0
 12
219.26912999044021
 22
88.119517000000073
 13
0.0
 23
0.0
 14
1.0
 24
1.0
 15
0.0
 25
0.0
 16
0.0
 26
0.0
 36
1.0
 17
0.0
 27
0.0
 37
0.0
 40
1436.902555330895
 41
1.710526315789473
 42
50.0
 43
0.0
 44
0.0
 50
0.0
 51
0.0
 71
     0
 72
  1000
 73
     1
 74
     0
 75
     0
 76
     0
 77
     0
 78
     0
  0
ENDTAB
  0
TABLE
  2
LTYPE
 70
     3
  0
LTYPE
  2
CONTINUOUS
 70
     0
  3
実線
 72
    65
 73
     0
 40
0.0
  0
LTYPE
  2
DASHDOT
 70
     0
  3
____ _ ____ _ ____ _ ____ _ ____ _ ____ _ ____
 72
    65
 73
     4
 40
5.5
 49
4.0
 49
-0.6
 49
0.3
 49
-0.6
  0
LTYPE
  2
DASHED
 70
     0
  3
-- -- -- -- -- -- -- -- -- -- -- -- -- -- --
 72
    65
 73
     2
 40
0.75
 49
0.5
 49
-0.25
  0
ENDTAB
  0
TABLE
  2
LAYER
 70
    12
  0
LAYER
  2
0
 70
     0
 62
     7
  6
CONTINUOUS
  0
LAYER
  2
SIZE
 70
     0
 62
    30
  6
CONTINUOUS
  0
LAYER
  2
BASIS
 70
     0
 62
     6
  6
DASHDOT
  0
LAYER
  2
OUTLINE
 70
     0
 62
     3
  6
CONTINUOUS
  0
LAYER
  2
DETAIL
 70
     0
 62
     5
  6
CONTINUOUS
  0
LAYER
  2
ARRANGE
 70
     0
 62
     1
  6
CONTINUOUS
  0
LAYER
  2
DEFPOINTS
 70
     0
 62
     7
  6
CONTINUOUS
  0
LAYER
  2
ETC
 70
     0
 62
    61
  6
CONTINUOUS
  0
LAYER
  2
FIX
 70
     0
 62
    11
  6
CONTINUOUS
  0
LAYER
  2
NOTE
 70
     0
 62
     4
  6
CONTINUOUS
  0
LAYER
  2
SERVICESPACE
 70
     0
 62
     2
  6
DASHDOT
  0
LAYER
  2
SYMBOLLINE
 70
     0
 62
    15
  6
CONTINUOUS
  0
ENDTAB
  0
TABLE
  2
STYLE
 70
     1
  0
STYLE
  2
STANDARD
 70
     0
 40
64.0
 41
0.9
 50
0.0
 71
     0
 42
64.0
  3
SIMPLEX.shx
  4
BIGFONT.shx
  0
ENDTAB
  0
TABLE
  2
VIEW
 70
     1
  0
VIEW
  2
ALL
 70
     0
 40
4282.6198079999986
 10
0.0
 20
41.309903999999989
 41
5940.0
 11
0.0
 21
0.0
 31
1.0
 12
0.0
 22
0.0
 32
0.0
 42
50.0
 43
0.0
 44
0.0
 50
0.0
 71
     0
  0
ENDTAB
  0
TABLE
  2
UCS
 70
     0
  0
ENDTAB
  0
TABLE
  2
APPID
 70
     2
  0
APPID
  2
ACAD
 70
     0
  0
APPID
  2
AUTOCAD_POSTSCRIPT_FIGURE
 70
     0
  0
ENDTAB
  0
TABLE
  2
DIMSTYLE
 70
     1
  0
DIMSTYLE
  2
STANDARD
 70
     0
  3

  4

  5

  6

  7

 40
1.0
 41
0.18
 42
0.0625
 43
0.38
 44
0.18
 45
0.0
 46
0.0
 47
0.0
 48
0.0
140
0.18
141
0.09
142
0.0
143
25.399999999999999
144
1.0
145
0.0
146
1.0
147
0.09
 71
     0
 72
     0
 73
     1
 74
     1
 75
     0
 76
     0
 77
     0
 78
     0
170
     0
171
     2
172
     0
173
     0
174
     0
175
     0
176
     7
177
     7
178
     7
  0
ENDTAB
  0
ENDSEC
  0
SECTION
  2
BLOCKS
  0
BLOCK
  8
0
  2
$MODEL_SPACE
 70
     0
 10
0.0
 20
0.0
 30
0.0
  3
$MODEL_SPACE
  1

  0
ENDBLK
  5
20
  8
0
  0
BLOCK
 67
     1
  8
0
  2
$PAPER_SPACE
 70
     0
 10
0.0
 20
0.0
 30
0.0
  3
$PAPER_SPACE
  1

  0
ENDBLK
  5
1C
 67
     1
  8
0
  0
BLOCK
  8
0
  2
DOT1
 70
     0
 10
0.0
 20
0.0
 30
0.0
  3
DOT1
  1

  0
CIRCLE
  5
37
  8
SIZE
  6
CONTINUOUS
 62
     7
 10
0.0
 20
0.0
 30
0.0
 40
3.0
  0
ENDBLK
  5
38
  8
0
  0
BLOCK
  8
0
  2
_ORIGIN
 70
     0
 10
0.0
 20
0.0
 30
0.0
  3
_ORIGIN
  1

  0
CIRCLE
  5
3B
  8
0
  6
CONTINUOUS
 62
     7
 10
0.0
 20
0.0
 30
0.0
 40
0.5
  0
LINE
  5
3C
  8
0
  6
CONTINUOUS
 62
     7
 10
0.0
 20
0.0
 30
0.0
 11
-1.0
 21
0.0
 31
0.0
  0
ENDBLK
  5
3D
  8
0
  0
ENDSEC
  0
SECTION
  2
ENTITIES
  0
ARC
  5
40
  8
DETAIL
  6
CONTINUOUS
 62
     5
 10
22.5
 20
178.0
 30
0.0
 40
3.0
 50
0.0
 51
90.0
  0
ARC
  5
41
  8
DETAIL
  6
CONTINUOUS
 62
     5
 10
-32.5
 20
178.0
 30
0.0
 40
3.0
 50
90.0
 51
180.0
  0
LINE
  5
43
  8
DETAIL
  6
CONTINUOUS
 62
     5
 10
210.0
 20
113.545405
 30
0.0
 11
210.0
 21
114.357747
 31
0.0
  0
ARC
  5
44
  8
DETAIL
  6
DASHED
 62
     5
 10
131.722846
 20
122.39055500000001
 30
0.0
 40
0.6
 50
90.0
 51
179.59406799999999
  0
LINE
  5
45
  8
DETAIL
  6
DASHED
 62
     5
 10
131.122861
 20
122.394806
 30
0.0
 11
131.11858000000001
 21
121.790555
 31
0.0
  0
LINE
  5
46
  8
DETAIL
  6
DASHED
 62
     5
 10
131.16164299999991
 20
127.868736
 30
0.0
 11
131.122861
 21
122.394806
 31
0.0
  0
LINE
  5
47
  8
DETAIL
  6
DASHED
 62
     5
 10
210.0
 20
113.545405
 30
0.0
 11
201.171289
 21
114.902732
 31
0.0
  0
LINE
  5
48
  8
DETAIL
  6
DASHED
 62
     5
 10
210.0
 20
114.357747
 30
0.0
 11
201.171289
 21
115.715073
 31
0.0
  0
LINE
  5
49
  8
DETAIL
  6
DASHED
 62
     5
 10
201.171289
 20
115.715073
 30
0.0
 11
166.71552099999991
 21
121.790555
 31
0.0
  0
LINE
  5
4A
  8
DETAIL
  6
DASHED
 62
     5
 10
201.171289
 20
114.902732
 30
0.0
 11
166.64553000000001
 21
120.9905549999999
 31
0.0
  0
ARC
  5
4B
  8
DETAIL
  6
DASHED
 62
     5
 10
136.38469900000001
 20
129.2715969999999
 30
0.0
 40
75.276329000000004
 50
269.82563399999992
 51
347.941351
  0
LINE
  5
4C
  8
DETAIL
  6
DASHED
 62
     5
 10
136.1556139999999
 20
53.995617000000003
 30
0.0
 11
136.1556139999999
 21
138.57933299999999
 31
0.0
  0
LINE
  5
4D
  8
DETAIL
  6
DASHED
 62
     5
 10
166.71552099999991
 20
121.790555
 30
0.0
 11
135.51868999999991
 21
121.790555
 31
0.0
  0
LINE
  5
4E
  8
DETAIL
  6
DASHED
 62
     5
 10
135.51868999999991
 20
121.790555
 30
0.0
 11
132.31861000000001
 21
121.790555
 31
0.0
  0
LINE
  5
4F
  8
DETAIL
  6
DASHED
 62
     5
 10
135.5229709999999
 20
122.394806
 30
0.0
 11
135.51868999999991
 21
121.790555
 31
0.0
  0
LINE
  5
50
  8
DETAIL
  6
DASHED
 62
     5
 10
136.72294099999991
 20
122.386304
 30
0.0
 11
136.71871999999991
 21
121.790555
 31
0.0
  0
LINE
  5
51
  8
DETAIL
  6
DASHED
 62
     5
 10
139.92308199999991
 20
122.394806
 30
0.0
 11
139.91886099999999
 21
121.79905599999999
 31
0.0
  0
LINE
  5
52
  8
DETAIL
  6
DASHED
 62
     5
 10
141.123051
 20
122.386304
 30
0.0
 11
141.118831
 21
121.790555
 31
0.0
  0
LINE
  5
53
  8
DETAIL
  6
DASHED
 62
     5
 10
131.16164299999991
 20
127.868736
 30
0.0
 11
131.43749199999991
 21
128.65508999999989
 31
0.0
  0
ARC
  5
54
  8
DETAIL
  6
DASHDOT
 62
     5
 10
136.1556139999999
 20
127.0
 30
0.0
 40
5.0
 50
18.518713000000002
 51
160.66942399999991
  0
LINE
  5
55
  8
DETAIL
  6
DASHED
 62
     5
 10
139.94843399999999
 20
125.97310299999999
 30
0.0
 11
139.92308199999991
 21
122.394806
 31
0.0
  0
ARC
  5
56
  8
DETAIL
  6
DASHED
 62
     5
 10
140.52306599999989
 20
122.39055500000001
 30
0.0
 40
0.6
 50
90.0
 51
179.59406799999999
  0
ARC
  5
57
  8
DETAIL
  6
DASHED
 62
     5
 10
140.52306599999989
 20
122.39055500000001
 30
0.0
 40
0.6
 50
359.59406799999999
 51
90.0
  0
LINE
  5
58
  8
DETAIL
  6
DASHED
 62
     5
 10
139.94843399999999
 20
125.97310299999999
 30
0.0
 11
141.14840399999991
 21
125.9646009999999
 31
0.0
  0
LINE
  5
59
  8
DETAIL
  6
DASHED
 62
     5
 10
141.16139200000001
 20
127.7978879999999
 30
0.0
 11
141.123051
 21
122.386304
 31
0.0
  0
LINE
  5
5A
  8
DETAIL
  6
DASHED
 62
     5
 10
141.16139200000001
 20
127.7978879999999
 30
0.0
 11
140.896714
 21
128.58807200000001
 31
0.0
  0
CIRCLE
  5
5B
  8
DETAIL
  6
DASHED
 62
     5
 10
136.1556139999999
 20
127.0
 30
0.0
 40
2.1000000000000001
  0
ARC
  5
5C
  8
DETAIL
  6
DASHED
 62
     5
 10
136.12295599999999
 20
122.39055500000001
 30
0.0
 40
0.6
 50
359.59406799999999
 51
90.0
  0
ARC
  5
5D
  8
DETAIL
  6
DASHED
 62
     5
 10
136.12295599999999
 20
122.39055500000001
 30
0.0
 40
0.6
 50
90.0
 51
179.59406799999999
  0
ARC
  5
5E
  8
DETAIL
  6
DASHED
 62
     5
 10
131.722846
 20
122.39055500000001
 30
0.0
 40
0.6
 50
359.59406799999999
 51
90.0
  0
LINE
  5
5F
  8
DETAIL
  6
DASHED
 62
     5
 10
132.32283100000001
 20
122.386304
 30
0.0
 11
132.3185489999999
 21
121.782053
 31
0.0
  0
LINE
  5
60
  8
DETAIL
  6
DASHED
 62
     5
 10
131.14865399999991
 20
126.035449
 30
0.0
 11
132.348624
 21
126.02694699999989
 31
0.0
  0
LINE
  5
61
  8
DETAIL
  6
DASHED
 62
     5
 10
132.348624
 20
126.02694699999989
 30
0.0
 11
132.32283100000001
 21
122.386304
 31
0.0
  0
LINE
  5
62
  8
DETAIL
  6
DASHED
 62
     5
 10
166.64553000000001
 20
120.9905549999999
 30
0.0
 11
116.519009
 21
120.9905549999999
 31
0.0
  0
LINE
  5
63
  8
DETAIL
  6
DASHED
 62
     5
 10
131.11858000000001
 20
121.790555
 30
0.0
 11
116.519009
 21
121.790555
 31
0.0
  0
LINE
  5
64
  8
DETAIL
  6
DASHED
 62
     5
 10
116.519009
 20
121.790555
 30
0.0
 11
116.519009
 21
120.9905549999999
 31
0.0
  0
LINE
  5
65
  8
DETAIL
  6
DASHED
 62
     5
 10
166.71552099999991
 20
121.790555
 30
0.0
 11
150.1556139999999
 21
121.790555
 31
0.0
  0
LINE
  5
66
  8
DETAIL
  6
DASHED
 62
     5
 10
166.64553000000001
 20
120.9905549999999
 30
0.0
 11
150.1556139999999
 21
120.9905549999999
 31
0.0
  0
LINE
  5
67
  8
DETAIL
  6
CONTINUOUS
 62
     5
 10
163.92728099999999
 20
49.5
 30
0.0
 11
163.92728099999999
 21
154.49999999999989
 31
0.0
  0
LINE
  5
68
  8
DETAIL
  6
CONTINUOUS
 62
     5
 10
86.201352999999983
 20
45.0
 30
0.0
 11
87.0
 21
0.0
 31
0.0
  0
LINE
  5
69
  8
DETAIL
  6
CONTINUOUS
 62
     5
 10
84.206842000000009
 20
159.184912
 30
0.0
 11
84.257297999999992
 21
156.29430400000001
 31
0.0
  0
LINE
  5
6A
  8
DETAIL
  6
CONTINUOUS
 62
     5
 10
52.976511000000002
 20
167.5
 30
0.0
 11
82.000305000000026
 21
167.5
 31
0.0
  0
LINE
  5
6B
  8
DETAIL
  6
CONTINUOUS
 62
     5
 10
52.976511000000002
 20
165.5
 30
0.0
 11
65.533462999999998
 21
165.5
 31
0.0
  0
ARC
  5
6C
  8
DETAIL
  6
CONTINUOUS
 62
     5
 10
65.533462999999998
 20
163.49999999999989
 30
0.0
 40
2.0
 50
1.0
 51
90.0
  0
LINE
  5
6D
  8
DETAIL
  6
CONTINUOUS
 62
     5
 10
53.976511000000002
 20
172.5
 30
0.0
 11
76.976511000000002
 21
172.5
 31
0.0
  0
LINE
  5
6E
  8
DETAIL
  6
CONTINUOUS
 62
     5
 10
77.976511000000002
 20
171.5
 30
0.0
 11
77.976511000000002
 21
167.5
 31
0.0
  0
ARC
  5
6F
  8
DETAIL
  6
CONTINUOUS
 62
     5
 10
76.976511000000002
 20
171.5
 30
0.0
 40
1.0
 50
0.0
 51
90.0
  0
LINE
  5
70
  8
DETAIL
  6
CONTINUOUS
 62
     5
 10
52.976511000000002
 20
171.5
 30
0.0
 11
52.976511000000002
 21
165.5
 31
0.0
  0
ARC
  5
71
  8
DETAIL
  6
CONTINUOUS
 62
     5
 10
53.976511000000002
 20
171.5
 30
0.0
 40
1.0
 50
90.0
 51
180.0
  0
LINE
  5
72
  8
DETAIL
  6
CONTINUOUS
 62
     5
 10
67.533158
 20
163.53490500000001
 30
0.0
 11
70.498248000000004
 21
0.0
 31
0.0
  0
LINE
  5
73
  8
DETAIL
  6
CONTINUOUS
 62
     5
 10
84.0
 20
165.53490500000001
 30
0.0
 11
84.210070000000016
 21
159.0
 31
0.0
  0
ARC
  5
74
  8
DETAIL
  6
CONTINUOUS
 62
     5
 10
82.000305000000026
 20
165.5
 30
0.0
 40
2.0
 50
1.0
 51
90.0
  0
ARC
  5
75
  8
DETAIL
  6
CONTINUOUS
 62
     5
 10
85.257145999999977
 20
156.311756
 30
0.0
 40
1.0
 50
181.0
 51
269.5
  0
LINE
  5
77
  8
DETAIL
  6
CONTINUOUS
 62
     5
 10
-72.98513299999999
 20
60.632486
 30
0.0
 11
-72.550123999999997
 21
65.5
 31
0.0
  0
LINE
  5
78
  8
DETAIL
  6
CONTINUOUS
 62
     5
 10
-71.055831999999995
 20
60.5
 30
0.0
 11
-71.055831999999995
 21
65.5
 31
0.0
  0
LINE
  5
79
  8
DETAIL
  6
CONTINUOUS
 62
     5
 10
63.338444999999993
 20
121.0
 30
0.0
 11
64.157723000000004
 21
165.5
 31
0.0
  0
LINE
  5
7A
  8
DETAIL
  6
CONTINUOUS
 62
     5
 10
-76.378268999999989
 20
65.5
 30
0.0
 11
-81.378268999999975
 21
60.5
 31
0.0
  0
LINE
  5
7B
  8
DETAIL
  6
CONTINUOUS
 62
     5
 10
-61.378269000000003
 20
60.5
 30
0.0
 11
-66.378268999999989
 21
65.5
 31
0.0
  0
LINE
  5
7C
  8
DETAIL
  6
CONTINUOUS
 62
     5
 10
-71.055831999999995
 20
65.5
 30
0.0
 11
-72.550123999999997
 21
65.5
 31
0.0
  0
LINE
  5
7D
  8
DETAIL
  6
CONTINUOUS
 62
     5
 10
-76.378268999999989
 20
60.5
 30
0.0
 11
-76.378268999999989
 21
69.0
 31
0.0
  0
LINE
  5
7E
  8
DETAIL
  6
CONTINUOUS
 62
     5
 10
-66.378268999999989
 20
60.5
 30
0.0
 11
-66.378268999999989
 21
69.0
 31
0.0
  0
LINE
  5
7F
  8
DETAIL
  6
CONTINUOUS
 62
     5
 10
-69.378268999999989
 20
72.0
 30
0.0
 11
-73.378268999999989
 21
72.0
 31
0.0
  0
LINE
  5
81
  8
DETAIL
  6
CONTINUOUS
 62
     5
 10
-85.978268999999983
 20
58.534905000000002
 30
0.0
 11
-87.0
 21
0.0
 31
0.0
  0
ARC
  5
82
  8
DETAIL
  6
CONTINUOUS
 62
     5
 10
-83.978573999999995
 20
58.5
 30
0.0
 40
2.0
 50
90.0
 51
179.0
  0
LINE
  5
83
  8
DETAIL
  6
CONTINUOUS
 62
     5
 10
63.338444999999993
 20
121.0
 30
0.0
 11
20.0
 21
121.0
 31
0.0
  0
LINE
  5
84
  8
DETAIL
  6
CONTINUOUS
 62
     5
 10
-83.978573999999995
 20
60.5
 30
0.0
 11
-20.0
 21
60.5
 31
0.0
  0
LINE
  5
85
  8
DETAIL
  6
CONTINUOUS
 62
     5
 10
69.49453299999999
 20
0.0
 30
0.0
 11
66.496535999999992
 21
165.2528519999999
 31
0.0
  0
LINE
  5
86
  8
DETAIL
  6
CONTINUOUS
 62
     5
 10
73.517606999999984
 20
184.0
 30
0.0
 11
63.517606999999991
 21
184.0
 31
0.0
  0
LINE
  5
87
  8
DETAIL
  6
CONTINUOUS
 62
     5
 10
-52.510882999999993
 20
151.0
 30
0.0
 11
-56.987341000000001
 21
183.14746599999989
 31
0.0
  0
LINE
  5
88
  8
DETAIL
  6
CONTINUOUS
 62
     5
 10
-50.345820000000003
 20
151.0
 30
0.0
 11
-55.505428999999999
 21
183.368729
 31
0.0
  0
LINE
  5
89
  8
DETAIL
  6
CONTINUOUS
 62
     5
 10
56.712660999999997
 20
151.0
 30
0.0
 11
-52.510882999999993
 21
151.0
 31
0.0
  0
ARC
  5
8A
  8
DETAIL
  6
CONTINUOUS
 62
     5
 10
-56.245294000000001
 20
183.2507939999999
 30
0.0
 40
0.7492060000000002
 50
9.0568119999999972
 51
187.92732499999991
  0
ARC
  5
8B
  8
DETAIL
  6
CONTINUOUS
 62
     5
 10
-57.621618000000012
 20
183.236794
 30
0.0
 40
0.7632060000000001
 50
90.0
 51
179.0
  0
LINE
  5
8C
  8
DETAIL
  6
CONTINUOUS
 62
     5
 10
-59.471590999999997
 20
120.98254799999989
 30
0.0
 11
-58.384706999999992
 21
183.25011399999991
 31
0.0
  0
ARC
  5
8D
  8
DETAIL
  6
CONTINUOUS
 62
     5
 10
-69.378268999999989
 20
69.0
 30
0.0
 40
3.0
 50
0.0
 51
90.0
  0
ARC
  5
8E
  8
DETAIL
  6
CONTINUOUS
 62
     5
 10
-73.378268999999989
 20
69.0
 30
0.0
 40
3.0
 50
90.0
 51
180.0
  0
LINE
  5
8F
  8
DETAIL
  6
CONTINUOUS
 62
     5
 10
61.312680000000007
 20
172.5
 30
0.0
 11
63.517606999999991
 21
184.0
 31
0.0
  0
LINE
  5
90
  8
DETAIL
  6
CONTINUOUS
 62
     5
 10
73.517606999999984
 20
184.0
 30
0.0
 11
75.767606999999998
 21
172.5
 31
0.0
  0
LINE
  5
91
  8
DETAIL
  6
CONTINUOUS
 62
     5
 10
-56.245294000000001
 20
184.0
 30
0.0
 11
-57.621618000000012
 21
184.0
 31
0.0
  0
LINE
  5
93
  8
DETAIL
  6
CONTINUOUS
 62
     5
 10
25.5
 20
178.0
 30
0.0
 11
25.5
 21
151.0
 31
0.0
  0
LINE
  5
94
  8
DETAIL
  6
CONTINUOUS
 62
     5
 10
-35.5
 20
178.0
 30
0.0
 11
-35.5
 21
151.0
 31
0.0
  0
LINE
  5
95
  8
DETAIL
  6
CONTINUOUS
 62
     5
 10
-32.5
 20
181.0
 30
0.0
 11
22.5
 21
181.0
 31
0.0
  0
LINE
  5
96
  8
SIZE
  6
CONTINUOUS
 62
    30
 10
125.0
 20
-32.238634999999988
 30
0.0
 11
125.0
 21
-624.82892400000003
 31
0.0
  0
LINE
  5
97
  8
SIZE
  6
CONTINUOUS
 62
    30
 10
-125.0
 20
-32.238634999999988
 30
0.0
 11
-125.0
 21
-624.82892400000003
 31
0.0
  0
LINE
  5
98
  8
SIZE
  6
CONTINUOUS
 62
    30
 10
137.0
 20
-604.82892400000003
 30
0.0
 11
149.0
 21
-604.82892400000003
 31
0.0
  0
LINE
  5
99
  8
SIZE
  6
CONTINUOUS
 62
    30
 10
-137.0
 20
-604.82892400000003
 30
0.0
 11
-149.0
 21
-604.82892400000003
 31
0.0
  0
LINE
  5
9A
  8
SIZE
  6
CONTINUOUS
 62
    30
 10
125.0
 20
-604.82892400000003
 30
0.0
 11
-125.0
 21
-604.82892400000003
 31
0.0
  0
CIRCLE
  5
9B
  8
SIZE
  6
CONTINUOUS
 62
    30
 10
125.0
 20
-604.82892400000003
 30
0.0
 40
6.0
  0
LINE
  5
9C
  8
SIZE
  6
CONTINUOUS
 62
    30
 10
125.0
 20
-604.82892400000003
 30
0.0
 11
137.0
 21
-604.82892400000003
 31
0.0
  0
CIRCLE
  5
9D
  8
SIZE
  6
CONTINUOUS
 62
    30
 10
-125.0
 20
-604.82892400000003
 30
0.0
 40
6.0
  0
LINE
  5
9E
  8
SIZE
  6
CONTINUOUS
 62
    30
 10
-125.0
 20
-604.82892400000003
 30
0.0
 11
-137.0
 21
-604.82892400000003
 31
0.0
  0
TEXT
  5
9F
  8
SIZE
  6
CONTINUOUS
 62
    30
 10
-110.5371428571428
 20
-579.82892400000003
 30
0.0
 40
64.0
  1
□250
 41
0.9
 72
     1
 11
0.0
 21
-579.82892400000003
 31
0.0
  0
LINE
  5
A3
  8
SIZE
  6
CONTINUOUS
 62
    30
 10
-145.0
 20
0.0
 30
0.0
 11
-274.42716799999999
 21
0.0
 31
0.0
  0
LINE
  5
A4
  8
SIZE
  6
CONTINUOUS
 62
    30
 10
-104.0
 20
121.0
 30
0.0
 11
-274.42716799999999
 21
121.0
 31
0.0
  0
LINE
  5
A5
  8
SIZE
  6
CONTINUOUS
 62
    30
 10
-254.42716799999999
 20
12.0
 30
0.0
 11
-254.42716799999999
 21
109.0
 31
0.0
  0
LINE
  5
A6
  8
SIZE
  6
CONTINUOUS
 62
    30
 10
-254.42716799999999
 20
-200.39617699999999
 30
0.0
 11
-254.42716799999999
 21
0.0
 31
0.0
  0
TEXT
  5
A7
  8
SIZE
  6
CONTINUOUS
 62
    30
 10
-279.42716799999999
 20
-175.39617642857141
 30
0.0
 40
64.0
  1
121
 50
90.0
 41
0.9
 72
     1
 11
-279.42716799999999
 21
-119.16760499999999
 31
0.0
  0
CIRCLE
  5
A8
  8
SIZE
  6
CONTINUOUS
 62
    30
 10
-254.42716799999999
 20
0.0
 30
0.0
 40
6.0
  0
LINE
  5
A9
  8
SIZE
  6
CONTINUOUS
 62
    30
 10
-254.42716799999999
 20
0.0
 30
0.0
 11
-254.42716799999999
 21
12.0
 31
0.0
  0
CIRCLE
  5
AA
  8
SIZE
  6
CONTINUOUS
 62
    30
 10
-254.42716799999999
 20
121.0
 30
0.0
 40
6.0
  0
LINE
  5
AB
  8
SIZE
  6
CONTINUOUS
 62
    30
 10
-254.42716799999999
 20
121.0
 30
0.0
 11
-254.42716799999999
 21
109.0
 31
0.0
  0
LINE
  5
AF
  8
SIZE
  6
CONTINUOUS
 62
    30
 10
-145.0
 20
0.0
 30
0.0
 11
-506.56972699999989
 21
0.0
 31
0.0
  0
LINE
  5
B0
  8
SIZE
  6
CONTINUOUS
 62
    30
 10
-52.5
 20
181.0
 30
0.0
 11
-506.56972699999989
 21
181.0
 31
0.0
  0
LINE
  5
B1
  8
SIZE
  6
CONTINUOUS
 62
    30
 10
-486.56972699999989
 20
12.0
 30
0.0
 11
-486.56972699999989
 21
169.0
 31
0.0
  0
LINE
  5
B2
  8
SIZE
  6
CONTINUOUS
 62
    30
 10
-486.56972699999989
 20
-213.99511799999999
 30
0.0
 11
-486.56972699999989
 21
0.0
 31
0.0
  0
TEXT
  5
B3
  8
SIZE
  6
CONTINUOUS
 62
    30
 10
-511.56972699999989
 20
-188.99511742857129
 30
0.0
 40
64.0
  1
181
 50
90.0
 41
0.9
 72
     1
 11
-511.56972699999989
 21
-132.76654600000001
 31
0.0
  0
CIRCLE
  5
B4
  8
SIZE
  6
CONTINUOUS
 62
    30
 10
-486.56972699999989
 20
0.0
 30
0.0
 40
6.0
  0
LINE
  5
B5
  8
SIZE
  6
CONTINUOUS
 62
    30
 10
-486.56972699999989
 20
0.0
 30
0.0
 11
-486.56972699999989
 21
12.0
 31
0.0
  0
CIRCLE
  5
B6
  8
SIZE
  6
CONTINUOUS
 62
    30
 10
-486.56972699999989
 20
181.0
 30
0.0
 40
6.0
  0
LINE
  5
B7
  8
SIZE
  6
CONTINUOUS
 62
    30
 10
-486.56972699999989
 20
181.0
 30
0.0
 11
-486.56972699999989
 21
169.0
 31
0.0
  0
LINE
  5
BB
  8
SIZE
  6
CONTINUOUS
 62
    30
 10
-145.0
 20
0.0
 30
0.0
 11
-638.39640899999995
 21
0.0
 31
0.0
  0
LINE
  5
BC
  8
SIZE
  6
CONTINUOUS
 62
    30
 10
-77.621618000000012
 20
184.0
 30
0.0
 11
-638.39640899999995
 21
184.0
 31
0.0
  0
LINE
  5
BD
  8
SIZE
  6
CONTINUOUS
 62
    30
 10
-618.39640899999995
 20
-12.0
 30
0.0
 11
-618.39640899999995
 21
-24.0
 31
0.0
  0
LINE
  5
BE
  8
SIZE
  6
CONTINUOUS
 62
    30
 10
-618.39640899999995
 20
196.0
 30
0.0
 11
-618.39640899999995
 21
208.0
 31
0.0
  0
LINE
  5
BF
  8
SIZE
  6
CONTINUOUS
 62
    30
 10
-618.39640899999995
 20
0.0
 30
0.0
 11
-618.39640899999995
 21
184.0
 31
0.0
  0
CIRCLE
  5
C0
  8
SIZE
  6
CONTINUOUS
 62
    30
 10
-618.39640899999995
 20
0.0
 30
0.0
 40
6.0
  0
LINE
  5
C1
  8
SIZE
  6
CONTINUOUS
 62
    30
 10
-618.39640899999995
 20
0.0
 30
0.0
 11
-618.39640899999995
 21
-12.0
 31
0.0
  0
CIRCLE
  5
C2
  8
SIZE
  6
CONTINUOUS
 62
    30
 10
-618.39640899999995
 20
184.0
 30
0.0
 40
6.0
  0
LINE
  5
C3
  8
SIZE
  6
CONTINUOUS
 62
    30
 10
-618.39640899999995
 20
184.0
 30
0.0
 11
-618.39640899999995
 21
196.0
 31
0.0
  0
TEXT
  5
C4
  8
SIZE
  6
CONTINUOUS
 62
    30
 10
-643.39640899999995
 20
22.057142857142871
 30
0.0
 40
64.0
  1
184
 50
90.0
 41
0.9
 72
     1
 11
-643.39640899999995
 21
92.0
 31
0.0
  0
LINE
  5
C8
  8
SIZE
  6
CONTINUOUS
 62
    30
 10
-145.0
 20
0.0
 30
0.0
 11
-638.39640899999995
 21
0.0
 31
0.0
  0
LINE
  5
C9
  8
SIZE
  6
CONTINUOUS
 62
    30
 10
-114.7
 20
-24.0
 30
0.0
 11
-638.39640899999995
 21
-24.0
 31
0.0
  0
LINE
  5
CA
  8
SIZE
  6
CONTINUOUS
 62
    30
 10
-618.39640899999995
 20
12.0
 30
0.0
 11
-618.39640899999995
 21
24.0
 31
0.0
  0
LINE
  5
CB
  8
SIZE
  6
CONTINUOUS
 62
    30
 10
-618.39640899999995
 20
-36.0
 30
0.0
 11
-618.39640899999995
 21
-48.0
 31
0.0
  0
LINE
  5
CC
  8
SIZE
  6
CONTINUOUS
 62
    30
 10
-618.39640899999995
 20
-205.76654599999989
 30
0.0
 11
-618.39640899999995
 21
-24.0
 31
0.0
  0
TEXT
  5
CD
  8
SIZE
  6
CONTINUOUS
 62
    30
 10
-643.39640899999995
 20
-180.76654600000001
 30
0.0
 40
64.0
  1
24
 50
90.0
 41
0.9
 72
     1
 11
-643.39640899999995
 21
-132.76654600000001
 31
0.0
  0
LINE
  5
CE
  8
SIZE
  6
CONTINUOUS
 62
    30
 10
-618.39640899999995
 20
0.0
 30
0.0
 11
-618.39640899999995
 21
-24.0
 31
0.0
  0
LINE
  5
CF
  8
SIZE
  6
CONTINUOUS
 62
    30
 10
-618.39640899999995
 20
0.0
 30
0.0
 11
-618.39640899999995
 21
-24.0
 31
0.0
  0
CIRCLE
  5
D0
  8
SIZE
  6
CONTINUOUS
 62
    30
 10
-618.39640899999995
 20
0.0
 30
0.0
 40
6.0
  0
LINE
  5
D1
  8
SIZE
  6
CONTINUOUS
 62
    30
 10
-618.39640899999995
 20
0.0
 30
0.0
 11
-618.39640899999995
 21
12.0
 31
0.0
  0
CIRCLE
  5
D2
  8
SIZE
  6
CONTINUOUS
 62
    30
 10
-618.39640899999995
 20
-24.0
 30
0.0
 40
6.0
  0
LINE
  5
D3
  8
SIZE
  6
CONTINUOUS
 62
    30
 10
-618.39640899999995
 20
-24.0
 30
0.0
 11
-618.39640899999995
 21
-36.0
 31
0.0
  0
LINE
  5
D7
  8
SIZE
  6
CONTINUOUS
 62
    30
 10
0.0
 20
236.66316399999999
 30
0.0
 11
0.0
 21
412.49153799999999
 31
0.0
  0
LINE
  5
D8
  8
SIZE
  6
CONTINUOUS
 62
    30
 10
-5.0
 20
218.47386599999999
 30
0.0
 11
-5.0
 21
412.49153799999999
 31
0.0
  0
LINE
  5
D9
  8
SIZE
  6
CONTINUOUS
 62
    30
 10
12.0
 20
392.49153799999988
 30
0.0
 11
24.0
 21
392.49153799999988
 31
0.0
  0
LINE
  5
DA
  8
SIZE
  6
CONTINUOUS
 62
    30
 10
-17.0
 20
392.49153799999988
 30
0.0
 11
-29.0
 21
392.49153799999988
 31
0.0
  0
LINE
  5
DB
  8
SIZE
  6
CONTINUOUS
 62
    30
 10
-198.11537200000001
 20
392.49153799999988
 30
0.0
 11
-5.0
 21
392.49153799999988
 31
0.0
  0
TEXT
  5
DC
  8
SIZE
  6
CONTINUOUS
 62
    30
 10
-173.11537199999989
 20
417.49153799999988
 30
0.0
 40
64.0
  1
5
 41
0.9
 72
     1
 11
-153.91537199999991
 21
417.49153799999988
 31
0.0
  0
LINE
  5
DD
  8
SIZE
  6
CONTINUOUS
 62
    30
 10
0.0
 20
392.49153799999988
 30
0.0
 11
-5.0
 21
392.49153799999988
 31
0.0
  0
LINE
  5
DE
  8
SIZE
  6
CONTINUOUS
 62
    30
 10
0.0
 20
392.49153799999988
 30
0.0
 11
-5.0
 21
392.49153799999988
 31
0.0
  0
CIRCLE
  5
DF
  8
SIZE
  6
CONTINUOUS
 62
    30
 10
0.0
 20
392.49153799999988
 30
0.0
 40
6.0
  0
LINE
  5
E0
  8
SIZE
  6
CONTINUOUS
 62
    30
 10
0.0
 20
392.49153799999988
 30
0.0
 11
12.0
 21
392.49153799999988
 31
0.0
  0
CIRCLE
  5
E1
  8
SIZE
  6
CONTINUOUS
 62
    30
 10
-5.0
 20
392.49153799999988
 30
0.0
 40
6.0
  0
LINE
  5
E2
  8
SIZE
  6
CONTINUOUS
 62
    30
 10
-5.0
 20
392.49153799999988
 30
0.0
 11
-17.0
 21
392.49153799999988
 31
0.0
  0
LINE
  5
E6
  8
DETAIL
  6
CONTINUOUS
 62
     5
 10
197.0
 20
151.0
 30
0.0
 11
197.0
 21
53.0
 31
0.0
  0
LINE
  5
E7
  8
DETAIL
  6
CONTINUOUS
 62
     5
 10
167.0
 20
151.0
 30
0.0
 11
167.0
 21
53.0
 31
0.0
  0
LINE
  5
E8
  8
DETAIL
  6
CONTINUOUS
 62
     5
 10
197.0
 20
151.0
 30
0.0
 11
167.0
 21
151.0
 31
0.0
  0
LINE
  5
E9
  8
DETAIL
  6
CONTINUOUS
 62
     5
 10
197.0
 20
53.0
 30
0.0
 11
167.0
 21
53.0
 31
0.0
  0
LINE
  5
EA
  8
DETAIL
  6
CONTINUOUS
 62
     5
 10
85.248418999999998
 20
155.31179399999991
 30
0.0
 11
163.92728099999999
 21
154.49999999999989
 31
0.0
  0
LINE
  5
EB
  8
DETAIL
  6
CONTINUOUS
 62
     5
 10
163.92728099999999
 20
154.49999999999989
 30
0.0
 11
167.0
 21
151.0
 31
0.0
  0
LINE
  5
EC
  8
DETAIL
  6
CONTINUOUS
 62
     5
 10
163.92728099999999
 20
49.5
 30
0.0
 11
167.0
 21
53.0
 31
0.0
  0
LINE
  5
ED
  8
SIZE
  6
CONTINUOUS
 62
    30
 10
197.0
 20
171.0
 30
0.0
 11
197.0
 21
621.30828200000008
 31
0.0
  0
LINE
  5
EE
  8
SIZE
  6
CONTINUOUS
 62
    30
 10
127.0
 20
174.88100900000001
 30
0.0
 11
127.0
 21
621.30828200000008
 31
0.0
  0
LINE
  5
EF
  8
SIZE
  6
CONTINUOUS
 62
    30
 10
209.0
 20
601.30828200000008
 30
0.0
 11
221.0
 21
601.30828200000008
 31
0.0
  0
LINE
  5
F0
  8
SIZE
  6
CONTINUOUS
 62
    30
 10
115.0
 20
601.30828200000008
 30
0.0
 11
103.0
 21
601.30828200000008
 31
0.0
  0
LINE
  5
F1
  8
SIZE
  6
CONTINUOUS
 62
    30
 10
384.4428299999999
 20
601.30828200000008
 30
0.0
 11
197.0
 21
601.30828200000008
 31
0.0
  0
TEXT
  5
F2
  8
SIZE
  6
CONTINUOUS
 62
    30
 10
266.1856875714285
 20
626.30828200000008
 30
0.0
 40
64.0
  1
70
 41
0.9
 72
     1
 11
312.81425899999988
 21
626.30828200000008
 31
0.0
  0
LINE
  5
F3
  8
SIZE
  6
CONTINUOUS
 62
    30
 10
197.0
 20
601.30828200000008
 30
0.0
 11
127.0
 21
601.30828200000008
 31
0.0
  0
LINE
  5
F4
  8
SIZE
  6
CONTINUOUS
 62
    30
 10
197.0
 20
601.30828200000008
 30
0.0
 11
127.0
 21
601.30828200000008
 31
0.0
  0
CIRCLE
  5
F5
  8
SIZE
  6
CONTINUOUS
 62
    30
 10
197.0
 20
601.30828200000008
 30
0.0
 40
6.0
  0
LINE
  5
F6
  8
SIZE
  6
CONTINUOUS
 62
    30
 10
197.0
 20
601.30828200000008
 30
0.0
 11
209.0
 21
601.30828200000008
 31
0.0
  0
CIRCLE
  5
F7
  8
SIZE
  6
CONTINUOUS
 62
    30
 10
127.0
 20
601.30828200000008
 30
0.0
 40
6.0
  0
LINE
  5
F8
  8
SIZE
  6
CONTINUOUS
 62
    30
 10
127.0
 20
601.30828200000008
 30
0.0
 11
115.0
 21
601.30828200000008
 31
0.0
  0
LINE
  5
FC
  8
SIZE
  6
CONTINUOUS
 62
    30
 10
197.0
 20
171.0
 30
0.0
 11
197.0
 21
503.80055499999997
 31
0.0
  0
LINE
  5
FD
  8
SIZE
  6
CONTINUOUS
 62
    30
 10
167.0
 20
171.0
 30
0.0
 11
167.0
 21
503.80055499999997
 31
0.0
  0
LINE
  5
FE
  8
SIZE
  6
CONTINUOUS
 62
    30
 10
209.0
 20
483.80055499999997
 30
0.0
 11
221.0
 21
483.80055499999997
 31
0.0
  0
LINE
  5
FF
  8
SIZE
  6
CONTINUOUS
 62
    30
 10
155.0
 20
483.80055499999997
 30
0.0
 11
143.0
 21
483.80055499999997
 31
0.0
  0
LINE
  5
100
  8
SIZE
  6
CONTINUOUS
 62
    30
 10
383.40150099999988
 20
483.80055499999997
 30
0.0
 11
197.0
 21
483.80055499999997
 31
0.0
  0
TEXT
  5
101
  8
SIZE
  6
CONTINUOUS
 62
    30
 10
265.14435757142849
 20
508.80055499999997
 30
0.0
 40
64.0
  1
30
 41
0.9
 72
     1
 11
311.77292899999992
 21
508.80055499999997
 31
0.0
  0
LINE
  5
102
  8
SIZE
  6
CONTINUOUS
 62
    30
 10
197.0
 20
483.80055499999997
 30
0.0
 11
167.0
 21
483.80055499999997
 31
0.0
  0
LINE
  5
103
  8
SIZE
  6
CONTINUOUS
 62
    30
 10
197.0
 20
483.80055499999997
 30
0.0
 11
167.0
 21
483.80055499999997
 31
0.0
  0
CIRCLE
  5
104
  8
SIZE
  6
CONTINUOUS
 62
    30
 10
197.0
 20
483.80055499999997
 30
0.0
 40
6.0
  0
LINE
  5
105
  8
SIZE
  6
CONTINUOUS
 62
    30
 10
197.0
 20
483.80055499999997
 30
0.0
 11
209.0
 21
483.80055499999997
 31
0.0
  0
CIRCLE
  5
106
  8
SIZE
  6
CONTINUOUS
 62
    30
 10
167.0
 20
483.80055499999997
 30
0.0
 40
6.0
  0
LINE
  5
107
  8
SIZE
  6
CONTINUOUS
 62
    30
 10
167.0
 20
483.80055499999997
 30
0.0
 11
155.0
 21
483.80055499999997
 31
0.0
  0
LINE
  5
10B
  8
DETAIL
  6
CONTINUOUS
 62
     5
 39
50.0
 10
20.0
 20
114.0593999999999
 30
0.0
 11
-20.0
 21
114.0593999999999
 31
0.0
  0
LINE
  5
10C
  8
DETAIL
  6
CONTINUOUS
 62
     5
 39
50.0
 10
20.0
 20
127.237751
 30
0.0
 11
-20.0
 21
127.237751
 31
0.0
  0
LINE
  5
10D
  8
DETAIL
  6
CONTINUOUS
 62
     5
 39
50.0
 10
20.0
 20
133.9908979999999
 30
0.0
 11
-20.0
 21
133.9908979999999
 31
0.0
  0
LINE
  5
10E
  8
DETAIL
  6
CONTINUOUS
 62
     5
 39
50.0
 10
20.0
 20
129.4451709999999
 30
0.0
 11
-20.0
 21
129.4451709999999
 31
0.0
  0
LINE
  5
10F
  8
DETAIL
  6
CONTINUOUS
 62
     5
 39
50.0
 10
20.0
 20
122.0
 30
0.0
 11
-20.0
 21
122.0
 31
0.0
  0
LINE
  5
110
  8
DETAIL
  6
CONTINUOUS
 62
     5
 39
50.0
 10
-20.0
 20
122.0
 30
0.0
 11
-20.0
 21
114.0593999999999
 31
0.0
  0
LINE
  5
111
  8
DETAIL
  6
CONTINUOUS
 62
     5
 39
50.0
 10
20.0
 20
122.0
 30
0.0
 11
20.0
 21
114.0593999999999
 31
0.0
  0
LINE
  5
112
  8
DETAIL
  6
CONTINUOUS
 62
     5
 39
50.0
 10
-20.0
 20
114.0593999999999
 30
0.0
 11
-20.0
 21
0.0
 31
0.0
  0
LINE
  5
113
  8
DETAIL
  6
CONTINUOUS
 62
     5
 39
50.0
 10
20.0
 20
114.0593999999999
 30
0.0
 11
20.0
 21
0.0
 31
0.0
  0
LINE
  5
114
  8
DETAIL
  6
CONTINUOUS
 62
     5
 39
50.0
 10
-20.0
 20
133.9908979999999
 30
0.0
 11
-20.0
 21
122.0
 31
0.0
  0
LINE
  5
115
  8
DETAIL
  6
CONTINUOUS
 62
     5
 39
50.0
 10
20.0
 20
133.9908979999999
 30
0.0
 11
20.0
 21
122.0
 31
0.0
  0
TEXT
  5
116
  8
NOTE
  6
CONTINUOUS
 62
     4
 10
141.8282879999999
 20
182.530134
 30
0.0
 40
64.0
  1
EA
 41
0.9
  0
LINE
  5
117
  8
NOTE
  6
CONTINUOUS
 62
     4
 10
0.0
 20
102.0
 30
0.0
 11
0.0
 21
142.0
 31
0.0
  0
LINE
  5
118
  8
NOTE
  6
CONTINUOUS
 62
     4
 10
20.0
 20
122.0
 30
0.0
 11
-20.0
 21
122.0
 31
0.0
  0
CIRCLE
  5
119
  8
FIX
  6
CONTINUOUS
 62
    11
 39
50.0
 10
0.0
 20
122.0
 30
0.0
 40
7.5
  0
CIRCLE
  5
11A
  8
FIX
  6
CONTINUOUS
 62
    11
 39
50.0
 10
-65.0
 20
0.0
 30
0.0
 40
2.5
  0
LINE
  5
11B
  8
NOTE
  6
CONTINUOUS
 62
     4
 10
-65.0
 20
-20.0
 30
0.0
 11
-65.0
 21
20.0
 31
0.0
  0
LINE
  5
11C
  8
NOTE
  6
CONTINUOUS
 62
     4
 10
-85.0
 20
0.0
 30
0.0
 11
-45.0
 21
0.0
 31
0.0
  0
LINE
  5
11D
  8
SIZE
  6
CONTINUOUS
 62
    30
 10
-65.0
 20
-40.0
 30
0.0
 11
-65.0
 21
-231.02037799999991
 31
0.0
  0
LINE
  5
11E
  8
SIZE
  6
CONTINUOUS
 62
    30
 10
65.0
 20
-40.0
 30
0.0
 11
65.0
 21
-231.02037799999991
 31
0.0
  0
LINE
  5
11F
  8
SIZE
  6
CONTINUOUS
 62
    30
 10
-77.0
 20
-211.02037799999991
 30
0.0
 11
-89.0
 21
-211.02037799999991
 31
0.0
  0
LINE
  5
120
  8
SIZE
  6
CONTINUOUS
 62
    30
 10
77.0
 20
-211.02037799999991
 30
0.0
 11
89.0
 21
-211.02037799999991
 31
0.0
  0
LINE
  5
121
  8
SIZE
  6
CONTINUOUS
 62
    30
 10
-65.0
 20
-211.02037799999991
 30
0.0
 11
65.0
 21
-211.02037799999991
 31
0.0
  0
CIRCLE
  5
122
  8
SIZE
  6
CONTINUOUS
 62
    30
 10
-65.0
 20
-211.02037799999991
 30
0.0
 40
6.0
  0
LINE
  5
123
  8
SIZE
  6
CONTINUOUS
 62
    30
 10
-65.0
 20
-211.02037799999991
 30
0.0
 11
-77.0
 21
-211.02037799999991
 31
0.0
  0
CIRCLE
  5
124
  8
SIZE
  6
CONTINUOUS
 62
    30
 10
65.0
 20
-211.02037799999991
 30
0.0
 40
6.0
  0
LINE
  5
125
  8
SIZE
  6
CONTINUOUS
 62
    30
 10
65.0
 20
-211.02037799999991
 30
0.0
 11
77.0
 21
-211.02037799999991
 31
0.0
  0
TEXT
  5
126
  8
SIZE
  6
CONTINUOUS
 62
    30
 10
-68.571428571428569
 20
-186.02037799999991
 30
0.0
 40
64.0
  1
130
 41
0.9
 72
     1
 11
0.0
 21
-186.02037799999991
 31
0.0
  0
LINE
  5
12A
  8
SIZE
  6
CONTINUOUS
 62
    30
 10
-98.500000000000014
 20
-40.0
 30
0.0
 11
-98.500000000000014
 21
-493.14781499999998
 31
0.0
  0
LINE
  5
12B
  8
SIZE
  6
CONTINUOUS
 62
    30
 10
98.500000000000014
 20
-40.0
 30
0.0
 11
98.500000000000014
 21
-493.14781499999998
 31
0.0
  0
LINE
  5
12C
  8
SIZE
  6
CONTINUOUS
 62
    30
 10
-86.5
 20
-473.14781499999998
 30
0.0
 11
86.5
 21
-473.14781499999998
 31
0.0
  0
CIRCLE
  5
12D
  8
SIZE
  6
CONTINUOUS
 62
    30
 10
-98.500000000000014
 20
-473.14781499999998
 30
0.0
 40
6.0
  0
LINE
  5
12E
  8
SIZE
  6
CONTINUOUS
 62
    30
 10
-98.500000000000014
 20
-473.14781499999998
 30
0.0
 11
-86.5
 21
-473.14781499999998
 31
0.0
  0
CIRCLE
  5
12F
  8
SIZE
  6
CONTINUOUS
 62
    30
 10
98.500000000000014
 20
-473.14781499999998
 30
0.0
 40
6.0
  0
LINE
  5
130
  8
SIZE
  6
CONTINUOUS
 62
    30
 10
98.500000000000014
 20
-473.14781499999998
 30
0.0
 11
86.5
 21
-473.14781499999998
 31
0.0
  0
TEXT
  5
131
  8
SIZE
  6
CONTINUOUS
 62
    30
 10
-68.571428571428569
 20
-448.14781499999998
 30
0.0
 40
64.0
  1
197
 41
0.9
 72
     1
 11
0.0
 21
-448.14781499999998
 31
0.0
  0
CIRCLE
  5
135
  8
ARRANGE
  6
CONTINUOUS
 62
     1
 39
50.0
 10
0.0
 20
0.0
 30
0.0
 40
40.0
  0
POINT
  5
136
  8
ARRANGE
  6
CONTINUOUS
 62
     1
 10
0.0
 20
0.0
 30
0.0
 39
50.0
  0
LINE
  5
137
  8
SIZE
  6
CONTINUOUS
 62
    30
 10
145.0
 20
0.0
 30
0.0
 11
544.98579199999995
 21
0.0
 31
0.0
  0
LINE
  5
138
  8
SIZE
  6
CONTINUOUS
 62
    30
 10
247.70314799999991
 20
102.0
 30
0.0
 11
544.98579199999995
 21
102.0
 31
0.0
  0
LINE
  5
139
  8
SIZE
  6
CONTINUOUS
 62
    30
 10
524.98579199999995
 20
12.0
 30
0.0
 11
524.98579199999995
 21
90.0
 31
0.0
  0
LINE
  5
13A
  8
SIZE
  6
CONTINUOUS
 62
    30
 10
524.98579199999995
 20
-210.5008149999999
 30
0.0
 11
524.98579199999995
 21
0.0
 31
0.0
  0
TEXT
  5
13B
  8
SIZE
  6
CONTINUOUS
 62
    30
 10
499.985792
 20
-185.50081457142849
 30
0.0
 40
64.0
  1
102
 50
90.0
 41
0.9
 72
     1
 11
499.985792
 21
-116.92938599999999
 31
0.0
  0
CIRCLE
  5
13C
  8
SIZE
  6
CONTINUOUS
 62
    30
 10
524.98579199999995
 20
0.0
 30
0.0
 40
6.0
  0
LINE
  5
13D
  8
SIZE
  6
CONTINUOUS
 62
    30
 10
524.98579199999995
 20
0.0
 30
0.0
 11
524.98579199999995
 21
12.0
 31
0.0
  0
CIRCLE
  5
13E
  8
SIZE
  6
CONTINUOUS
 62
    30
 10
524.98579199999995
 20
102.0
 30
0.0
 40
6.0
  0
LINE
  5
13F
  8
SIZE
  6
CONTINUOUS
 62
    30
 10
524.98579199999995
 20
102.0
 30
0.0
 11
524.98579199999995
 21
90.0
 31
0.0
  0
LINE
  5
143
  8
SIZE
  6
CONTINUOUS
 62
    30
 10
217.0
 20
53.0
 30
0.0
 11
657.73370699999987
 21
53.0
 31
0.0
  0
LINE
  5
144
  8
SIZE
  6
CONTINUOUS
 62
    30
 10
217.0
 20
151.0
 30
0.0
 11
657.73370699999987
 21
151.0
 31
0.0
  0
LINE
  5
145
  8
SIZE
  6
CONTINUOUS
 62
    30
 10
637.73370699999998
 20
65.0
 30
0.0
 11
637.73370699999998
 21
139.0
 31
0.0
  0
LINE
  5
146
  8
SIZE
  6
CONTINUOUS
 62
    30
 10
637.73370699999998
 20
373.23684700000001
 30
0.0
 11
637.73370699999998
 21
151.0
 31
0.0
  0
TEXT
  5
147
  8
SIZE
  6
CONTINUOUS
 62
    30
 10
612.73370699999998
 20
188.60256057142851
 30
0.0
 40
64.0
  1
φ98
 50
90.0
 41
0.9
 72
     1
 11
612.73370699999998
 21
275.551132
 31
0.0
  0
CIRCLE
  5
148
  8
SIZE
  6
CONTINUOUS
 62
    30
 10
637.73370699999998
 20
53.0
 30
0.0
 40
6.0
  0
LINE
  5
149
  8
SIZE
  6
CONTINUOUS
 62
    30
 10
637.73370699999998
 20
53.0
 30
0.0
 11
637.73370699999998
 21
65.0
 31
0.0
  0
CIRCLE
  5
14A
  8
SIZE
  6
CONTINUOUS
 62
    30
 10
637.73370699999998
 20
151.0
 30
0.0
 40
6.0
  0
LINE
  5
14B
  8
SIZE
  6
CONTINUOUS
 62
    30
 10
637.73370699999998
 20
151.0
 30
0.0
 11
637.73370699999998
 21
139.0
 31
0.0
  0
LINE
  5
14F
  8
SIZE
  6
CONTINUOUS
 62
    30
 10
183.92728099999991
 20
154.49999999999989
 30
0.0
 11
771.84938799999986
 21
154.49999999999989
 31
0.0
  0
LINE
  5
150
  8
SIZE
  6
CONTINUOUS
 62
    30
 10
183.92728099999991
 20
49.5
 30
0.0
 11
771.84938799999986
 21
49.5
 31
0.0
  0
LINE
  5
151
  8
SIZE
  6
CONTINUOUS
 62
    30
 10
751.84938799999998
 20
142.5
 30
0.0
 11
751.84938799999998
 21
61.5
 31
0.0
  0
LINE
  5
152
  8
SIZE
  6
CONTINUOUS
 62
    30
 10
751.84938799999998
 20
413.92415699999998
 30
0.0
 11
751.84938799999998
 21
154.49999999999989
 31
0.0
  0
TEXT
  5
153
  8
SIZE
  6
CONTINUOUS
 62
    30
 10
726.84938799999998
 20
185.40415642857141
 30
0.0
 40
64.0
  1
φ105
 50
90.0
 41
0.9
 72
     1
 11
726.84938799999998
 21
294.29558500000002
 31
0.0
  0
CIRCLE
  5
154
  8
SIZE
  6
CONTINUOUS
 62
    30
 10
751.84938799999998
 20
154.49999999999989
 30
0.0
 40
6.0
  0
LINE
  5
155
  8
SIZE
  6
CONTINUOUS
 62
    30
 10
751.84938799999998
 20
154.49999999999989
 30
0.0
 11
751.84938799999998
 21
142.5
 31
0.0
  0
CIRCLE
  5
156
  8
SIZE
  6
CONTINUOUS
 62
    30
 10
751.84938799999998
 20
49.5
 30
0.0
 40
6.0
  0
LINE
  5
157
  8
SIZE
  6
CONTINUOUS
 62
    30
 10
751.84938799999998
 20
49.5
 30
0.0
 11
751.84938799999998
 21
61.5
 31
0.0
  0
LINE
  5
15B
  8
SIZE
  6
CONTINUOUS
 62
    30
 10
-145.0
 20
0.0
 30
0.0
 11
-387.92982799999999
 21
0.0
 31
0.0
  0
LINE
  5
15C
  8
SIZE
  6
CONTINUOUS
 62
    30
 10
-40.0
 20
122.0
 30
0.0
 11
-387.92982799999999
 21
122.0
 31
0.0
  0
LINE
  5
15D
  8
SIZE
  6
CONTINUOUS
 62
    30
 10
-367.92982799999987
 20
12.0
 30
0.0
 11
-367.92982799999987
 21
110.0
 31
0.0
  0
LINE
  5
15E
  8
SIZE
  6
CONTINUOUS
 62
    30
 10
-367.92982799999987
 20
-206.536731
 30
0.0
 11
-367.92982799999987
 21
0.0
 31
0.0
  0
TEXT
  5
15F
  8
SIZE
  6
CONTINUOUS
 62
    30
 10
-392.92982799999987
 20
-181.53673057142851
 30
0.0
 40
64.0
  1
122
 50
90.0
 41
0.9
 72
     1
 11
-392.92982799999987
 21
-112.96530199999999
 31
0.0
  0
CIRCLE
  5
160
  8
SIZE
  6
CONTINUOUS
 62
    30
 10
-367.92982799999987
 20
0.0
 30
0.0
 40
6.0
  0
LINE
  5
161
  8
SIZE
  6
CONTINUOUS
 62
    30
 10
-367.92982799999987
 20
0.0
 30
0.0
 11
-367.92982799999987
 21
12.0
 31
0.0
  0
CIRCLE
  5
162
  8
SIZE
  6
CONTINUOUS
 62
    30
 10
-367.92982799999987
 20
122.0
 30
0.0
 40
6.0
  0
LINE
  5
163
  8
SIZE
  6
CONTINUOUS
 62
    30
 10
-367.92982799999987
 20
122.0
 30
0.0
 11
-367.92982799999987
 21
110.0
 31
0.0
  0
LINE
  5
167
  8
NOTE
  6
CONTINUOUS
 62
     4
 10
-147.3678449999999
 20
251.14051799999999
 30
0.0
 11
-393.10789799999992
 21
251.14051799999999
 31
0.0
  0
TEXT
  5
168
  8
NOTE
  6
CONTINUOUS
 62
     4
 10
-384.90036700000002
 20
276.36933799999991
 30
0.0
 40
64.0
  1
2-AH
 41
0.9
  0
LINE
  5
169
  8
NOTE
  6
CONTINUOUS
 62
     4
 39
50.0
 10
0.0
 20
122.0
 30
0.0
 11
-147.3678449999999
 21
251.14051799999999
 31
0.0
  0
LINE
  5
16A
  8
NOTE
  6
CONTINUOUS
 62
     4
 10
-35.831091000000001
 20
139.78012699999991
 30
0.0
 11
0.0
 21
122.0
 31
0.0
  0
LINE
  5
16B
  8
NOTE
  6
CONTINUOUS
 62
     4
 10
0.0
 20
122.0
 30
0.0
 11
-22.140571999999999
 21
155.31358700000001
 31
0.0
  0
LINE
  5
16C
  8
SIZE
  6
CONTINUOUS
 62
    30
 10
84.0
 20
185.53490500000001
 30
0.0
 11
84.0
 21
731.92926699999998
 31
0.0
  0
LINE
  5
16D
  8
SIZE
  6
CONTINUOUS
 62
    30
 10
197.0
 20
171.0
 30
0.0
 11
197.0
 21
731.92926699999998
 31
0.0
  0
LINE
  5
16E
  8
SIZE
  6
CONTINUOUS
 62
    30
 10
96.0
 20
711.92926699999998
 30
0.0
 11
185.0
 21
711.92926699999998
 31
0.0
  0
LINE
  5
16F
  8
SIZE
  6
CONTINUOUS
 62
    30
 10
405.57024200000001
 20
711.92926699999998
 30
0.0
 11
197.0
 21
711.92926699999998
 31
0.0
  0
TEXT
  5
170
  8
SIZE
  6
CONTINUOUS
 62
    30
 10
254.39881371428561
 20
736.92926699999998
 30
0.0
 40
64.0
  1
113
 41
0.9
 72
     1
 11
317.4845279999999
 21
736.92926699999998
 31
0.0
  0
CIRCLE
  5
171
  8
SIZE
  6
CONTINUOUS
 62
    30
 10
84.0
 20
711.92926699999998
 30
0.0
 40
6.0
  0
LINE
  5
172
  8
SIZE
  6
CONTINUOUS
 62
    30
 10
84.0
 20
711.92926699999998
 30
0.0
 11
96.0
 21
711.92926699999998
 31
0.0
  0
CIRCLE
  5
173
  8
SIZE
  6
CONTINUOUS
 62
    30
 10
197.0
 20
711.92926699999998
 30
0.0
 40
6.0
  0
LINE
  5
174
  8
SIZE
  6
CONTINUOUS
 62
    30
 10
197.0
 20
711.92926699999998
 30
0.0
 11
185.0
 21
711.92926699999998
 31
0.0
  0
LINE
  5
178
  8
SIZE
  6
CONTINUOUS
 62
    30
 10
197.0
 20
171.0
 30
0.0
 11
197.0
 21
381.02491700000002
 31
0.0
  0
LINE
  5
179
  8
SIZE
  6
CONTINUOUS
 62
    30
 10
210.0
 20
134.3577469999999
 30
0.0
 11
210.0
 21
381.02491700000002
 31
0.0
  0
LINE
  5
17A
  8
SIZE
  6
CONTINUOUS
 62
    30
 10
185.0
 20
361.02491700000002
 30
0.0
 11
173.0
 21
361.02491700000002
 31
0.0
  0
LINE
  5
17B
  8
SIZE
  6
CONTINUOUS
 62
    30
 10
222.0
 20
361.02491700000002
 30
0.0
 11
234.0
 21
361.02491700000002
 31
0.0
  0
LINE
  5
17C
  8
SIZE
  6
CONTINUOUS
 62
    30
 10
381.853723
 20
361.02491700000002
 30
0.0
 11
210.0
 21
361.02491700000002
 31
0.0
  0
TEXT
  5
17D
  8
SIZE
  6
CONTINUOUS
 62
    30
 10
274.56800885714279
 20
386.02491700000002
 30
0.0
 40
64.0
  1
13
 41
0.9
 72
     1
 11
315.71086600000001
 21
386.02491700000002
 31
0.0
  0
LINE
  5
17E
  8
SIZE
  6
CONTINUOUS
 62
    30
 10
197.0
 20
361.02491700000002
 30
0.0
 11
210.0
 21
361.02491700000002
 31
0.0
  0
LINE
  5
17F
  8
SIZE
  6
CONTINUOUS
 62
    30
 10
197.0
 20
361.02491700000002
 30
0.0
 11
210.0
 21
361.02491700000002
 31
0.0
  0
CIRCLE
  5
180
  8
SIZE
  6
CONTINUOUS
 62
    30
 10
197.0
 20
361.02491700000002
 30
0.0
 40
6.0
  0
LINE
  5
181
  8
SIZE
  6
CONTINUOUS
 62
    30
 10
197.0
 20
361.02491700000002
 30
0.0
 11
185.0
 21
361.02491700000002
 31
0.0
  0
CIRCLE
  5
182
  8
SIZE
  6
CONTINUOUS
 62
    30
 10
210.0
 20
361.02491700000002
 30
0.0
 40
6.0
  0
LINE
  5
183
  8
SIZE
  6
CONTINUOUS
 62
    30
 10
210.0
 20
361.02491700000002
 30
0.0
 11
222.0
 21
361.02491700000002
 31
0.0
  0
CIRCLE
  5
187
  8
FIX
  6
CONTINUOUS
 62
    11
 39
50.0
 10
65.0
 20
0.0
 30
0.0
 40
2.5
  0
LINE
  5
188
  8
NOTE
  6
CONTINUOUS
 62
     4
 10
65.0
 20
-20.0
 30
0.0
 11
65.0
 21
20.0
 31
0.0
  0
LINE
  5
189
  8
NOTE
  6
CONTINUOUS
 62
     4
 10
85.0
 20
0.0
 30
0.0
 11
45.0
 21
0.0
 31
0.0
  0
LINE
  5
18A
  8
DETAIL
  6
CONTINUOUS
 62
     5
 10
127.0
 20
49.118990999999987
 30
0.0
 11
163.92728099999999
 21
49.5
 31
0.0
  0
LINE
  5
18B
  8
DETAIL
  6
CONTINUOUS
 62
     5
 10
27.080981999999999
 20
121.0
 30
0.0
 11
20.0
 21
121.0
 31
0.0
  0
LINE
  5
18C
  8
DETAIL
  6
CONTINUOUS
 62
     5
 10
-58.384706999999992
 20
183.25011399999991
 30
0.0
 11
-84.0
 21
121.0
 31
0.0
  0
LINE
  5
18D
  8
DETAIL
  6
CONTINUOUS
 62
     5
 10
-84.0
 20
121.0
 30
0.0
 11
-85.062764999999999
 21
60.180633999999991
 31
0.0
  0
LINE
  5
18E
  8
DETAIL
  6
CONTINUOUS
 62
     5
 10
-20.0
 20
121.0
 30
0.0
 11
-84.0
 21
121.0
 31
0.0
  0
LINE
  5
18F
  8
SIZE
  6
CONTINUOUS
 62
    30
 10
84.0
 20
185.53490500000001
 30
0.0
 11
84.0
 21
731.98526800000002
 31
0.0
  0
LINE
  5
190
  8
SIZE
  6
CONTINUOUS
 62
    30
 10
-84.0
 20
141.0
 30
0.0
 11
-84.0
 21
731.98526800000002
 31
0.0
  0
LINE
  5
191
  8
SIZE
  6
CONTINUOUS
 62
    30
 10
96.0
 20
711.98526800000002
 30
0.0
 11
108.0
 21
711.98526800000002
 31
0.0
  0
LINE
  5
192
  8
SIZE
  6
CONTINUOUS
 62
    30
 10
-96.0
 20
711.98526800000002
 30
0.0
 11
-108.0
 21
711.98526800000002
 31
0.0
  0
LINE
  5
193
  8
SIZE
  6
CONTINUOUS
 62
    30
 10
84.0
 20
711.98526800000002
 30
0.0
 11
-84.0
 21
711.98526800000002
 31
0.0
  0
CIRCLE
  5
194
  8
SIZE
  6
CONTINUOUS
 62
    30
 10
84.0
 20
711.98526800000002
 30
0.0
 40
6.0
  0
LINE
  5
195
  8
SIZE
  6
CONTINUOUS
 62
    30
 10
84.0
 20
711.98526800000002
 30
0.0
 11
96.0
 21
711.98526800000002
 31
0.0
  0
CIRCLE
  5
196
  8
SIZE
  6
CONTINUOUS
 62
    30
 10
-84.0
 20
711.98526800000002
 30
0.0
 40
6.0
  0
LINE
  5
197
  8
SIZE
  6
CONTINUOUS
 62
    30
 10
-84.0
 20
711.98526800000002
 30
0.0
 11
-96.0
 21
711.98526800000002
 31
0.0
  0
TEXT
  5
198
  8
SIZE
  6
CONTINUOUS
 62
    30
 10
-68.571428571428555
 20
736.98526800000002
 30
0.0
 40
64.0
  1
168
 41
0.9
 72
     1
 11
0.0
 21
736.98526800000002
 31
0.0
  0
LINE
  5
19C
  8
DETAIL
  6
CONTINUOUS
 62
     5
 10
127.0
 20
154.88100900000001
 30
0.0
 11
127.0
 21
49.118990999999987
 31
0.0
  0
LINE
  5
19D
  8
DETAIL
  6
CONTINUOUS
 62
     5
 10
86.959850000000003
 20
45.062434000000003
 30
0.0
 11
86.959850000000003
 21
155.29413600000001
 31
0.0
  0
LINE
  5
19E
  8
DETAIL
  6
CONTINUOUS
 62
     5
 10
59.172155000000011
 20
165.5
 30
0.0
 11
51.62404999999999
 21
121.0
 31
0.0
  0
LINE
  5
19F
  8
DETAIL
  6
CONTINUOUS
 62
     5
 10
42.683906999999998
 20
151.0
 30
0.0
 11
42.683906999999998
 21
121.0
 31
0.0
  0
LINE
  5
1A0
  8
DETAIL
  6
CONTINUOUS
 62
     5
 10
25.903309
 20
60.5
 30
0.0
 11
26.592638000000001
 21
120.011582
 31
0.0
  0
LINE
  5
1A1
  8
DETAIL
  6
CONTINUOUS
 62
     5
 10
29.623559
 20
120.011582
 30
0.0
 11
28.945679999999989
 21
61.488418000000003
 31
0.0
  0
LINE
  5
1A2
  8
DETAIL
  6
CONTINUOUS
 62
     5
 10
20.0
 20
60.5
 30
0.0
 11
27.945747000000001
 21
60.5
 31
0.0
  0
ARC
  5
1A3
  8
DETAIL
  6
CONTINUOUS
 62
     5
 10
27.945747000000001
 20
61.5
 30
0.0
 40
1.0
 50
270.0
 51
359.336367
  0
LINE
  5
1A4
  8
DETAIL
  6
CONTINUOUS
 62
     5
 10
127.0
 20
49.118990999999987
 30
0.0
 11
86.201352999999983
 21
45.0
 31
0.0
  0
LINE
  5
1A5
  8
SIZE
  6
CONTINUOUS
 62
    30
 10
106.2013529999999
 20
45.0
 30
0.0
 11
414.98313100000001
 21
45.0
 31
0.0
  0
LINE
  5
1A6
  8
SIZE
  6
CONTINUOUS
 62
    30
 10
145.0
 20
0.0
 30
0.0
 11
414.98313100000001
 21
0.0
 31
0.0
  0
LINE
  5
1A7
  8
SIZE
  6
CONTINUOUS
 62
    30
 10
394.98313100000001
 20
57.0
 30
0.0
 11
394.98313100000001
 21
69.0
 31
0.0
  0
LINE
  5
1A8
  8
SIZE
  6
CONTINUOUS
 62
    30
 10
394.98313100000001
 20
-12.0
 30
0.0
 11
394.98313100000001
 21
-24.0
 31
0.0
  0
LINE
  5
1A9
  8
SIZE
  6
CONTINUOUS
 62
    30
 10
394.98313100000001
 20
-172.0919879999999
 30
0.0
 11
394.98313100000001
 21
0.0
 31
0.0
  0
TEXT
  5
1AA
  8
SIZE
  6
CONTINUOUS
 62
    30
 10
369.98313100000001
 20
-147.0919884285714
 30
0.0
 40
64.0
  1
45
 50
90.0
 41
0.9
 72
     1
 11
369.98313100000001
 21
-100.46341700000001
 31
0.0
  0
LINE
  5
1AB
  8
SIZE
  6
CONTINUOUS
 62
    30
 10
394.98313100000001
 20
45.0
 30
0.0
 11
394.98313100000001
 21
0.0
 31
0.0
  0
LINE
  5
1AC
  8
SIZE
  6
CONTINUOUS
 62
    30
 10
394.98313100000001
 20
45.0
 30
0.0
 11
394.98313100000001
 21
0.0
 31
0.0
  0
CIRCLE
  5
1AD
  8
SIZE
  6
CONTINUOUS
 62
    30
 10
394.98313100000001
 20
45.0
 30
0.0
 40
6.0
  0
LINE
  5
1AE
  8
SIZE
  6
CONTINUOUS
 62
    30
 10
394.98313100000001
 20
45.0
 30
0.0
 11
394.98313100000001
 21
57.0
 31
0.0
  0
CIRCLE
  5
1AF
  8
SIZE
  6
CONTINUOUS
 62
    30
 10
394.98313100000001
 20
0.0
 30
0.0
 40
6.0
  0
LINE
  5
1B0
  8
SIZE
  6
CONTINUOUS
 62
    30
 10
394.98313100000001
 20
0.0
 30
0.0
 11
394.98313100000001
 21
-12.0
 31
0.0
  0
CIRCLE
  5
1B4
  8
FIX
  6
CONTINUOUS
 62
    11
 39
50.0
 10
-98.500000000000014
 20
0.0
 30
0.0
 40
2.5
  0
LINE
  5
1B5
  8
NOTE
  6
CONTINUOUS
 62
     4
 10
-98.500000000000014
 20
-20.0
 30
0.0
 11
-98.500000000000014
 21
20.0
 31
0.0
  0
LINE
  5
1B6
  8
NOTE
  6
CONTINUOUS
 62
     4
 10
-118.5
 20
0.0
 30
0.0
 11
-78.5
 21
0.0
 31
0.0
  0
CIRCLE
  5
1B7
  8
FIX
  6
CONTINUOUS
 62
    11
 39
50.0
 10
98.500000000000014
 20
0.0
 30
0.0
 40
2.5
  0
LINE
  5
1B8
  8
NOTE
  6
CONTINUOUS
 62
     4
 10
98.500000000000014
 20
-20.0
 30
0.0
 11
98.500000000000014
 21
20.0
 31
0.0
  0
LINE
  5
1B9
  8
NOTE
  6
CONTINUOUS
 62
     4
 10
78.5
 20
0.0
 30
0.0
 11
118.5
 21
0.0
 31
0.0
  0
LINE
  5
1BA
  8
NOTE
  6
CONTINUOUS
 62
     4
 10
-105.97749399999999
 20
-39.294874
 30
0.0
 11
-98.500000000000014
 21
0.0
 31
0.0
  0
LINE
  5
1BB
  8
NOTE
  6
CONTINUOUS
 62
     4
 10
-98.500000000000014
 20
0.0
 30
0.0
 11
-124.623137
 21
-30.291612000000001
 31
0.0
  0
LINE
  5
1BC
  8
NOTE
  6
CONTINUOUS
 62
     4
 39
50.0
 10
-98.500000000000014
 20
0.0
 30
0.0
 11
-273.09295800000001
 21
-365.527039
 31
0.0
  0
TEXT
  5
1BD
  8
NOTE
  6
CONTINUOUS
 62
     4
 10
-545.30434699999989
 20
-336.10774900000001
 30
0.0
 40
64.0
  1
8-φ5
 41
0.9
  0
LINE
  5
1BE
  8
NOTE
  6
CONTINUOUS
 62
     4
 10
-276.70235700000001
 20
-367.80302
 30
0.0
 11
-564.16568199999995
 21
-367.80302
 31
0.0
  0
LINE
  5
1BF
  8
SIZE
  6
CONTINUOUS
 62
    30
 10
87.0
 20
-20.0
 30
0.0
 11
87.0
 21
-365.108092
 31
0.0
  0
LINE
  5
1C0
  8
SIZE
  6
CONTINUOUS
 62
    30
 10
-87.0
 20
-20.0
 30
0.0
 11
-87.0
 21
-365.108092
 31
0.0
  0
LINE
  5
1C1
  8
SIZE
  6
CONTINUOUS
 62
    30
 10
99.0
 20
-345.10809199999989
 30
0.0
 11
111.0
 21
-345.10809199999989
 31
0.0
  0
LINE
  5
1C2
  8
SIZE
  6
CONTINUOUS
 62
    30
 10
-99.0
 20
-345.10809199999989
 30
0.0
 11
-111.0
 21
-345.10809199999989
 31
0.0
  0
LINE
  5
1C3
  8
SIZE
  6
CONTINUOUS
 62
    30
 10
87.0
 20
-345.10809199999989
 30
0.0
 11
-87.0
 21
-345.10809199999989
 31
0.0
  0
CIRCLE
  5
1C4
  8
SIZE
  6
CONTINUOUS
 62
    30
 10
87.0
 20
-345.10809199999989
 30
0.0
 40
6.0
  0
LINE
  5
1C5
  8
SIZE
  6
CONTINUOUS
 62
    30
 10
87.0
 20
-345.10809199999989
 30
0.0
 11
99.0
 21
-345.10809199999989
 31
0.0
  0
CIRCLE
  5
1C6
  8
SIZE
  6
CONTINUOUS
 62
    30
 10
-87.0
 20
-345.10809199999989
 30
0.0
 40
6.0
  0
LINE
  5
1C7
  8
SIZE
  6
CONTINUOUS
 62
    30
 10
-87.0
 20
-345.10809199999989
 30
0.0
 11
-99.0
 21
-345.10809199999989
 31
0.0
  0
TEXT
  5
1C8
  8
SIZE
  6
CONTINUOUS
 62
    30
 10
-106.4228571428571
 20
-320.10809199999989
 30
0.0
 40
64.0
  1
□174
 41
0.9
 72
     1
 11
0.0
 21
-320.10809199999989
 31
0.0
  0
LINE
  5
1E9
  8
DETAIL
  6
CONTINUOUS
 62
     5
 10
-5.0
 20
-7.0
 30
0.0
 11
-90.0
 21
-7.0
 31
0.0
  0
LINE
  5
1EA
  8
DETAIL
  6
CONTINUOUS
 62
     5
 10
-5.0
 20
-7.0
 30
0.0
 11
-97.0
 21
-7.0
 31
0.0
  0
LINE
  5
1EB
  8
DETAIL
  6
CONTINUOUS
 62
     5
 10
-7.0
 20
-12.0
 30
0.0
 11
-88.0
 21
-12.0
 31
0.0
  0
LINE
  5
1EC
  8
DETAIL
  6
CONTINUOUS
 62
     5
 10
-7.0
 20
-12.0
 30
0.0
 11
-95.0
 21
-12.0
 31
0.0
  0
LINE
  5
1EE
  8
DETAIL
  6
CONTINUOUS
 62
     5
 10
94.700000000000003
 20
-24.0
 30
0.0
 11
-94.700000000000003
 21
-24.0
 31
0.0
  0
LINE
  5
1EF
  8
DETAIL
  6
CONTINUOUS
 62
     5
 10
95.0
 20
-23.5
 30
0.0
 11
-95.0
 21
-23.5
 31
0.0
  0
LINE
  5
1F0
  8
DETAIL
  6
CONTINUOUS
 62
     5
 10
-122.0
 20
-15.437473000000001
 30
0.0
 11
122.0
 21
-15.437473000000001
 31
0.0
  0
LINE
  5
1F1
  8
DETAIL
  6
CONTINUOUS
 62
     5
 10
94.700000000000003
 20
-24.0
 30
0.0
 11
-94.700000000000003
 21
-24.0
 31
0.0
  0
LINE
  5
1F2
  8
DETAIL
  6
CONTINUOUS
 62
     5
 10
95.0
 20
-23.5
 30
0.0
 11
-95.0
 21
-23.5
 31
0.0
  0
LINE
  5
1F3
  8
DETAIL
  6
CONTINUOUS
 62
     5
 10
-122.0
 20
-15.437473000000001
 30
0.0
 11
122.0
 21
-15.437473000000001
 31
0.0
  0
LINE
  5
1F4
  8
DETAIL
  6
CONTINUOUS
 62
     5
 10
-125.0
 20
0.0
 30
0.0
 11
125.0
 21
0.0
 31
0.0
  0
ARC
  5
1F5
  8
DETAIL
  6
CONTINUOUS
 62
     5
 10
-94.942390000000003
 20
34.648053999999988
 30
0.0
 40
58.148082999999993
 50
242.26890599999999
 51
269.9432339999999
  0
ARC
  5
1F6
  8
DETAIL
  6
CONTINUOUS
 62
     5
 10
-94.942390000000003
 20
34.648053999999988
 30
0.0
 40
58.148082999999993
 50
242.26890599999999
 51
269.9432339999999
  0
ARC
  5
1F7
  8
DETAIL
  6
CONTINUOUS
 62
     5
 10
-120.0
 20
-12.238635
 30
0.0
 40
5.0
 50
180.0
 51
246.42182199999999
  0
ARC
  5
1F8
  8
DETAIL
  6
CONTINUOUS
 62
     5
 10
-120.0
 20
-12.238635
 30
0.0
 40
5.0
 50
180.0
 51
246.42182199999999
  0
LINE
  5
1F9
  8
DETAIL
  6
CONTINUOUS
 62
     5
 10
-125.0
 20
-12.238635
 30
0.0
 11
-125.0
 21
0.0
 31
0.0
  0
LINE
  5
1FA
  8
DETAIL
  6
CONTINUOUS
 62
     5
 10
-125.0
 20
-12.238635
 30
0.0
 11
-125.0
 21
0.0
 31
0.0
  0
LINE
  5
1FB
  8
DETAIL
  6
CONTINUOUS
 62
     5
 10
-95.0
 20
-23.699999999999999
 30
0.0
 11
-95.0
 21
-23.5
 31
0.0
  0
ARC
  5
1FC
  8
DETAIL
  6
CONTINUOUS
 62
     5
 10
-94.700000000000003
 20
-23.699999999999999
 30
0.0
 40
0.3
 50
180.0
 51
270.0
  0
LINE
  5
1FD
  8
DETAIL
  6
CONTINUOUS
 62
     5
 10
-95.0
 20
-23.699999999999999
 30
0.0
 11
-95.0
 21
-23.5
 31
0.0
  0
ARC
  5
1FE
  8
DETAIL
  6
CONTINUOUS
 62
     5
 10
-94.700000000000003
 20
-23.699999999999999
 30
0.0
 40
0.3
 50
180.0
 51
270.0
  0
ARC
  5
1FF
  8
DETAIL
  6
CONTINUOUS
 62
     5
 10
-95.0
 20
-10.0
 30
0.0
 40
2.0
 50
180.0
 51
270.0
  0
LINE
  5
200
  8
DETAIL
  6
CONTINUOUS
 62
     5
 10
-97.0
 20
-10.0
 30
0.0
 11
-97.0
 21
0.0
 31
0.0
  0
LINE
  5
201
  8
DETAIL
  6
CONTINUOUS
 62
     5
 10
7.0
 20
-12.0
 30
0.0
 11
88.0
 21
-12.0
 31
0.0
  0
LINE
  5
202
  8
DETAIL
  6
CONTINUOUS
 62
     5
 10
5.0
 20
-7.0
 30
0.0
 11
90.0
 21
-7.0
 31
0.0
  0
LINE
  5
203
  8
DETAIL
  6
CONTINUOUS
 62
     5
 10
5.0
 20
-7.0
 30
0.0
 11
97.0
 21
-7.0
 31
0.0
  0
LINE
  5
204
  8
DETAIL
  6
CONTINUOUS
 62
     5
 10
7.0
 20
-12.0
 30
0.0
 11
95.0
 21
-12.0
 31
0.0
  0
LINE
  5
205
  8
DETAIL
  6
CONTINUOUS
 62
     5
 10
-3.0
 20
0.0
 30
0.0
 11
3.0
 21
0.0
 31
0.0
  0
LINE
  5
206
  8
DETAIL
  6
CONTINUOUS
 62
     5
 10
-3.0
 20
0.0
 30
0.0
 11
3.0
 21
0.0
 31
0.0
  0
LINE
  5
207
  8
DETAIL
  6
CONTINUOUS
 62
     5
 10
-5.0
 20
-2.0
 30
0.0
 11
-5.0
 21
-10.0
 31
0.0
  0
ARC
  5
208
  8
DETAIL
  6
CONTINUOUS
 62
     5
 10
-7.0
 20
-10.0
 30
0.0
 40
2.0
 50
270.0
 51
0.0
  0
LINE
  5
209
  8
DETAIL
  6
CONTINUOUS
 62
     5
 10
-5.0
 20
-2.0
 30
0.0
 11
-5.0
 21
-10.0
 31
0.0
  0
ARC
  5
20A
  8
DETAIL
  6
CONTINUOUS
 62
     5
 10
-7.0
 20
-10.0
 30
0.0
 40
2.0
 50
270.0
 51
0.0
  0
ARC
  5
20B
  8
DETAIL
  6
CONTINUOUS
 62
     5
 10
-3.0
 20
-2.0
 30
0.0
 40
2.0
 50
90.0
 51
180.0
  0
ARC
  5
20C
  8
DETAIL
  6
CONTINUOUS
 62
     5
 10
-3.0
 20
-2.0
 30
0.0
 40
2.0
 50
90.0
 51
180.0
  0
ARC
  5
20D
  8
DETAIL
  6
CONTINUOUS
 62
     5
 10
7.0
 20
-10.0
 30
0.0
 40
2.0
 50
180.0
 51
270.0
  0
LINE
  5
20E
  8
DETAIL
  6
CONTINUOUS
 62
     5
 10
5.0
 20
-2.0
 30
0.0
 11
5.0
 21
-10.0
 31
0.0
  0
ARC
  5
20F
  8
DETAIL
  6
CONTINUOUS
 62
     5
 10
7.0
 20
-10.0
 30
0.0
 40
2.0
 50
180.0
 51
270.0
  0
LINE
  5
210
  8
DETAIL
  6
CONTINUOUS
 62
     5
 10
5.0
 20
-2.0
 30
0.0
 11
5.0
 21
-10.0
 31
0.0
  0
ARC
  5
211
  8
DETAIL
  6
CONTINUOUS
 62
     5
 10
3.0
 20
-2.0
 30
0.0
 40
2.0
 50
0.0
 51
90.0
  0
ARC
  5
212
  8
DETAIL
  6
CONTINUOUS
 62
     5
 10
3.0
 20
-2.0
 30
0.0
 40
2.0
 50
0.0
 51
90.0
  0
ARC
  5
213
  8
DETAIL
  6
CONTINUOUS
 62
     5
 10
94.942390000000003
 20
34.648053999999988
 30
0.0
 40
58.148082999999993
 50
270.05676599999998
 51
297.73109399999993
  0
ARC
  5
214
  8
DETAIL
  6
CONTINUOUS
 62
     5
 10
94.942390000000003
 20
34.648053999999988
 30
0.0
 40
58.148082999999993
 50
270.05676599999998
 51
297.73109399999993
  0
LINE
  5
215
  8
DETAIL
  6
CONTINUOUS
 62
     5
 10
95.0
 20
-23.699999999999999
 30
0.0
 11
95.0
 21
-23.5
 31
0.0
  0
ARC
  5
216
  8
DETAIL
  6
CONTINUOUS
 62
     5
 10
94.700000000000003
 20
-23.699999999999999
 30
0.0
 40
0.3
 50
270.0
 51
0.0
  0
LINE
  5
217
  8
DETAIL
  6
CONTINUOUS
 62
     5
 10
95.0
 20
-23.699999999999999
 30
0.0
 11
95.0
 21
-23.5
 31
0.0
  0
ARC
  5
218
  8
DETAIL
  6
CONTINUOUS
 62
     5
 10
94.700000000000003
 20
-23.699999999999999
 30
0.0
 40
0.3
 50
270.0
 51
0.0
  0
ARC
  5
219
  8
DETAIL
  6
CONTINUOUS
 62
     5
 10
95.0
 20
-10.0
 30
0.0
 40
2.0
 50
270.0
 51
0.0
  0
LINE
  5
21A
  8
DETAIL
  6
CONTINUOUS
 62
     5
 10
97.0
 20
-10.0
 30
0.0
 11
97.0
 21
0.0
 31
0.0
  0
ARC
  5
21B
  8
DETAIL
  6
CONTINUOUS
 62
     5
 10
120.0
 20
-12.238635
 30
0.0
 40
5.0
 50
293.57817799999992
 51
0.0
  0
ARC
  5
21C
  8
DETAIL
  6
CONTINUOUS
 62
     5
 10
120.0
 20
-12.238635
 30
0.0
 40
5.0
 50
293.57817799999992
 51
0.0
  0
LINE
  5
21D
  8
DETAIL
  6
CONTINUOUS
 62
     5
 10
125.0
 20
-12.238635
 30
0.0
 11
125.0
 21
0.0
 31
0.0
  0
LINE
  5
21E
  8
DETAIL
  6
CONTINUOUS
 62
     5
 10
125.0
 20
-12.238635
 30
0.0
 11
125.0
 21
0.0
 31
0.0
  0
ARC
  5
21F
  8
NOTE
  6
CONTINUOUS
 62
     4
 39
50.0
 10
-276.70235700000001
 20
-363.80302
 30
0.0
 40
4.0
 50
270.0
 51
334.468658
  0
TEXT
  5
228
  8
ETC
  6
CONTINUOUS
 62
    61
 10
707.75454987665205
 20
535.63513621067125
 30
0.0
 40
50.0
  1
VD-10ZCX7
 41
0.9
  0
TEXT
  5
229
  8
ETC
  6
CONTINUOUS
 62
    61
 10
603.27462236414874
 20
710.80093421999266
 30
0.0
 40
64.0
  1
VD-10ZCX7_5
 41
0.9
  0
TEXT
  5
22A
  8
ETC
  6
CONTINUOUS
 62
    61
 10
595.35891536414863
 20
613.45440321999274
 30
0.0
 40
64.0
  1
換気扇
 41
0.9
  0
LINE
  5
22B
  8
OUTLINE
  6
CONTINUOUS
 62
     3
 10
86.201352999999983
 20
45.0
 30
0.0
 11
87.0
 21
0.0
 31
0.0
  0
LINE
  5
22C
  8
BASIS
  6
DASHDOT
 62
     6
 10
0.0
 20
216.66316399999999
 30
0.0
 11
0.0
 21
-47.226675999999998
 31
0.0
  0
LINE
  5
22D
  8
OUTLINE
  6
CONTINUOUS
 62
     3
 10
-85.978268999999955
 20
58.534905000000002
 30
0.0
 11
-87.0
 21
0.0
 31
0.0
  0
LINE
  5
22E
  8
OUTLINE
  6
CONTINUOUS
 62
     3
 10
125.0
 20
0.0
 30
0.0
 11
-125.0
 21
0.0
 31
0.0
  0
LINE
  5
22F
  8
OUTLINE
  6
CONTINUOUS
 62
     3
 10
56.712661000000033
 20
151.0
 30
0.0
 11
-50.345820000000003
 21
151.0
 31
0.0
  0
LINE
  5
230
  8
BASIS
  6
DASHDOT
 62
     6
 10
-5.0
 20
132.043553
 30
0.0
 11
-5.0
 21
198.4738659999999
 31
0.0
  0
LINE
  5
231
  8
OUTLINE
  6
CONTINUOUS
 62
     3
 10
-58.384706999999942
 20
183.25011399999991
 30
0.0
 11
-84.0
 21
121.0
 31
0.0
  0
LINE
  5
232
  8
OUTLINE
  6
CONTINUOUS
 62
     3
 10
-50.345820000000003
 20
151.0
 30
0.0
 11
-55.505429000000049
 21
183.368729
 31
0.0
  0
LINE
  5
233
  8
OUTLINE
  6
CONTINUOUS
 62
     3
 10
-84.0
 20
121.0
 30
0.0
 11
-85.062765000000013
 21
60.180633999999991
 31
0.0
  0
ARC
  5
234
  8
OUTLINE
  6
CONTINUOUS
 62
     3
 10
-83.978573999999966
 20
58.5
 30
0.0
 40
2.0
 50
122.82641
 51
179.0
  0
LINE
  5
235
  8
OUTLINE
  6
CONTINUOUS
 62
     3
 10
-56.245293999999937
 20
184.0
 30
0.0
 11
-57.621618000000012
 21
184.0
 31
0.0
  0
ARC
  5
236
  8
OUTLINE
  6
CONTINUOUS
 62
     3
 10
-56.245293999999937
 20
183.2507939999999
 30
0.0
 40
0.7492060000000002
 50
9.0568119999999972
 51
90.0
  0
ARC
  5
237
  8
OUTLINE
  6
CONTINUOUS
 62
     3
 10
-57.621618000000012
 20
183.236794
 30
0.0
 40
0.7632060000000001
 50
90.0
 51
179.0
  0
LINE
  5
238
  8
OUTLINE
  6
CONTINUOUS
 62
     3
 10
59.172154999999968
 20
165.5
 30
0.0
 11
56.712661000000033
 21
151.0
 31
0.0
  0
LINE
  5
239
  8
OUTLINE
  6
CONTINUOUS
 62
     3
 10
84.0
 20
165.53490500000001
 30
0.0
 11
84.210069999999973
 21
159.0
 31
0.0
  0
LINE
  5
23A
  8
BASIS
  6
DASHDOT
 62
     6
 10
155.45261499999989
 20
127.0
 30
0.0
 11
116.229128
 21
127.0
 31
0.0
  0
LINE
  5
23B
  8
BASIS
  6
DASHDOT
 62
     6
 10
227.703148
 20
102.0
 30
0.0
 11
78.182806000000028
 21
102.0
 31
0.0
  0
LINE
  5
23C
  8
OUTLINE
  6
CONTINUOUS
 62
     3
 10
86.959850000000017
 20
45.076577
 30
0.0
 11
86.959850000000017
 21
155.29413600000001
 31
0.0
  0
LINE
  5
23D
  8
OUTLINE
  6
CONTINUOUS
 62
     3
 10
86.959850000000017
 20
45.076577
 30
0.0
 11
86.201352999999983
 21
45.0
 31
0.0
  0
ARC
  5
23E
  8
OUTLINE
  6
CONTINUOUS
 62
     3
 10
85.257145999999977
 20
156.311756
 30
0.0
 40
1.0
 50
181.0
 51
269.5
  0
LINE
  5
23F
  8
OUTLINE
  6
CONTINUOUS
 62
     3
 10
84.206841999999995
 20
159.184912
 30
0.0
 11
84.257297999999992
 21
156.29430400000001
 31
0.0
  0
LINE
  5
240
  8
OUTLINE
  6
CONTINUOUS
 62
     3
 10
86.959850000000017
 20
155.29413600000001
 30
0.0
 11
85.248419000000013
 21
155.31179399999991
 31
0.0
  0
LINE
  5
241
  8
OUTLINE
  6
CONTINUOUS
 62
     3
 10
77.976511000000016
 20
167.5
 30
0.0
 11
82.000305000000026
 21
167.5
 31
0.0
  0
ARC
  5
242
  8
OUTLINE
  6
CONTINUOUS
 62
     3
 10
76.976511000000016
 20
171.5
 30
0.0
 40
1.0
 50
0.0
 51
90.0
  0
LINE
  5
243
  8
OUTLINE
  6
CONTINUOUS
 62
     3
 10
77.976511000000016
 20
171.5
 30
0.0
 11
77.976511000000016
 21
167.5
 31
0.0
  0
LINE
  5
244
  8
OUTLINE
  6
CONTINUOUS
 62
     3
 10
73.517606999999984
 20
184.0
 30
0.0
 11
63.517606999999991
 21
184.0
 31
0.0
  0
LINE
  5
245
  8
OUTLINE
  6
CONTINUOUS
 62
     3
 10
61.31268
 20
172.5
 30
0.0
 11
63.517606999999991
 21
184.0
 31
0.0
  0
LINE
  5
246
  8
OUTLINE
  6
CONTINUOUS
 62
     3
 10
73.517606999999984
 20
184.0
 30
0.0
 11
75.767606999999998
 21
172.5
 31
0.0
  0
LINE
  5
247
  8
OUTLINE
  6
CONTINUOUS
 62
     3
 10
75.767606999999998
 20
172.5
 30
0.0
 11
76.976511000000016
 21
172.5
 31
0.0
  0
ARC
  5
248
  8
OUTLINE
  6
CONTINUOUS
 62
     3
 10
53.976511000000009
 20
171.5
 30
0.0
 40
1.0
 50
90.0
 51
180.0
  0
LINE
  5
249
  8
OUTLINE
  6
CONTINUOUS
 62
     3
 10
52.976511000000023
 20
171.5
 30
0.0
 11
52.976511000000023
 21
165.5
 31
0.0
  0
LINE
  5
24A
  8
OUTLINE
  6
CONTINUOUS
 62
     3
 10
53.976511000000009
 20
172.5
 30
0.0
 11
61.31268
 21
172.5
 31
0.0
  0
LINE
  5
24B
  8
OUTLINE
  6
CONTINUOUS
 62
     3
 10
52.976511000000023
 20
165.5
 30
0.0
 11
59.172154999999968
 21
165.5
 31
0.0
  0
ARC
  5
24C
  8
OUTLINE
  6
CONTINUOUS
 62
     3
 10
82.000305000000026
 20
165.5
 30
0.0
 40
2.0
 50
1.0
 51
90.0
  0
ENDSEC
  0
EOF
