  0
SECTION
  2
HEADER
  9
$ACADVER
  1
AC1009
  9
$INSBASE
 10
0.0
 20
0.0
 30
0.0
  9
$EXTMIN
 10
-879.26845100000003
 20
-595.83994900000005
 30
0.0
  9
$EXTMAX
 10
1270.408417748303
 20
804.29829399999994
 30
50.0
  9
$LIMMIN
 10
-2970.0
 20
-2100.0
  9
$LIMMAX
 10
2970.0
 20
2100.0
  9
$ORTHOMODE
 70
     0
  9
$REGENMODE
 70
     0
  9
$FILLMODE
 70
     1
  9
$QTEXTMODE
 70
     0
  9
$MIRRTEXT
 70
     0
  9
$DRAGMODE
 70
     2
  9
$LTSCALE
 40
20.0
  9
$OSMODE
 70
   167
  9
$ATTMODE
 70
     1
  9
$TEXTSIZE
 40
64.0
  9
$TRACEWID
 40
0.05
  9
$TEXTSTYLE
  7
STANDARD
  9
$CLAYER
  8
SIZE
  9
$CELTYPE
  6
CONTINUOUS
  9
$CECOLOR
 62
    30
  9
$DIMSCALE
 40
1.0
  9
$DIMASZ
 40
12.0
  9
$DIMEXO
 40
20.0
  9
$DIMDLI
 40
200.0
  9
$DIMRND
 40
0.0
  9
$DIMDLE
 40
0.0
  9
$DIMEXE
 40
20.0
  9
$DIMTP
 40
0.0
  9
$DIMTM
 40
0.0
  9
$DIMTXT
 40
64.0
  9
$DIMCEN
 40
0.09
  9
$DIMTSZ
 40
0.0
  9
$DIMTOL
 70
     0
  9
$DIMLIM
 70
     0
  9
$DIMTIH
 70
     0
  9
$DIMTOH
 70
     0
  9
$DIMSE1
 70
     0
  9
$DIMSE2
 70
     0
  9
$DIMTAD
 70
     1
  9
$DIMZIN
 70
     8
  9
$DIMBLK
  1
DOT1
  9
$DIMASO
 70
     1
  9
$DIMSHO
 70
     0
  9
$DIMPOST
  1

  9
$DIMAPOST
  1

  9
$DIMALT
 70
     0
  9
$DIMALTD
 70
     2
  9
$DIMALTF
 40
25.399999999999999
  9
$DIMLFAC
 40
1.0
  9
$DIMTOFL
 70
     1
  9
$DIMTVP
 40
0.0
  9
$DIMTIX
 70
     1
  9
$DIMSOXD
 70
     0
  9
$DIMSAH
 70
     1
  9
$DIMBLK1
  1
ORIGIN
  9
$DIMBLK2
  1
ORIGIN
  9
$DIMSTYLE
  2
STANDARD
  9
$DIMCLRD
 70
     7
  9
$DIMCLRE
 70
     7
  9
$DIMCLRT
 70
     7
  9
$DIMTFAC
 40
1.0
  9
$DIMGAP
 40
25.0
  9
$LUNITS
 70
     2
  9
$LUPREC
 70
     4
  9
$SKETCHINC
 40
0.1
  9
$FILLETRAD
 40
4.0
  9
$AUNITS
 70
     1
  9
$AUPREC
 70
     3
  9
$MENU
  1
ACAD
  9
$ELEVATION
 40
0.0
  9
$PELEVATION
 40
0.0
  9
$THICKNESS
 40
50.0
  9
$LIMCHECK
 70
     0
  9
$BLIPMODE
 70
     0
  9
$CHAMFERA
 40
0.0
  9
$CHAMFERB
 40
0.0
  9
$SKPOLY
 70
     0
  9
$TDCREATE
 40
2453110.6907721991
  9
$TDUPDATE
 40
2454146.9104148489
  9
$TDINDWG
 40
0.0671017361
  9
$TDUSRTIMER
 40
0.0671017361
  9
$USRTIMER
 70
     1
  9
$ANGBASE
 50
0.0
  9
$ANGDIR
 70
     0
  9
$PDMODE
 70
     3
  9
$PDSIZE
 40
-2.0
  9
$PLINEWID
 40
0.0
  9
$COORDS
 70
     1
  9
$SPLFRAME
 70
     0
  9
$SPLINETYPE
 70
     6
  9
$SPLINESEGS
 70
     8
  9
$ATTDIA
 70
     0
  9
$ATTREQ
 70
     1
  9
$HANDLING
 70
 22529
  9
$HANDSEED
  5
2D6
  9
$SURFTAB1
 70
     6
  9
$SURFTAB2
 70
     6
  9
$SURFTYPE
 70
     6
  9
$SURFU
 70
     6
  9
$SURFV
 70
     6
  9
$UCSNAME
  2

  9
$UCSORG
 10
0.0
 20
0.0
 30
0.0
  9
$UCSXDIR
 10
1.0
 20
0.0
 30
0.0
  9
$UCSYDIR
 10
0.0
 20
1.0
 30
0.0
  9
$PUCSNAME
  2

  9
$PUCSORG
 10
0.0
 20
0.0
 30
0.0
  9
$PUCSXDIR
 10
1.0
 20
0.0
 30
0.0
  9
$PUCSYDIR
 10
0.0
 20
1.0
 30
0.0
  9
$USERI1
 70
     0
  9
$USERI2
 70
     0
  9
$USERI3
 70
     0
  9
$USERI4
 70
     0
  9
$USERI5
 70
     0
  9
$USERR1
 40
20.0
  9
$USERR2
 40
0.0
  9
$USERR3
 40
0.0
  9
$USERR4
 40
0.0
  9
$USERR5
 40
0.0
  9
$WORLDVIEW
 70
     1
  9
$SHADEDGE
 70
     3
  9
$SHADEDIF
 70
    70
  9
$TILEMODE
 70
     1
  9
$MAXACTVP
 70
    48
  9
$PLIMCHECK
 70
     0
  9
$PEXTMIN
 10
-1.0000000000000000E+020
 20
-1.0000000000000000E+020
 30
-1.0000000000000000E+020
  9
$PEXTMAX
 10
1.0000000000000000E+020
 20
1.0000000000000000E+020
 30
1.0000000000000000E+020
  9
$PLIMMIN
 10
0.0
 20
0.0
  9
$PLIMMAX
 10
12.0
 20
9.0
  9
$UNITMODE
 70
     0
  9
$VISRETAIN
 70
     0
  9
$PLINEGEN
 70
     0
  9
$PSLTSCALE
 70
     0
  0
ENDSEC
  0
SECTION
  2
TABLES
  0
TABLE
  2
VPORT
 70
     3
  0
VPORT
  2
*ACTIVE
 70
     0
 10
0.0
 20
0.0
 11
1.0
 21
1.0
 12
195.56604079720179
 22
104.3014629999995
 13
0.0
 23
0.0
 14
1.0
 24
1.0
 15
0.0
 25
0.0
 16
0.0
 26
0.0
 36
1.0
 17
0.0
 27
0.0
 37
0.0
 40
1426.5832883357
 41
1.710526315789473
 42
50.0
 43
0.0
 44
0.0
 50
0.0
 51
0.0
 71
     0
 72
  1000
 73
     1
 74
     0
 75
     0
 76
     0
 77
     0
 78
     0
  0
ENDTAB
  0
TABLE
  2
LTYPE
 70
     3
  0
LTYPE
  2
CONTINUOUS
 70
     0
  3
Ä└É³
 72
    65
 73
     0
 40
0.0
  0
LTYPE
  2
DASHDOT
 70
     0
  3
____ _ ____ _ ____ _ ____ _ ____ _ ____ _ ____
 72
    65
 73
     4
 40
5.5
 49
4.0
 49
-0.6
 49
0.3
 49
-0.6
  0
LTYPE
  2
DASHED
 70
     0
  3
-- -- -- -- -- -- -- -- -- -- -- -- -- -- --
 72
    65
 73
     2
 40
0.75
 49
0.5
 49
-0.25
  0
ENDTAB
  0
TABLE
  2
LAYER
 70
    12
  0
LAYER
  2
0
 70
     0
 62
     7
  6
CONTINUOUS
  0
LAYER
  2
SIZE
 70
     0
 62
    30
  6
CONTINUOUS
  0
LAYER
  2
BASIS
 70
     0
 62
     6
  6
DASHDOT
  0
LAYER
  2
OUTLINE
 70
     0
 62
     3
  6
CONTINUOUS
  0
LAYER
  2
DETAIL
 70
     0
 62
     5
  6
CONTINUOUS
  0
LAYER
  2
ARRANGE
 70
     0
 62
     1
  6
CONTINUOUS
  0
LAYER
  2
DEFPOINTS
 70
     0
 62
     7
  6
CONTINUOUS
  0
LAYER
  2
ETC
 70
     0
 62
    61
  6
CONTINUOUS
  0
LAYER
  2
FIX
 70
     0
 62
    11
  6
CONTINUOUS
  0
LAYER
  2
NOTE
 70
     0
 62
     4
  6
CONTINUOUS
  0
LAYER
  2
SERVICESPACE
 70
     0
 62
     2
  6
DASHDOT
  0
LAYER
  2
SYMBOLLINE
 70
     0
 62
    15
  6
CONTINUOUS
  0
ENDTAB
  0
TABLE
  2
STYLE
 70
     1
  0
STYLE
  2
STANDARD
 70
     0
 40
64.0
 41
0.9
 50
0.0
 71
     0
 42
64.0
  3
SIMPLEX.shx
  4
BIGFONT.shx
  0
ENDTAB
  0
TABLE
  2
VIEW
 70
     1
  0
VIEW
  2
ALL
 70
     0
 40
4282.6198079999986
 10
0.0
 20
41.309903999999989
 41
5940.0
 11
0.0
 21
0.0
 31
1.0
 12
0.0
 22
0.0
 32
0.0
 42
50.0
 43
0.0
 44
0.0
 50
0.0
 71
     0
  0
ENDTAB
  0
TABLE
  2
UCS
 70
     0
  0
ENDTAB
  0
TABLE
  2
APPID
 70
     2
  0
APPID
  2
ACAD
 70
     0
  0
APPID
  2
AUTOCAD_POSTSCRIPT_FIGURE
 70
     0
  0
ENDTAB
  0
TABLE
  2
DIMSTYLE
 70
     1
  0
DIMSTYLE
  2
STANDARD
 70
     0
  3

  4

  5

  6

  7

 40
1.0
 41
0.18
 42
0.0625
 43
0.38
 44
0.18
 45
0.0
 46
0.0
 47
0.0
 48
0.0
140
0.18
141
0.09
142
0.0
143
25.399999999999999
144
1.0
145
0.0
146
1.0
147
0.09
 71
     0
 72
     0
 73
     1
 74
     1
 75
     0
 76
     0
 77
     0
 78
     0
170
     0
171
     2
172
     0
173
     0
174
     0
175
     0
176
     7
177
     7
178
     7
  0
ENDTAB
  0
ENDSEC
  0
SECTION
  2
BLOCKS
  0
BLOCK
  8
0
  2
$MODEL_SPACE
 70
     0
 10
0.0
 20
0.0
 30
0.0
  3
$MODEL_SPACE
  1

  0
ENDBLK
  5
20
  8
0
  0
BLOCK
 67
     1
  8
0
  2
$PAPER_SPACE
 70
     0
 10
0.0
 20
0.0
 30
0.0
  3
$PAPER_SPACE
  1

  0
ENDBLK
  5
1C
 67
     1
  8
0
  0
BLOCK
  8
0
  2
DOT1
 70
     0
 10
0.0
 20
0.0
 30
0.0
  3
DOT1
  1

  0
CIRCLE
  5
37
  8
SIZE
  6
CONTINUOUS
 62
     7
 10
0.0
 20
0.0
 30
0.0
 40
3.0
  0
ENDBLK
  5
38
  8
0
  0
BLOCK
  8
0
  2
_ORIGIN
 70
     0
 10
0.0
 20
0.0
 30
0.0
  3
_ORIGIN
  1

  0
CIRCLE
  5
3B
  8
0
  6
CONTINUOUS
 62
     7
 10
0.0
 20
0.0
 30
0.0
 40
0.5
  0
LINE
  5
3C
  8
0
  6
CONTINUOUS
 62
     7
 10
0.0
 20
0.0
 30
0.0
 11
-1.0
 21
0.0
 31
0.0
  0
ENDBLK
  5
3D
  8
0
  0
ENDSEC
  0
SECTION
  2
ENTITIES
  0
LINE
  5
3E
  8
BASIS
  6
DASHDOT
 62
     6
 10
0.0
 20
213.14400099999989
 30
0.0
 11
0.0
 21
-47.659356999999993
 31
0.0
  0
TEXT
  5
3F
  8
NOTE
  6
CONTINUOUS
 62
     4
 10
253.242324
 20
67.212481000000011
 30
0.0
 40
64.0
  1
EA
 41
0.9
  0
LINE
  5
40
  8
SIZE
  6
CONTINUOUS
 62
    30
 10
163.0
 20
0.0
 30
0.0
 11
839.24660099999994
 21
0.0
 31
0.0
  0
LINE
  5
41
  8
SIZE
  6
CONTINUOUS
 62
    30
 10
41.5
 20
189.0
 30
0.0
 11
839.24660099999994
 21
189.0
 31
0.0
  0
LINE
  5
42
  8
SIZE
  6
CONTINUOUS
 62
    30
 10
819.24660100000006
 20
12.0
 30
0.0
 11
819.24660100000006
 21
177.0
 31
0.0
  0
CIRCLE
  5
43
  8
SIZE
  6
CONTINUOUS
 62
    30
 10
819.24660100000006
 20
0.0
 30
0.0
 40
6.0
  0
LINE
  5
44
  8
SIZE
  6
CONTINUOUS
 62
    30
 10
819.24660100000006
 20
0.0
 30
0.0
 11
819.24660100000006
 21
12.0
 31
0.0
  0
CIRCLE
  5
45
  8
SIZE
  6
CONTINUOUS
 62
    30
 10
819.24660100000006
 20
189.0
 30
0.0
 40
6.0
  0
LINE
  5
46
  8
SIZE
  6
CONTINUOUS
 62
    30
 10
819.24660100000006
 20
189.0
 30
0.0
 11
819.24660100000006
 21
177.0
 31
0.0
  0
TEXT
  5
47
  8
SIZE
  6
CONTINUOUS
 62
    30
 10
794.24660099999994
 20
27.300000000000011
 30
0.0
 40
64.0
  1
189
 50
90.0
 41
0.9
 72
     1
 11
794.24660099999994
 21
94.500000000000014
 31
0.0
  0
LINE
  5
4B
  8
SIZE
  6
CONTINUOUS
 62
    30
 10
-163.0
 20
0.0
 30
0.0
 11
-810.26845099999991
 21
0.0
 31
0.0
  0
LINE
  5
4C
  8
SIZE
  6
CONTINUOUS
 62
    30
 10
-101.55040200000001
 20
195.0
 30
0.0
 11
-810.26845099999991
 21
195.0
 31
0.0
  0
LINE
  5
4D
  8
SIZE
  6
CONTINUOUS
 62
    30
 10
-790.26845100000003
 20
12.0
 30
0.0
 11
-790.26845100000003
 21
183.0
 31
0.0
  0
CIRCLE
  5
4E
  8
SIZE
  6
CONTINUOUS
 62
    30
 10
-790.26845100000003
 20
0.0
 30
0.0
 40
6.0
  0
LINE
  5
4F
  8
SIZE
  6
CONTINUOUS
 62
    30
 10
-790.26845100000003
 20
0.0
 30
0.0
 11
-790.26845100000003
 21
12.0
 31
0.0
  0
CIRCLE
  5
50
  8
SIZE
  6
CONTINUOUS
 62
    30
 10
-790.26845100000003
 20
195.0
 30
0.0
 40
6.0
  0
LINE
  5
51
  8
SIZE
  6
CONTINUOUS
 62
    30
 10
-790.26845100000003
 20
195.0
 30
0.0
 11
-790.26845100000003
 21
183.0
 31
0.0
  0
TEXT
  5
52
  8
SIZE
  6
CONTINUOUS
 62
    30
 10
-815.26845100000003
 20
28.928571428571431
 30
0.0
 40
64.0
  1
195
 50
90.0
 41
0.9
 72
     1
 11
-815.26845100000003
 21
97.5
 31
0.0
  0
POINT
  5
55
  8
DEFPOINTS
  6
CONTINUOUS
 62
    30
 10
-790.26845100000003
 20
195.0
 30
0.0
  0
LINE
  5
56
  8
SIZE
  6
CONTINUOUS
 62
    30
 10
-163.0
 20
0.0
 30
0.0
 11
-810.26845099999991
 21
0.0
 31
0.0
  0
LINE
  5
57
  8
SIZE
  6
CONTINUOUS
 62
    30
 10
-117.0
 20
-15.0
 30
0.0
 11
-810.26845099999991
 21
-15.0
 31
0.0
  0
LINE
  5
58
  8
SIZE
  6
CONTINUOUS
 62
    30
 10
-790.26845100000003
 20
12.0
 30
0.0
 11
-790.26845100000003
 21
24.0
 31
0.0
  0
LINE
  5
59
  8
SIZE
  6
CONTINUOUS
 62
    30
 10
-790.26845100000003
 20
-27.0
 30
0.0
 11
-790.26845100000003
 21
-39.0
 31
0.0
  0
LINE
  5
5A
  8
SIZE
  6
CONTINUOUS
 62
    30
 10
-790.26845100000003
 20
-174.08091899999999
 30
0.0
 11
-790.26845100000003
 21
-15.0
 31
0.0
  0
TEXT
  5
5B
  8
SIZE
  6
CONTINUOUS
 62
    30
 10
-815.26845100000003
 20
-149.08091914285711
 30
0.0
 40
64.0
  1
15
 50
90.0
 41
0.9
 72
     1
 11
-815.26845100000003
 21
-107.938062
 31
0.0
  0
LINE
  5
5C
  8
SIZE
  6
CONTINUOUS
 62
    30
 10
-790.26845100000003
 20
0.0
 30
0.0
 11
-790.26845100000003
 21
-15.0
 31
0.0
  0
LINE
  5
5D
  8
SIZE
  6
CONTINUOUS
 62
    30
 10
-790.26845100000003
 20
0.0
 30
0.0
 11
-790.26845100000003
 21
-15.0
 31
0.0
  0
CIRCLE
  5
5E
  8
SIZE
  6
CONTINUOUS
 62
    30
 10
-790.26845100000003
 20
0.0
 30
0.0
 40
6.0
  0
LINE
  5
5F
  8
SIZE
  6
CONTINUOUS
 62
    30
 10
-790.26845100000003
 20
0.0
 30
0.0
 11
-790.26845100000003
 21
12.0
 31
0.0
  0
CIRCLE
  5
60
  8
SIZE
  6
CONTINUOUS
 62
    30
 10
-790.26845100000003
 20
-15.0
 30
0.0
 40
6.0
  0
LINE
  5
61
  8
SIZE
  6
CONTINUOUS
 62
    30
 10
-790.26845100000003
 20
-15.0
 30
0.0
 11
-790.26845100000003
 21
-27.0
 31
0.0
  0
POINT
  5
64
  8
DEFPOINTS
  6
CONTINUOUS
 62
    30
 10
-790.26845100000003
 20
-15.0
 30
0.0
  0
LINE
  5
65
  8
SIZE
  6
CONTINUOUS
 62
    30
 10
-65.0
 20
-40.0
 30
0.0
 11
-65.0
 21
-229.83140599999999
 31
0.0
  0
LINE
  5
66
  8
SIZE
  6
CONTINUOUS
 62
    30
 10
65.0
 20
-40.0
 30
0.0
 11
65.0
 21
-229.83140599999999
 31
0.0
  0
LINE
  5
67
  8
SIZE
  6
CONTINUOUS
 62
    30
 10
-53.0
 20
-209.83140599999999
 30
0.0
 11
53.0
 21
-209.83140599999999
 31
0.0
  0
TEXT
  5
68
  8
SIZE
  6
CONTINUOUS
 62
    30
 10
-72.031220571428562
 20
-184.83140599999999
 30
0.0
 40
64.0
  1
130
 41
0.9
 72
     1
 11
-3.4597919999999989
 21
-184.83140599999999
 31
0.0
  0
CIRCLE
  5
69
  8
SIZE
  6
CONTINUOUS
 62
    30
 10
-65.0
 20
-209.83140599999999
 30
0.0
 40
6.0
  0
LINE
  5
6A
  8
SIZE
  6
CONTINUOUS
 62
    30
 10
-65.0
 20
-209.83140599999999
 30
0.0
 11
-53.0
 21
-209.83140599999999
 31
0.0
  0
CIRCLE
  5
6B
  8
SIZE
  6
CONTINUOUS
 62
    30
 10
65.0
 20
-209.83140599999999
 30
0.0
 40
6.0
  0
LINE
  5
6C
  8
SIZE
  6
CONTINUOUS
 62
    30
 10
65.0
 20
-209.83140599999999
 30
0.0
 11
53.0
 21
-209.83140599999999
 31
0.0
  0
LINE
  5
70
  8
SIZE
  6
CONTINUOUS
 62
    30
 10
-117.5
 20
-40.0
 30
0.0
 11
-117.5
 21
-474.82563099999999
 31
0.0
  0
LINE
  5
71
  8
SIZE
  6
CONTINUOUS
 62
    30
 10
117.5
 20
-40.0
 30
0.0
 11
117.5
 21
-474.82563099999999
 31
0.0
  0
LINE
  5
72
  8
SIZE
  6
CONTINUOUS
 62
    30
 10
-105.4999999999999
 20
-454.82563099999999
 30
0.0
 11
105.4999999999999
 21
-454.82563099999999
 31
0.0
  0
CIRCLE
  5
73
  8
SIZE
  6
CONTINUOUS
 62
    30
 10
-117.5
 20
-454.82563099999999
 30
0.0
 40
6.0
  0
LINE
  5
74
  8
SIZE
  6
CONTINUOUS
 62
    30
 10
-117.5
 20
-454.82563099999999
 30
0.0
 11
-105.4999999999999
 21
-454.82563099999999
 31
0.0
  0
CIRCLE
  5
75
  8
SIZE
  6
CONTINUOUS
 62
    30
 10
117.5
 20
-454.82563099999999
 30
0.0
 40
6.0
  0
LINE
  5
76
  8
SIZE
  6
CONTINUOUS
 62
    30
 10
117.5
 20
-454.82563099999999
 30
0.0
 11
105.4999999999999
 21
-454.82563099999999
 31
0.0
  0
TEXT
  5
77
  8
SIZE
  6
CONTINUOUS
 62
    30
 10
-74.05714285714285
 20
-429.82563099999999
 30
0.0
 40
64.0
  1
235
 41
0.9
 72
     1
 11
0.0
 21
-429.82563099999999
 31
0.0
  0
LINE
  5
7B
  8
SIZE
  6
CONTINUOUS
 62
    30
 10
103.4999999999999
 20
-20.0
 30
0.0
 11
103.4999999999999
 21
-357.125114
 31
0.0
  0
LINE
  5
7C
  8
SIZE
  6
CONTINUOUS
 62
    30
 10
-103.4999999999999
 20
-20.0
 30
0.0
 11
-103.4999999999999
 21
-357.125114
 31
0.0
  0
LINE
  5
7D
  8
SIZE
  6
CONTINUOUS
 62
    30
 10
91.5
 20
-337.125114
 30
0.0
 11
-91.5
 21
-337.125114
 31
0.0
  0
TEXT
  5
7E
  8
SIZE
  6
CONTINUOUS
 62
    30
 10
-74.05714285714285
 20
-312.125114
 30
0.0
 40
64.0
  1
207
 41
0.9
 72
     1
 11
0.0
 21
-312.125114
 31
0.0
  0
CIRCLE
  5
7F
  8
SIZE
  6
CONTINUOUS
 62
    30
 10
103.4999999999999
 20
-337.125114
 30
0.0
 40
6.0
  0
LINE
  5
80
  8
SIZE
  6
CONTINUOUS
 62
    30
 10
103.4999999999999
 20
-337.125114
 30
0.0
 11
91.5
 21
-337.125114
 31
0.0
  0
CIRCLE
  5
81
  8
SIZE
  6
CONTINUOUS
 62
    30
 10
-103.4999999999999
 20
-337.125114
 30
0.0
 40
6.0
  0
LINE
  5
82
  8
SIZE
  6
CONTINUOUS
 62
    30
 10
-103.4999999999999
 20
-337.125114
 30
0.0
 11
-91.5
 21
-337.125114
 31
0.0
  0
LINE
  5
86
  8
SIZE
  6
CONTINUOUS
 62
    30
 10
143.0
 20
-26.266200999999999
 30
0.0
 11
143.0
 21
-595.83994900000005
 31
0.0
  0
LINE
  5
87
  8
SIZE
  6
CONTINUOUS
 62
    30
 10
-143.0
 20
-26.266200999999999
 30
0.0
 11
-143.0
 21
-595.83994900000005
 31
0.0
  0
LINE
  5
88
  8
SIZE
  6
CONTINUOUS
 62
    30
 10
131.0
 20
-575.83994900000005
 30
0.0
 11
-131.0
 21
-575.83994900000005
 31
0.0
  0
CIRCLE
  5
89
  8
SIZE
  6
CONTINUOUS
 62
    30
 10
143.0
 20
-575.83994900000005
 30
0.0
 40
6.0
  0
LINE
  5
8A
  8
SIZE
  6
CONTINUOUS
 62
    30
 10
143.0
 20
-575.83994900000005
 30
0.0
 11
131.0
 21
-575.83994900000005
 31
0.0
  0
CIRCLE
  5
8B
  8
SIZE
  6
CONTINUOUS
 62
    30
 10
-143.0
 20
-575.83994900000005
 30
0.0
 40
6.0
  0
LINE
  5
8C
  8
SIZE
  6
CONTINUOUS
 62
    30
 10
-143.0
 20
-575.83994900000005
 30
0.0
 11
-131.0
 21
-575.83994900000005
 31
0.0
  0
TEXT
  5
8D
  8
SIZE
  6
CONTINUOUS
 62
    30
 10
-109.1657142857143
 20
-550.83994900000005
 30
0.0
 40
64.0
  1
üá286
 41
0.9
 72
     1
 11
0.0
 21
-550.83994900000005
 31
0.0
  0
TEXT
  5
91
  8
NOTE
  6
CONTINUOUS
 62
     4
 10
-465.46624000000003
 20
313.08243599999992
 30
0.0
 40
64.0
  1
AH-2
 41
0.9
  0
LINE
  5
92
  8
NOTE
  6
CONTINUOUS
 62
     4
 10
-471.58133499999991
 20
287.85361599999987
 30
0.0
 11
-223.062231
 21
287.85361599999987
 31
0.0
  0
TEXT
  5
93
  8
NOTE
  6
CONTINUOUS
 62
     4
 10
-498.374774
 20
-291.31107400000002
 30
0.0
 40
64.0
  1
8-âË5
 41
0.9
  0
LINE
  5
94
  8
NOTE
  6
CONTINUOUS
 62
     4
 10
-238.27844899999999
 20
-323.00634500000001
 30
0.0
 11
-518.73610899999994
 21
-323.00634500000001
 31
0.0
  0
CIRCLE
  5
95
  8
ARRANGE
  6
CONTINUOUS
 62
     1
 39
50.0
 10
0.0
 20
0.0
 30
0.0
 40
40.0
  0
POINT
  5
96
  8
ARRANGE
  6
CONTINUOUS
 62
     1
 10
0.0
 20
0.0
 30
0.0
 39
50.0
  0
LINE
  5
97
  8
DETAIL
  6
CONTINUOUS
 62
     5
 10
143.0
 20
0.0
 30
0.0
 11
-143.0
 21
0.0
 31
0.0
  0
LINE
  5
98
  8
DETAIL
  6
CONTINUOUS
 62
     5
 10
-95.5
 20
-15.0
 30
0.0
 11
95.5
 21
-15.0
 31
0.0
  0
ARC
  5
99
  8
DETAIL
  6
CONTINUOUS
 62
     5
 10
-97.0
 20
285.0
 30
0.0
 40
300.0
 50
262.18040400000001
 51
270.0
  0
ARC
  5
9A
  8
DETAIL
  6
CONTINUOUS
 62
     5
 10
-137.0
 20
-6.2662009999999997
 30
0.0
 40
6.0
 50
180.0
 51
262.18040400000001
  0
LINE
  5
9B
  8
DETAIL
  6
CONTINUOUS
 62
     5
 10
-143.0
 20
0.0
 30
0.0
 11
-143.0
 21
-6.2662009999999997
 31
0.0
  0
LINE
  5
9C
  8
DETAIL
  6
CONTINUOUS
 62
     5
 10
-95.5
 20
-15.0
 30
0.0
 11
-95.5
 21
0.0
 31
0.0
  0
LINE
  5
9D
  8
DETAIL
  6
CONTINUOUS
 62
     5
 10
-97.0
 20
-15.0
 30
0.0
 11
-97.0
 21
0.0
 31
0.0
  0
LINE
  5
9E
  8
DETAIL
  6
CONTINUOUS
 62
     5
 10
-97.0
 20
-14.0
 30
0.0
 11
-95.5
 21
-14.0
 31
0.0
  0
LINE
  5
9F
  8
DETAIL
  6
CONTINUOUS
 62
     5
 10
-97.0
 20
-15.0
 30
0.0
 11
-100.3350219999999
 21
-15.0
 31
0.0
  0
ARC
  5
A0
  8
DETAIL
  6
CONTINUOUS
 62
     5
 10
97.0
 20
285.0
 30
0.0
 40
300.0
 50
270.0
 51
277.81959599999999
  0
LINE
  5
A1
  8
DETAIL
  6
CONTINUOUS
 62
     5
 10
97.0
 20
-15.0
 30
0.0
 11
100.3350219999999
 21
-15.0
 31
0.0
  0
LINE
  5
A2
  8
DETAIL
  6
CONTINUOUS
 62
     5
 10
97.0
 20
-14.0
 30
0.0
 11
95.5
 21
-14.0
 31
0.0
  0
LINE
  5
A3
  8
DETAIL
  6
CONTINUOUS
 62
     5
 10
97.0
 20
-15.0
 30
0.0
 11
97.0
 21
0.0
 31
0.0
  0
LINE
  5
A4
  8
DETAIL
  6
CONTINUOUS
 62
     5
 10
95.5
 20
-15.0
 30
0.0
 11
95.5
 21
0.0
 31
0.0
  0
LINE
  5
A5
  8
DETAIL
  6
CONTINUOUS
 62
     5
 10
143.0
 20
0.0
 30
0.0
 11
143.0
 21
-6.2662009999999997
 31
0.0
  0
ARC
  5
A6
  8
DETAIL
  6
CONTINUOUS
 62
     5
 10
137.0
 20
-6.2662009999999997
 30
0.0
 40
6.0
 50
277.81959599999999
 51
0.0
  0
LINE
  5
A7
  8
NOTE
  6
CONTINUOUS
 62
     4
 10
-117.5
 20
-20.0
 30
0.0
 11
-117.5
 21
20.0
 31
0.0
  0
LINE
  5
A8
  8
NOTE
  6
CONTINUOUS
 62
     4
 10
-137.5
 20
0.0
 30
0.0
 11
-97.5
 21
0.0
 31
0.0
  0
CIRCLE
  5
A9
  8
FIX
  6
CONTINUOUS
 62
    11
 39
50.0
 10
-117.5
 20
0.0
 30
0.0
 40
2.5
  0
CIRCLE
  5
AA
  8
FIX
  6
CONTINUOUS
 62
    11
 39
50.0
 10
65.0
 20
0.0
 30
0.0
 40
2.5
  0
LINE
  5
AB
  8
NOTE
  6
CONTINUOUS
 62
     4
 10
65.0
 20
-20.0
 30
0.0
 11
65.0
 21
20.0
 31
0.0
  0
LINE
  5
AC
  8
NOTE
  6
CONTINUOUS
 62
     4
 10
85.0
 20
0.0
 30
0.0
 11
45.0
 21
0.0
 31
0.0
  0
CIRCLE
  5
AD
  8
FIX
  6
CONTINUOUS
 62
    11
 39
50.0
 10
117.5
 20
0.0
 30
0.0
 40
2.5
  0
LINE
  5
AE
  8
NOTE
  6
CONTINUOUS
 62
     4
 10
117.5
 20
-20.0
 30
0.0
 11
117.5
 21
20.0
 31
0.0
  0
LINE
  5
AF
  8
NOTE
  6
CONTINUOUS
 62
     4
 10
137.5
 20
0.0
 30
0.0
 11
97.5
 21
0.0
 31
0.0
  0
LINE
  5
B0
  8
NOTE
  6
CONTINUOUS
 62
     4
 10
-140.917744
 20
-32.428525999999991
 30
0.0
 11
-117.5
 21
0.0
 31
0.0
  0
LINE
  5
B1
  8
NOTE
  6
CONTINUOUS
 62
     4
 10
-117.5
 20
0.0
 30
0.0
 11
-121.566098
 21
-39.792799000000002
 31
0.0
  0
LINE
  5
B2
  8
NOTE
  6
CONTINUOUS
 62
     4
 10
-117.5
 20
0.0
 30
0.0
 11
-238.27844899999999
 21
-323.00634500000001
 31
0.0
  0
LINE
  5
B3
  8
DETAIL
  6
CONTINUOUS
 62
     5
 39
50.0
 10
-100.5
 20
154.01745199999991
 30
0.0
 11
-103.4999999999999
 21
0.0
 31
0.0
  0
LINE
  5
B4
  8
DETAIL
  6
CONTINUOUS
 62
     5
 39
50.0
 10
85.056609999999992
 20
168.53508999999991
 30
0.0
 11
85.092131999999992
 21
166.5
 31
0.0
  0
LINE
  5
B5
  8
DETAIL
  6
CONTINUOUS
 62
     5
 10
20.0
 20
131.0
 30
0.0
 11
61.599623000000001
 21
131.0
 31
0.0
  0
LINE
  5
B6
  8
DETAIL
  6
CONTINUOUS
 62
     5
 10
41.447634999999991
 20
162.0
 30
0.0
 11
-51.409999999999997
 21
162.0
 31
0.0
  0
LINE
  5
B7
  8
DETAIL
  6
DASHED
 62
     5
 10
-110.906761
 20
90.684050999999997
 30
0.0
 11
-182.90927400000001
 21
142.99693899999991
 31
0.0
  0
LINE
  5
B8
  8
DETAIL
  6
DASHED
 62
     5
 10
-110.31897600000001
 20
91.493068000000008
 30
0.0
 11
-182.3214889999999
 21
143.80595600000001
 31
0.0
  0
LINE
  5
B9
  8
DETAIL
  6
DASHED
 62
     5
 10
-162.794465
 20
109.576171
 30
0.0
 11
-162.794465
 21
143.998481
 31
0.0
  0
LINE
  5
BA
  8
DETAIL
  6
CONTINUOUS
 62
     5
 10
-157.5
 20
157.000708
 30
0.0
 11
-157.5
 21
61.000708000000003
 31
0.0
  0
LINE
  5
BB
  8
DETAIL
  6
CONTINUOUS
 62
     5
 10
-157.5
 20
60.0
 30
0.0
 11
-157.5
 21
158.0
 31
0.0
  0
LINE
  5
BC
  8
DETAIL
  6
CONTINUOUS
 62
     5
 10
-120.5
 20
156.78517099999999
 30
0.0
 11
-120.5
 21
56.052545000000002
 31
0.0
  0
LINE
  5
BD
  8
DETAIL
  6
CONTINUOUS
 62
     5
 10
-64.571064000000007
 20
131.0
 30
0.0
 11
-71.001844999999989
 21
155.0
 31
0.0
  0
LINE
  5
BE
  8
DETAIL
  6
CONTINUOUS
 62
     5
 10
-64.571064000000007
 20
131.0
 30
0.0
 11
-70.797719999999998
 21
154.2381959999999
 31
0.0
  0
LINE
  5
BF
  8
DETAIL
  6
CONTINUOUS
 62
     5
 10
-85.000443000000004
 20
155.11492100000001
 30
0.0
 11
-85.294527999999985
 21
131.0
 31
0.0
  0
LINE
  5
C0
  8
DETAIL
  6
CONTINUOUS
 62
     5
 10
-98.294465000000017
 20
155.0
 30
0.0
 11
-98.294465000000017
 21
131.0
 31
0.0
  0
LINE
  5
C1
  8
DETAIL
  6
CONTINUOUS
 62
     5
 10
-91.793922999999992
 20
155.0
 30
0.0
 11
-91.369963999999996
 21
131.00017600000001
 31
0.0
  0
LINE
  5
C2
  8
DETAIL
  6
CONTINUOUS
 62
     5
 10
-81.838127999999998
 20
134.40500399999991
 30
0.0
 11
-82.103639999999999
 21
155.14020099999991
 31
0.0
  0
ARC
  5
C3
  8
DETAIL
  6
CONTINUOUS
 62
     5
 10
-73.243131999999974
 20
139.5
 30
0.0
 40
3.0
 50
0.0
 51
90.0
  0
ARC
  5
C4
  8
DETAIL
  6
CONTINUOUS
 62
     5
 10
-77.243131999999989
 20
139.5
 30
0.0
 40
3.0
 50
90.0
 51
180.0
  0
LINE
  5
C5
  8
DETAIL
  6
CONTINUOUS
 62
     5
 10
-98.294465000000017
 20
155.0
 30
0.0
 11
-98.294465000000017
 21
131.0
 31
0.0
  0
LINE
  5
C6
  8
DETAIL
  6
CONTINUOUS
 62
     5
 10
-91.794904999999986
 20
155.05562599999999
 30
0.0
 11
-91.369963999999996
 21
131.00017600000001
 31
0.0
  0
LINE
  5
C7
  8
DETAIL
  6
CONTINUOUS
 62
     5
 10
-54.368935
 20
166.50872599999991
 30
0.0
 11
-54.971591000000011
 21
131.98254800000001
 31
0.0
  0
LINE
  5
C8
  8
DETAIL
  6
CONTINUOUS
 62
     5
 10
-20.0
 20
131.0
 30
0.0
 11
-98.987021000000013
 21
131.0
 31
0.0
  0
LINE
  5
C9
  8
DETAIL
  6
CONTINUOUS
 62
     5
 10
-20.0
 20
131.0
 30
0.0
 11
-96.247992000000011
 21
131.0
 31
0.0
  0
ARC
  5
CA
  8
DETAIL
  6
DASHED
 62
     5
 10
-162.794465
 20
129.000708
 30
0.0
 40
64.5
 50
270.0
 51
323.55584199999993
  0
LINE
  5
CB
  8
DETAIL
  6
DASHED
 62
     5
 10
-162.794465
 20
62.000707999999989
 30
0.0
 11
-162.794465
 21
109.576171
 31
0.0
  0
LINE
  5
CC
  8
BASIS
  6
DASHDOT
 62
     6
 10
-158.27726799999991
 20
129.64695599999999
 30
0.0
 11
-167.51163500000001
 21
129.64695599999999
 31
0.0
  0
LINE
  5
CD
  8
DETAIL
  6
DASHED
 62
     5
 10
-159.54989499999991
 20
127.2896379999999
 30
0.0
 11
-165.79940500000001
 21
131.83017299999989
 31
0.0
  0
CIRCLE
  5
CE
  8
DETAIL
  6
DASHED
 62
     5
 10
-162.794465
 20
129.64695599999999
 30
0.0
 40
2.0
  0
ARC
  5
CF
  8
DETAIL
  6
CONTINUOUS
 62
     5
 10
-98.987021000000013
 20
129.0
 30
0.0
 40
2.0
 50
90.0
 51
179.0
  0
LINE
  5
D0
  8
DETAIL
  6
DASHDOT
 62
     5
 10
-110.906761
 20
90.684050999999997
 30
0.0
 11
-110.31897600000001
 21
91.493068000000008
 31
0.0
  0
LINE
  5
D1
  8
DETAIL
  6
CONTINUOUS
 62
     5
 10
-65.243131999999989
 20
131.0
 30
0.0
 11
-70.243131999999989
 21
136.0
 31
0.0
  0
LINE
  5
D2
  8
DETAIL
  6
CONTINUOUS
 62
     5
 10
-65.243131999999989
 20
131.0
 30
0.0
 11
-70.243131999999989
 21
136.0
 31
0.0
  0
LINE
  5
D3
  8
DETAIL
  6
CONTINUOUS
 62
     5
 10
-73.243131999999974
 20
142.5
 30
0.0
 11
-77.243131999999989
 21
142.5
 31
0.0
  0
LINE
  5
D4
  8
DETAIL
  6
CONTINUOUS
 62
     5
 10
-70.243131999999989
 20
131.0
 30
0.0
 11
-70.243131999999989
 21
139.5
 31
0.0
  0
LINE
  5
D5
  8
DETAIL
  6
CONTINUOUS
 62
     5
 10
-80.243131999999989
 20
131.0
 30
0.0
 11
-80.243131999999989
 21
139.5
 31
0.0
  0
LINE
  5
D6
  8
DETAIL
  6
CONTINUOUS
 62
     5
 10
-75.993112999999994
 20
131.0
 30
0.0
 11
-75.993112999999994
 21
136.0
 31
0.0
  0
LINE
  5
D7
  8
DETAIL
  6
CONTINUOUS
 62
     5
 10
-74.493112999999994
 20
131.0
 30
0.0
 11
-74.493112999999994
 21
136.0
 31
0.0
  0
LINE
  5
D8
  8
DETAIL
  6
CONTINUOUS
 62
     5
 10
-75.993112999999994
 20
136.0
 30
0.0
 11
-74.493112999999994
 21
136.0
 31
0.0
  0
LINE
  5
D9
  8
DETAIL
  6
CONTINUOUS
 62
     5
 10
-80.243131999999989
 20
136.0
 30
0.0
 11
-85.243131999999989
 21
131.0
 31
0.0
  0
LINE
  5
DA
  8
DETAIL
  6
CONTINUOUS
 62
     5
 10
-80.243131999999989
 20
136.0
 30
0.0
 11
-85.243131999999989
 21
131.0
 31
0.0
  0
ARC
  5
DB
  8
DETAIL
  6
CONTINUOUS
 62
     5
 10
-55.971438999999997
 20
132.0
 30
0.0
 40
1.0
 50
270.0
 51
359.0
  0
LINE
  5
DC
  8
DETAIL
  6
CONTINUOUS
 62
     5
 10
-76.088930000000005
 20
157.19276599999989
 30
0.0
 11
-150.4855409999999
 21
156.53645800000001
 31
0.0
  0
LINE
  5
DD
  8
DETAIL
  6
CONTINUOUS
 62
     5
 10
-114.08892999999991
 20
163.25377800000001
 30
0.0
 11
-65.088930000000005
 21
163.25377800000001
 31
0.0
  0
LINE
  5
DE
  8
DETAIL
  6
CONTINUOUS
 62
     5
 10
-75.080202999999997
 20
155.201493
 30
0.0
 11
-91.165047000000001
 21
155.06112300000001
 31
0.0
  0
LINE
  5
DF
  8
DETAIL
  6
DASHDOT
 62
     5
 10
-182.3214889999999
 20
143.80595600000001
 30
0.0
 11
-182.90927400000001
 21
142.99693899999991
 31
0.0
  0
LINE
  5
E0
  8
DETAIL
  6
CONTINUOUS
 62
     5
 10
-150.4855409999999
 20
156.53645800000001
 30
0.0
 11
-150.4855409999999
 21
161.5
 31
0.0
  0
LINE
  5
E1
  8
DETAIL
  6
CONTINUOUS
 62
     5
 10
-150.4855409999999
 20
156.53645800000001
 30
0.0
 11
-150.4855409999999
 21
161.50070799999989
 31
0.0
  0
LINE
  5
E2
  8
DETAIL
  6
CONTINUOUS
 62
     5
 10
-98.169032000000001
 20
155.0
 30
0.0
 11
-99.500152000000014
 21
155.0
 31
0.0
  0
LINE
  5
E3
  8
DETAIL
  6
CONTINUOUS
 62
     5
 10
-91.165047000000001
 20
155.06112300000001
 30
0.0
 11
-98.169032000000001
 21
155.0
 31
0.0
  0
ARC
  5
E4
  8
DETAIL
  6
CONTINUOUS
 62
     5
 10
-99.500152000000014
 20
154.0
 30
0.0
 40
1.0
 50
90.0
 51
179.0
  0
LINE
  5
E5
  8
DETAIL
  6
CONTINUOUS
 62
     5
 10
-119.08893
 20
156.817511
 30
0.0
 11
-119.08893
 21
158.25377800000001
 31
0.0
  0
ARC
  5
E6
  8
DETAIL
  6
CONTINUOUS
 62
     5
 10
-114.08892999999991
 20
158.25377800000001
 30
0.0
 40
5.0
 50
90.0
 51
180.0
  0
ARC
  5
E7
  8
DETAIL
  6
CONTINUOUS
 62
     5
 10
-80.951660000000004
 20
192.0
 30
0.0
 40
3.0
 50
11.809507999999999
 51
90.0
  0
ARC
  5
E8
  8
DETAIL
  6
CONTINUOUS
 62
     5
 10
-80.951660000000004
 20
192.0
 30
0.0
 40
3.0
 50
11.809507999999999
 51
90.0
  0
LINE
  5
E9
  8
DETAIL
  6
CONTINUOUS
 62
     5
 10
-64.088930000000005
 20
156.297451
 30
0.0
 11
-74.088930000000005
 21
156.210182
 31
0.0
  0
LINE
  5
EA
  8
DETAIL
  6
CONTINUOUS
 62
     5
 10
-64.11510899999999
 20
158.29729800000001
 30
0.0
 11
-75.097656000000001
 21
158.20145500000001
 31
0.0
  0
LINE
  5
EB
  8
DETAIL
  6
CONTINUOUS
 62
     5
 10
-82.207532999999998
 20
163.25377800000001
 30
0.0
 11
-82.550179
 21
190.01280399999999
 31
0.0
  0
LINE
  5
EC
  8
DETAIL
  6
CONTINUOUS
 62
     5
 10
-71.001844999999989
 20
155.0
 30
0.0
 11
-71.109995999999995
 21
156.23617899999991
 31
0.0
  0
LINE
  5
ED
  8
DETAIL
  6
CONTINUOUS
 62
     5
 10
-84.550178999999986
 20
192.03658300000001
 30
0.0
 11
-84.901189000000002
 21
163.25377800000001
 31
0.0
  0
LINE
  5
EE
  8
DETAIL
  6
CONTINUOUS
 62
     5
 10
-71.876409999999993
 20
163.25377800000001
 30
0.0
 11
-78.015159999999995
 21
192.61397500000001
 31
0.0
  0
ARC
  5
EF
  8
DETAIL
  6
CONTINUOUS
 62
     5
 10
-83.574941000000024
 20
190.0
 30
0.0
 40
1.0
 50
90.0
 51
179.30130600000001
  0
LINE
  5
F0
  8
DETAIL
  6
CONTINUOUS
 62
     5
 10
-83.574941000000024
 20
191.0
 30
0.0
 11
-83.550096999999994
 21
191.0
 31
0.0
  0
ARC
  5
F1
  8
DETAIL
  6
CONTINUOUS
 62
     5
 10
-83.550096999999994
 20
190.0
 30
0.0
 40
1.0
 50
0.733625
 51
90.0
  0
ARC
  5
F2
  8
DETAIL
  6
CONTINUOUS
 62
     5
 10
-83.574941000000024
 20
190.0
 30
0.0
 40
1.0
 50
90.0
 51
179.30130600000001
  0
LINE
  5
F3
  8
DETAIL
  6
CONTINUOUS
 62
     5
 10
-83.574941000000024
 20
191.0
 30
0.0
 11
-83.550096999999994
 21
191.0
 31
0.0
  0
ARC
  5
F4
  8
DETAIL
  6
CONTINUOUS
 62
     5
 10
-83.550096999999994
 20
190.0
 30
0.0
 40
1.0
 50
0.733625
 51
90.0
  0
LINE
  5
F5
  8
DETAIL
  6
CONTINUOUS
 62
     5
 10
-74.088930000000005
 20
156.84770299999991
 30
0.0
 11
-74.088930000000005
 21
156.85642999999999
 31
0.0
  0
LINE
  5
F6
  8
DETAIL
  6
CONTINUOUS
 62
     5
 10
-76.088930000000005
 20
157.19276599999989
 30
0.0
 11
-76.088930000000005
 21
157.20149299999991
 31
0.0
  0
ARC
  5
F7
  8
DETAIL
  6
CONTINUOUS
 62
     5
 10
-75.088930000000005
 20
157.20149299999991
 30
0.0
 40
1.0
 50
90.5
 51
180.0
  0
ARC
  5
F8
  8
DETAIL
  6
CONTINUOUS
 62
     5
 10
-75.088930000000005
 20
156.20145500000001
 30
0.0
 40
1.0
 50
270.5
 51
0.0
  0
LINE
  5
F9
  8
DETAIL
  6
CONTINUOUS
 62
     5
 10
-79.088930000000005
 20
157.166586
 30
0.0
 11
-79.088930000000005
 21
158.25377800000001
 31
0.0
  0
ARC
  5
FA
  8
DETAIL
  6
CONTINUOUS
 62
     5
 10
-84.088930000000005
 20
158.25377800000001
 30
0.0
 40
5.0
 50
0.0
 51
90.0
  0
LINE
  5
FB
  8
DETAIL
  6
CONTINUOUS
 62
     5
 10
-64.088930000000005
 20
156.297451
 30
0.0
 11
-64.088930000000005
 21
162.25377800000001
 31
0.0
  0
ARC
  5
FC
  8
DETAIL
  6
CONTINUOUS
 62
     5
 10
-65.088930000000005
 20
162.25377800000001
 30
0.0
 40
1.0
 50
0.0
 51
90.0
  0
LINE
  5
FD
  8
DETAIL
  6
CONTINUOUS
 62
     5
 10
-81.550402000000005
 20
195.0
 30
0.0
 11
-80.951660000000004
 21
195.0
 31
0.0
  0
LINE
  5
FE
  8
DETAIL
  6
CONTINUOUS
 62
     5
 10
-81.550402000000005
 20
195.0
 30
0.0
 11
-80.951660000000004
 21
195.0
 31
0.0
  0
ARC
  5
FF
  8
DETAIL
  6
CONTINUOUS
 62
     5
 10
-81.550402000000005
 20
192.0
 30
0.0
 40
3.0
 50
90.0
 51
179.30130600000001
  0
ARC
  5
100
  8
DETAIL
  6
CONTINUOUS
 62
     5
 10
-81.550402000000005
 20
192.0
 30
0.0
 40
3.0
 50
90.0
 51
179.30130600000001
  0
LINE
  5
101
  8
DETAIL
  6
CONTINUOUS
 62
     5
 10
-51.409999999999997
 20
162.0
 30
0.0
 11
-51.409999999999997
 21
167.0
 31
0.0
  0
LINE
  5
102
  8
DETAIL
  6
CONTINUOUS
 62
     5
 10
-51.409999999999997
 20
165.464347
 30
0.0
 11
-48.0
 21
162.0
 31
0.0
  0
ARC
  5
103
  8
DETAIL
  6
CONTINUOUS
 62
     5
 10
-53.869011
 20
166.5
 30
0.0
 40
0.5
 50
90.0
 51
179.0
  0
LINE
  5
104
  8
DETAIL
  6
CONTINUOUS
 62
     5
 10
-51.409999999999997
 20
167.0
 30
0.0
 11
-53.869011
 21
167.0
 31
0.0
  0
LINE
  5
105
  8
BASIS
  6
DASHDOT
 62
     6
 10
-6.0
 20
145.82956899999991
 30
0.0
 11
-6.0
 21
199.94005799999991
 31
0.0
  0
LINE
  5
106
  8
DETAIL
  6
CONTINUOUS
 62
     5
 10
87.998401000000001
 20
0.0
 30
0.0
 11
85.092131999999992
 21
166.5
 31
0.0
  0
LINE
  5
107
  8
DETAIL
  6
CONTINUOUS
 62
     5
 10
103.49996299999989
 20
45.182949999999998
 30
0.0
 11
103.49996299999989
 21
160.19975600000001
 31
0.0
  0
LINE
  5
108
  8
DETAIL
  6
CONTINUOUS
 62
     5
 10
73.989937999999995
 20
138.15355199999991
 30
0.0
 11
75.017387999999997
 21
164.577707
 31
0.0
  0
LINE
  5
109
  8
DETAIL
  6
DASHED
 62
     5
 10
154.55595699999989
 20
147.71447000000001
 30
0.0
 11
154.55595699999989
 21
58.995801
 31
0.0
  0
LINE
  5
10A
  8
BASIS
  6
DASHDOT
 62
     6
 10
138.84167099999991
 20
132.00018499999999
 30
0.0
 11
170.270242
 21
132.00018499999999
 31
0.0
  0
LINE
  5
10B
  8
DETAIL
  6
DASHED
 62
     5
 10
184.0301979999999
 20
125.99073899999991
 30
0.0
 11
130.28432699999991
 21
125.99073899999991
 31
0.0
  0
LINE
  5
10C
  8
DETAIL
  6
DASHED
 62
     5
 10
149.518922
 20
126.7907389999999
 30
0.0
 11
130.28257899999991
 21
126.7907389999999
 31
0.0
  0
LINE
  5
10D
  8
DETAIL
  6
CONTINUOUS
 62
     5
 10
102.7145219999999
 20
45.0
 30
0.0
 11
103.4999999999999
 21
0.0
 31
0.0
  0
LINE
  5
10E
  8
DETAIL
  6
CONTINUOUS
 62
     5
 10
73.989937999999995
 20
138.15355199999991
 30
0.0
 11
61.599623000000001
 21
131.0
 31
0.0
  0
LINE
  5
10F
  8
DETAIL
  6
DASHED
 62
     5
 10
130.28432699999991
 20
126.7907389999999
 30
0.0
 11
130.28432699999991
 21
125.99073899999991
 31
0.0
  0
ARC
  5
110
  8
DETAIL
  6
DASHED
 62
     5
 10
154.57805200000001
 20
132.2051699999999
 30
0.0
 40
73.209372000000002
 50
269.98270699999989
 51
349.2389740000001
  0
LINE
  5
111
  8
DETAIL
  6
DASHED
 62
     5
 10
213.584327
 20
121.59188999999991
 30
0.0
 11
184.100189
 21
126.7907389999999
 31
0.0
  0
LINE
  5
112
  8
DETAIL
  6
DASHED
 62
     5
 10
213.584327
 20
120.779549
 30
0.0
 11
184.0301979999999
 21
125.99073899999991
 31
0.0
  0
LINE
  5
113
  8
DETAIL
  6
DASHED
 62
     5
 10
184.100189
 20
126.7907389999999
 30
0.0
 11
159.51917299999991
 21
126.7907389999999
 31
0.0
  0
LINE
  5
114
  8
DETAIL
  6
DASHED
 62
     5
 10
158.319143
 20
126.7907389999999
 30
0.0
 11
155.1190629999999
 21
126.7907389999999
 31
0.0
  0
ARC
  5
115
  8
DETAIL
  6
DASHED
 62
     5
 10
158.92340899999999
 20
127.3907389999999
 30
0.0
 40
0.6
 50
359.59406799999999
 51
90.0
  0
LINE
  5
116
  8
DETAIL
  6
DASHED
 62
     5
 10
158.3234239999999
 20
127.39498999999989
 30
0.0
 11
158.31920400000001
 21
126.7992409999999
 31
0.0
  0
ARC
  5
117
  8
DETAIL
  6
DASHED
 62
     5
 10
158.92340899999999
 20
127.3907389999999
 30
0.0
 40
0.6
 50
90.0
 51
179.59406799999999
  0
LINE
  5
118
  8
DETAIL
  6
DASHED
 62
     5
 10
158.34877700000001
 20
130.973288
 30
0.0
 11
158.3234239999999
 21
127.39498999999989
 31
0.0
  0
LINE
  5
119
  8
DETAIL
  6
DASHED
 62
     5
 10
159.52339399999991
 20
127.3864879999999
 30
0.0
 11
159.51917299999991
 21
126.7907389999999
 31
0.0
  0
LINE
  5
11A
  8
DETAIL
  6
DASHED
 62
     5
 10
159.56173499999991
 20
132.7980729999999
 30
0.0
 11
159.52339399999991
 21
127.3864879999999
 31
0.0
  0
LINE
  5
11B
  8
DETAIL
  6
DASHED
 62
     5
 10
158.34877700000001
 20
130.973288
 30
0.0
 11
159.54874599999999
 21
130.964786
 31
0.0
  0
CIRCLE
  5
11C
  8
DETAIL
  6
DASHED
 62
     5
 10
154.55595699999989
 20
132.00018499999999
 30
0.0
 40
2.1000000000000001
  0
CIRCLE
  5
11D
  8
DETAIL
  6
DASHED
 62
     5
 10
154.55595699999989
 20
132.00018499999999
 30
0.0
 40
2.1000000000000001
  0
LINE
  5
11E
  8
DETAIL
  6
DASHED
 62
     5
 10
155.12328400000001
 20
127.3864879999999
 30
0.0
 11
155.1190629999999
 21
126.7907389999999
 31
0.0
  0
ARC
  5
11F
  8
DETAIL
  6
DASHED
 62
     5
 10
154.52329900000001
 20
127.3907389999999
 30
0.0
 40
0.6
 50
359.59406799999999
 51
90.0
  0
LINE
  5
120
  8
DETAIL
  6
DASHED
 62
     5
 10
153.91903300000001
 20
126.7907389999999
 30
0.0
 11
150.71895299999991
 21
126.7907389999999
 31
0.0
  0
ARC
  5
121
  8
DETAIL
  6
DASHED
 62
     5
 10
154.52329900000001
 20
127.3907389999999
 30
0.0
 40
0.6
 50
90.0
 51
179.59406799999999
  0
LINE
  5
122
  8
DETAIL
  6
DASHED
 62
     5
 10
153.92331399999989
 20
127.39498999999989
 30
0.0
 11
153.91903300000001
 21
126.7907389999999
 31
0.0
  0
LINE
  5
123
  8
DETAIL
  6
DASHED
 62
     5
 10
150.72317299999989
 20
127.3864879999999
 30
0.0
 11
150.7188919999999
 21
126.78223799999989
 31
0.0
  0
ARC
  5
124
  8
DETAIL
  6
DASHED
 62
     5
 10
150.12318899999991
 20
127.3907389999999
 30
0.0
 40
0.6
 50
359.59406799999999
 51
90.0
  0
LINE
  5
125
  8
DETAIL
  6
DASHED
 62
     5
 10
149.5489969999999
 20
131.03563399999999
 30
0.0
 11
150.74896699999999
 21
131.02713199999999
 31
0.0
  0
LINE
  5
126
  8
DETAIL
  6
DASHED
 62
     5
 10
149.56198599999999
 20
132.868921
 30
0.0
 11
149.52320399999991
 21
127.39498999999989
 31
0.0
  0
ARC
  5
127
  8
DETAIL
  6
DASHED
 62
     5
 10
150.12318899999991
 20
127.3907389999999
 30
0.0
 40
0.6
 50
90.0
 51
179.59406799999999
  0
LINE
  5
128
  8
DETAIL
  6
DASHED
 62
     5
 10
150.74896699999999
 20
131.02713199999999
 30
0.0
 11
150.72317299999989
 21
127.3864879999999
 31
0.0
  0
LINE
  5
129
  8
DETAIL
  6
DASHED
 62
     5
 10
149.52320399999991
 20
127.39498999999989
 30
0.0
 11
149.518922
 21
126.7907389999999
 31
0.0
  0
ARC
  5
12A
  8
DETAIL
  6
DASHED
 62
     5
 10
154.55595699999989
 20
132.00018499999999
 30
0.0
 40
5.0
 50
18.518713000000002
 51
160.66942399999991
  0
LINE
  5
12B
  8
DETAIL
  6
DASHED
 62
     5
 10
149.56198599999999
 20
132.868921
 30
0.0
 11
149.83783500000001
 21
133.6552749999999
 31
0.0
  0
LINE
  5
12C
  8
DETAIL
  6
DASHED
 62
     5
 10
159.56173499999991
 20
132.7980729999999
 30
0.0
 11
159.297057
 21
133.58825599999989
 31
0.0
  0
LINE
  5
12D
  8
DETAIL
  6
DASHED
 62
     5
 10
184.0301979999999
 20
125.99073899999991
 30
0.0
 11
168.584327
 21
125.99073899999991
 31
0.0
  0
LINE
  5
12E
  8
DETAIL
  6
DASHED
 62
     5
 10
184.100189
 20
126.7907389999999
 30
0.0
 11
168.584327
 21
126.7907389999999
 31
0.0
  0
LINE
  5
12F
  8
DETAIL
  6
DASHED
 62
     5
 10
226.5
 20
118.5360219999999
 30
0.0
 11
213.584327
 21
120.779549
 31
0.0
  0
LINE
  5
130
  8
DETAIL
  6
DASHED
 62
     5
 10
226.5
 20
119.34836300000001
 30
0.0
 11
213.584327
 21
121.59188999999991
 31
0.0
  0
LINE
  5
131
  8
DETAIL
  6
DASHED
 62
     5
 10
226.5
 20
118.5360219999999
 30
0.0
 11
226.5
 21
119.34836300000001
 31
0.0
  0
LINE
  5
132
  8
DETAIL
  6
CONTINUOUS
 62
     5
 10
71.499962999999994
 20
177.50018499999999
 30
0.0
 11
94.499962999999994
 21
177.50018499999999
 31
0.0
  0
LINE
  5
133
  8
DETAIL
  6
CONTINUOUS
 62
     5
 10
70.499962999999994
 20
172.50018499999999
 30
0.0
 11
95.499962999999994
 21
172.50018499999999
 31
0.0
  0
LINE
  5
134
  8
DETAIL
  6
CONTINUOUS
 62
     5
 10
91.031040000000004
 20
195.0
 30
0.0
 11
81.031040000000004
 21
195.0
 31
0.0
  0
LINE
  5
135
  8
DETAIL
  6
CONTINUOUS
 62
     5
 10
81.031040000000004
 20
195.0
 30
0.0
 11
78.719300000000004
 21
177.50018499999999
 31
0.0
  0
LINE
  5
136
  8
DETAIL
  6
CONTINUOUS
 62
     5
 10
74.917158999999984
 20
162.0
 30
0.0
 11
41.464937999999997
 21
162.0
 31
0.0
  0
LINE
  5
137
  8
DETAIL
  6
CONTINUOUS
 62
     5
 10
77.913894999999997
 20
166.5
 30
0.0
 11
78.531040000000004
 21
170.0
 31
0.0
  0
LINE
  5
138
  8
DETAIL
  6
CONTINUOUS
 62
     5
 10
85.092131999999992
 20
166.5
 30
0.0
 11
77.015878000000001
 21
166.5
 31
0.0
  0
LINE
  5
139
  8
DETAIL
  6
CONTINUOUS
 62
     5
 10
78.531040000000004
 20
170.0
 30
0.0
 11
78.53976999999999
 21
170.50018499999999
 31
0.0
  0
ARC
  5
13A
  8
DETAIL
  6
CONTINUOUS
 62
     5
 10
77.015878000000001
 20
164.5
 30
0.0
 40
2.0
 50
90.0
 51
177.773292
  0
ARC
  5
13B
  8
DETAIL
  6
CONTINUOUS
 62
     5
 10
71.499962999999994
 20
176.50018499999999
 30
0.0
 40
1.0
 50
90.0
 51
180.0
  0
LINE
  5
13C
  8
DETAIL
  6
CONTINUOUS
 62
     5
 10
70.499962999999994
 20
170.50018499999999
 30
0.0
 11
83.056914000000006
 21
170.50018499999999
 31
0.0
  0
LINE
  5
13D
  8
DETAIL
  6
CONTINUOUS
 62
     5
 10
70.499962999999994
 20
176.50018499999999
 30
0.0
 11
70.499962999999994
 21
170.50018499999999
 31
0.0
  0
ARC
  5
13E
  8
DETAIL
  6
CONTINUOUS
 62
     5
 10
83.056914000000006
 20
168.50018499999999
 30
0.0
 40
2.0
 50
1.0
 51
90.0
  0
LINE
  5
13F
  8
DETAIL
  6
CONTINUOUS
 62
     5
 10
41.464937999999997
 20
162.0
 30
0.0
 11
41.447634999999991
 21
162.0
 31
0.0
  0
LINE
  5
140
  8
DETAIL
  6
CONTINUOUS
 62
     5
 10
143.5
 20
159.49999999999989
 30
0.0
 11
101.645099
 21
160.23220399999991
 31
0.0
  0
ARC
  5
141
  8
DETAIL
  6
CONTINUOUS
 62
     5
 10
101.66254499999999
 20
161.2316449999999
 30
0.0
 40
1.0
 50
181.0
 51
269.0
  0
LINE
  5
142
  8
DETAIL
  6
CONTINUOUS
 62
     5
 10
100.61406700000001
 20
164.00018499999999
 30
0.0
 11
100.66269699999989
 21
161.21419299999991
 31
0.0
  0
LINE
  5
143
  8
DETAIL
  6
CONTINUOUS
 62
     5
 10
100.5
 20
170.53509
 30
0.0
 11
100.61406700000001
 21
164.00018499999999
 31
0.0
  0
ARC
  5
144
  8
DETAIL
  6
CONTINUOUS
 62
     5
 10
98.500305000000026
 20
170.50018499999999
 30
0.0
 40
2.0
 50
1.0
 51
90.0
  0
LINE
  5
145
  8
DETAIL
  6
CONTINUOUS
 62
     5
 10
93.342779000000007
 20
177.50018499999999
 30
0.0
 11
91.031040000000004
 21
195.0
 31
0.0
  0
ARC
  5
146
  8
DETAIL
  6
CONTINUOUS
 62
     5
 10
94.499962999999994
 20
176.50018499999999
 30
0.0
 40
1.0
 50
0.0
 51
90.0
  0
LINE
  5
147
  8
DETAIL
  6
CONTINUOUS
 62
     5
 10
95.499962999999994
 20
176.50018499999999
 30
0.0
 11
95.499962999999994
 21
172.50018499999999
 31
0.0
  0
LINE
  5
148
  8
DETAIL
  6
CONTINUOUS
 62
     5
 10
95.499962999999994
 20
172.50018499999999
 30
0.0
 11
98.52360400000002
 21
172.50018499999999
 31
0.0
  0
LINE
  5
149
  8
DETAIL
  6
CONTINUOUS
 62
     5
 10
143.5
 20
54.5
 30
0.0
 11
143.5
 21
159.49999999999989
 31
0.0
  0
LINE
  5
14A
  8
DETAIL
  6
CONTINUOUS
 62
     5
 10
183.49999999999989
 20
58.0
 30
0.0
 11
183.49999999999989
 21
156.0
 31
0.0
  0
LINE
  5
14B
  8
DETAIL
  6
CONTINUOUS
 62
     5
 10
213.5
 20
58.0
 30
0.0
 11
213.5
 21
156.0
 31
0.0
  0
LINE
  5
14C
  8
DETAIL
  6
CONTINUOUS
 62
     5
 10
179.49999999999989
 20
54.5
 30
0.0
 11
179.49999999999989
 21
159.49999999999989
 31
0.0
  0
LINE
  5
14D
  8
DETAIL
  6
CONTINUOUS
 62
     5
 10
179.49999999999989
 20
54.5
 30
0.0
 11
143.5
 21
54.5
 31
0.0
  0
LINE
  5
14E
  8
DETAIL
  6
CONTINUOUS
 62
     5
 10
183.49999999999989
 20
58.0
 30
0.0
 11
179.49999999999989
 21
54.5
 31
0.0
  0
LINE
  5
14F
  8
DETAIL
  6
CONTINUOUS
 62
     5
 10
213.5
 20
58.0
 30
0.0
 11
183.49999999999989
 21
58.0
 31
0.0
  0
LINE
  5
150
  8
DETAIL
  6
CONTINUOUS
 62
     5
 10
179.49999999999989
 20
159.49999999999989
 30
0.0
 11
143.5
 21
159.49999999999989
 31
0.0
  0
LINE
  5
151
  8
DETAIL
  6
CONTINUOUS
 62
     5
 10
183.49999999999989
 20
156.0
 30
0.0
 11
179.49999999999989
 21
159.49999999999989
 31
0.0
  0
LINE
  5
152
  8
DETAIL
  6
CONTINUOUS
 62
     5
 10
213.5
 20
156.0
 30
0.0
 11
183.49999999999989
 21
156.0
 31
0.0
  0
LINE
  5
153
  8
BASIS
  6
DASHDOT
 62
     6
 10
94.696923999999996
 20
107.0
 30
0.0
 11
232.63551200000001
 21
107.0
 31
0.0
  0
LINE
  5
154
  8
DETAIL
  6
CONTINUOUS
 62
     5
 39
50.0
 10
143.5
 20
54.5
 30
0.0
 11
102.7145219999999
 21
45.0
 31
0.0
  0
LINE
  5
155
  8
DETAIL
  6
CONTINUOUS
 62
     5
 10
-33.5
 20
189.0
 30
0.0
 11
21.499999999999989
 21
189.0
 31
0.0
  0
ARC
  5
156
  8
DETAIL
  6
CONTINUOUS
 62
     5
 10
-33.5
 20
186.0
 30
0.0
 40
3.0
 50
90.0
 51
180.0
  0
LINE
  5
157
  8
DETAIL
  6
CONTINUOUS
 62
     5
 10
-36.5
 20
186.0
 30
0.0
 11
-36.5
 21
162.0
 31
0.0
  0
ARC
  5
158
  8
DETAIL
  6
CONTINUOUS
 62
     5
 10
21.499999999999989
 20
186.0
 30
0.0
 40
3.0
 50
0.0
 51
90.0
  0
LINE
  5
159
  8
DETAIL
  6
CONTINUOUS
 62
     5
 10
24.5
 20
186.0
 30
0.0
 11
24.5
 21
162.0
 31
0.0
  0
CIRCLE
  5
15A
  8
FIX
  6
CONTINUOUS
 62
    11
 39
50.0
 10
0.0
 20
122.0
 30
0.0
 40
7.5
  0
LINE
  5
15B
  8
DETAIL
  6
CONTINUOUS
 62
     5
 39
50.0
 10
20.0
 20
133.9908979999999
 30
0.0
 11
20.0
 21
122.0
 31
0.0
  0
LINE
  5
15C
  8
DETAIL
  6
CONTINUOUS
 62
     5
 39
50.0
 10
-20.0
 20
133.9908979999999
 30
0.0
 11
-20.0
 21
122.0
 31
0.0
  0
LINE
  5
15D
  8
DETAIL
  6
CONTINUOUS
 62
     5
 39
50.0
 10
20.0
 20
114.0593999999999
 30
0.0
 11
20.0
 21
0.0
 31
0.0
  0
LINE
  5
15E
  8
DETAIL
  6
CONTINUOUS
 62
     5
 39
50.0
 10
-20.0
 20
114.0593999999999
 30
0.0
 11
-20.0
 21
0.0
 31
0.0
  0
LINE
  5
15F
  8
DETAIL
  6
CONTINUOUS
 62
     5
 39
50.0
 10
20.0
 20
122.0
 30
0.0
 11
20.0
 21
114.0593999999999
 31
0.0
  0
LINE
  5
160
  8
DETAIL
  6
CONTINUOUS
 62
     5
 39
50.0
 10
-20.0
 20
122.0
 30
0.0
 11
-20.0
 21
114.0593999999999
 31
0.0
  0
LINE
  5
161
  8
DETAIL
  6
CONTINUOUS
 62
     5
 39
50.0
 10
20.0
 20
122.0
 30
0.0
 11
-20.0
 21
122.0
 31
0.0
  0
LINE
  5
162
  8
DETAIL
  6
CONTINUOUS
 62
     5
 39
50.0
 10
20.0
 20
129.4451709999999
 30
0.0
 11
-20.0
 21
129.4451709999999
 31
0.0
  0
LINE
  5
163
  8
DETAIL
  6
CONTINUOUS
 62
     5
 39
50.0
 10
20.0
 20
133.9908979999999
 30
0.0
 11
-20.0
 21
133.9908979999999
 31
0.0
  0
LINE
  5
164
  8
DETAIL
  6
CONTINUOUS
 62
     5
 39
50.0
 10
20.0
 20
127.237751
 30
0.0
 11
-20.0
 21
127.237751
 31
0.0
  0
LINE
  5
165
  8
DETAIL
  6
CONTINUOUS
 62
     5
 39
50.0
 10
20.0
 20
114.0593999999999
 30
0.0
 11
-20.0
 21
114.0593999999999
 31
0.0
  0
LINE
  5
166
  8
NOTE
  6
CONTINUOUS
 62
     4
 10
0.0
 20
102.0
 30
0.0
 11
0.0
 21
142.0
 31
0.0
  0
LINE
  5
167
  8
NOTE
  6
CONTINUOUS
 62
     4
 10
20.0
 20
122.0
 30
0.0
 11
-20.0
 21
122.0
 31
0.0
  0
LINE
  5
168
  8
BASIS
  6
DASHDOT
 62
     6
 10
-89.830286000000001
 20
109.0
 30
0.0
 11
-206.988573
 21
109.0
 31
0.0
  0
LINE
  5
169
  8
DETAIL
  6
CONTINUOUS
 62
     5
 39
50.0
 10
-182.5
 20
60.0
 30
0.0
 11
-182.5
 21
158.0
 31
0.0
  0
LINE
  5
16A
  8
DETAIL
  6
CONTINUOUS
 62
     5
 10
-157.5
 20
158.0
 30
0.0
 11
-182.5
 21
158.0
 31
0.0
  0
LINE
  5
16B
  8
DETAIL
  6
CONTINUOUS
 62
     5
 10
-157.5
 20
60.0
 30
0.0
 11
-182.5
 21
60.0
 31
0.0
  0
LINE
  5
16C
  8
DETAIL
  6
CONTINUOUS
 62
     5
 39
50.0
 10
-152.5
 20
161.5
 30
0.0
 11
-152.5
 21
56.5
 31
0.0
  0
LINE
  5
16D
  8
DETAIL
  6
CONTINUOUS
 62
     5
 39
50.0
 10
-157.5
 20
158.0
 30
0.0
 11
-152.5
 21
161.5
 31
0.0
  0
LINE
  5
16E
  8
DETAIL
  6
CONTINUOUS
 62
     5
 39
50.0
 10
-152.5
 20
161.5
 30
0.0
 11
-150.4855409999999
 21
161.5
 31
0.0
  0
LINE
  5
16F
  8
DETAIL
  6
CONTINUOUS
 62
     5
 39
50.0
 10
-157.5
 20
60.0
 30
0.0
 11
-152.5
 21
56.5
 31
0.0
  0
LINE
  5
170
  8
DETAIL
  6
CONTINUOUS
 62
     5
 39
50.0
 10
-152.5
 20
56.5
 30
0.0
 11
-120.5
 21
56.052545000000002
 31
0.0
  0
LINE
  5
171
  8
DETAIL
  6
CONTINUOUS
 62
     5
 39
50.0
 10
-120.5
 20
56.052545000000002
 30
0.0
 11
-102.720868
 21
40.0
 31
0.0
  0
LINE
  5
172
  8
NOTE
  6
CONTINUOUS
 62
     4
 10
-65.0
 20
-20.0
 30
0.0
 11
-65.0
 21
20.0
 31
0.0
  0
LINE
  5
173
  8
NOTE
  6
CONTINUOUS
 62
     4
 10
-85.0
 20
0.0
 30
0.0
 11
-45.0
 21
0.0
 31
0.0
  0
CIRCLE
  5
174
  8
FIX
  6
CONTINUOUS
 62
    11
 39
50.0
 10
-65.0
 20
0.0
 30
0.0
 40
2.5
  0
LINE
  5
175
  8
OUTLINE
  6
CONTINUOUS
 62
     3
 10
143.0
 20
0.0
 30
0.0
 11
-143.0
 21
0.0
 31
0.0
  0
LINE
  5
176
  8
OUTLINE
  6
CONTINUOUS
 62
     3
 39
50.0
 10
-100.5
 20
154.01745199999991
 30
0.0
 11
-103.4999999999999
 21
0.0
 31
0.0
  0
LINE
  5
177
  8
OUTLINE
  6
CONTINUOUS
 62
     3
 10
-20.0
 20
131.0
 30
0.0
 11
-96.247992000000011
 21
131.0
 31
0.0
  0
LINE
  5
178
  8
OUTLINE
  6
CONTINUOUS
 62
     3
 10
-20.0
 20
131.0
 30
0.0
 11
-98.987021000000013
 21
131.0
 31
0.0
  0
LINE
  5
179
  8
OUTLINE
  6
CONTINUOUS
 62
     3
 10
-98.294465000000017
 20
155.0
 30
0.0
 11
-98.294465000000017
 21
131.0
 31
0.0
  0
LINE
  5
17A
  8
OUTLINE
  6
CONTINUOUS
 62
     3
 10
-98.294465000000017
 20
155.0
 30
0.0
 11
-98.294465000000017
 21
131.0
 31
0.0
  0
ARC
  5
17B
  8
OUTLINE
  6
CONTINUOUS
 62
     3
 10
-98.987021000000013
 20
129.0
 30
0.0
 40
2.0
 50
90.0
 51
179.0
  0
LINE
  5
17C
  8
OUTLINE
  6
CONTINUOUS
 62
     3
 10
-98.169032000000001
 20
155.0
 30
0.0
 11
-99.500152000000014
 21
155.0
 31
0.0
  0
ARC
  5
17D
  8
OUTLINE
  6
CONTINUOUS
 62
     3
 10
-99.500152000000014
 20
154.0
 30
0.0
 40
1.0
 50
90.0
 51
179.0
  0
LINE
  5
17E
  8
OUTLINE
  6
CONTINUOUS
 62
     3
 10
102.7145219999999
 20
45.0
 30
0.0
 11
103.4999999999999
 21
0.0
 31
0.0
  0
LINE
  5
17F
  8
OUTLINE
  6
CONTINUOUS
 62
     3
 10
73.989937999999995
 20
138.15355199999991
 30
0.0
 11
75.017387999999997
 21
164.577707
 31
0.0
  0
LINE
  5
180
  8
OUTLINE
  6
CONTINUOUS
 62
     3
 10
100.5
 20
170.53509
 30
0.0
 11
100.61406700000001
 21
164.00018499999999
 31
0.0
  0
LINE
  5
181
  8
OUTLINE
  6
CONTINUOUS
 62
     3
 10
103.49996299999989
 20
45.182949999999998
 30
0.0
 11
103.49996299999989
 21
160.19975600000001
 31
0.0
  0
LINE
  5
182
  8
OUTLINE
  6
CONTINUOUS
 62
     3
 10
20.0
 20
131.0
 30
0.0
 11
61.599623000000001
 21
131.0
 31
0.0
  0
LINE
  5
183
  8
OUTLINE
  6
CONTINUOUS
 62
     3
 10
73.989937999999995
 20
138.15355199999991
 30
0.0
 11
61.599623000000001
 21
131.0
 31
0.0
  0
LINE
  5
184
  8
OUTLINE
  6
CONTINUOUS
 62
     3
 10
100.61406700000001
 20
164.00018499999999
 30
0.0
 11
100.66269699999989
 21
161.21419299999991
 31
0.0
  0
ARC
  5
185
  8
OUTLINE
  6
CONTINUOUS
 62
     3
 10
101.66254499999999
 20
161.2316449999999
 30
0.0
 40
1.0
 50
181.0
 51
269.0
  0
LINE
  5
186
  8
OUTLINE
  6
CONTINUOUS
 62
     3
 10
71.499962999999994
 20
177.50018499999999
 30
0.0
 11
94.499962999999994
 21
177.50018499999999
 31
0.0
  0
LINE
  5
187
  8
OUTLINE
  6
CONTINUOUS
 62
     3
 10
70.499962999999994
 20
172.50018499999999
 30
0.0
 11
95.499962999999994
 21
172.50018499999999
 31
0.0
  0
LINE
  5
188
  8
OUTLINE
  6
CONTINUOUS
 62
     3
 10
77.913894999999997
 20
166.5
 30
0.0
 11
78.531040000000004
 21
170.0
 31
0.0
  0
LINE
  5
189
  8
OUTLINE
  6
CONTINUOUS
 62
     3
 10
77.913894999999997
 20
166.5
 30
0.0
 11
77.015878000000001
 21
166.5
 31
0.0
  0
LINE
  5
18A
  8
OUTLINE
  6
CONTINUOUS
 62
     3
 10
78.531040000000004
 20
170.0
 30
0.0
 11
78.53976999999999
 21
170.50018499999999
 31
0.0
  0
ARC
  5
18B
  8
OUTLINE
  6
CONTINUOUS
 62
     3
 10
77.015878000000001
 20
164.5
 30
0.0
 40
2.0
 50
90.0
 51
177.773292
  0
ARC
  5
18C
  8
OUTLINE
  6
CONTINUOUS
 62
     3
 10
71.499962999999994
 20
176.50018499999999
 30
0.0
 40
1.0
 50
90.0
 51
180.0
  0
LINE
  5
18D
  8
OUTLINE
  6
CONTINUOUS
 62
     3
 10
70.499962999999994
 20
170.50018499999999
 30
0.0
 11
78.53976999999999
 21
170.50018499999999
 31
0.0
  0
LINE
  5
18E
  8
OUTLINE
  6
CONTINUOUS
 62
     3
 10
70.499962999999994
 20
176.50018499999999
 30
0.0
 11
70.499962999999994
 21
170.50018499999999
 31
0.0
  0
ARC
  5
18F
  8
OUTLINE
  6
CONTINUOUS
 62
     3
 10
98.500305000000026
 20
170.50018499999999
 30
0.0
 40
2.0
 50
1.0
 51
90.0
  0
ARC
  5
190
  8
OUTLINE
  6
CONTINUOUS
 62
     3
 10
94.499962999999994
 20
176.50018499999999
 30
0.0
 40
1.0
 50
0.0
 51
90.0
  0
LINE
  5
191
  8
OUTLINE
  6
CONTINUOUS
 62
     3
 10
95.499962999999994
 20
176.50018499999999
 30
0.0
 11
95.499962999999994
 21
172.50018499999999
 31
0.0
  0
LINE
  5
192
  8
OUTLINE
  6
CONTINUOUS
 62
     3
 10
95.499962999999994
 20
172.50018499999999
 30
0.0
 11
98.52360400000002
 21
172.50018499999999
 31
0.0
  0
LINE
  5
193
  8
OUTLINE
  6
DASHED
 62
     3
 39
50.0
 10
20.0
 20
131.0
 30
0.0
 11
-20.0
 21
131.0
 31
0.0
  0
LINE
  5
194
  8
OUTLINE
  6
CONTINUOUS
 62
     3
 10
103.49996299999989
 20
160.19975600000001
 30
0.0
 11
101.64509200000001
 21
160.231798
 31
0.0
  0
LINE
  5
195
  8
OUTLINE
  6
CONTINUOUS
 62
     3
 10
103.49996299999989
 20
45.182949999999998
 30
0.0
 11
102.7145219999999
 21
45.0
 31
0.0
  0
LINE
  5
196
  8
SIZE
  6
CONTINUOUS
 62
    30
 10
0.0
 20
233.14400099999989
 30
0.0
 11
0.0
 21
387.31337200000002
 31
0.0
  0
LINE
  5
197
  8
SIZE
  6
CONTINUOUS
 62
    30
 10
-6.0
 20
219.94005799999991
 30
0.0
 11
-6.0
 21
387.31337200000002
 31
0.0
  0
LINE
  5
198
  8
SIZE
  6
CONTINUOUS
 62
    30
 10
12.0
 20
367.31337200000002
 30
0.0
 11
24.0
 21
367.31337200000002
 31
0.0
  0
LINE
  5
199
  8
SIZE
  6
CONTINUOUS
 62
    30
 10
-18.0
 20
367.31337200000002
 30
0.0
 11
-30.0
 21
367.31337200000002
 31
0.0
  0
LINE
  5
19A
  8
SIZE
  6
CONTINUOUS
 62
    30
 10
0.0
 20
367.31337200000002
 30
0.0
 11
-6.0
 21
367.31337200000002
 31
0.0
  0
CIRCLE
  5
19B
  8
SIZE
  6
CONTINUOUS
 62
    30
 10
0.0
 20
367.31337200000002
 30
0.0
 40
6.0
  0
LINE
  5
19C
  8
SIZE
  6
CONTINUOUS
 62
    30
 10
0.0
 20
367.31337200000002
 30
0.0
 11
12.0
 21
367.31337200000002
 31
0.0
  0
CIRCLE
  5
19D
  8
SIZE
  6
CONTINUOUS
 62
    30
 10
-6.0
 20
367.31337200000002
 30
0.0
 40
6.0
  0
LINE
  5
19E
  8
SIZE
  6
CONTINUOUS
 62
    30
 10
-6.0
 20
367.31337200000002
 30
0.0
 11
-18.0
 21
367.31337200000002
 31
0.0
  0
TEXT
  5
19F
  8
SIZE
  6
CONTINUOUS
 62
    30
 10
-20.828571428571419
 20
392.31337200000002
 30
0.0
 40
64.0
  1
6
 41
0.9
 72
     1
 11
-3.0
 21
392.31337200000002
 31
0.0
  0
LINE
  5
1A3
  8
SIZE
  6
CONTINUOUS
 62
    30
 10
-202.49999999999989
 20
60.0
 30
0.0
 11
-590.98703899999998
 21
60.0
 31
0.0
  0
LINE
  5
1A4
  8
SIZE
  6
CONTINUOUS
 62
    30
 10
-202.49999999999989
 20
158.0
 30
0.0
 11
-590.98703899999998
 21
158.0
 31
0.0
  0
LINE
  5
1A5
  8
SIZE
  6
CONTINUOUS
 62
    30
 10
-570.98703899999987
 20
72.0
 30
0.0
 11
-570.98703899999987
 21
146.0
 31
0.0
  0
LINE
  5
1A6
  8
SIZE
  6
CONTINUOUS
 62
    30
 10
-570.98703899999987
 20
388.18226600000003
 30
0.0
 11
-570.98703899999987
 21
158.0
 31
0.0
  0
TEXT
  5
1A7
  8
SIZE
  6
CONTINUOUS
 62
    30
 10
-595.98703899999987
 20
203.5479805714285
 30
0.0
 40
64.0
  1
âË98
 50
90.0
 41
0.9
 72
     1
 11
-595.98703899999987
 21
290.49655200000001
 31
0.0
  0
CIRCLE
  5
1A8
  8
SIZE
  6
CONTINUOUS
 62
    30
 10
-570.98703899999987
 20
60.0
 30
0.0
 40
6.0
  0
LINE
  5
1A9
  8
SIZE
  6
CONTINUOUS
 62
    30
 10
-570.98703899999987
 20
60.0
 30
0.0
 11
-570.98703899999987
 21
72.0
 31
0.0
  0
CIRCLE
  5
1AA
  8
SIZE
  6
CONTINUOUS
 62
    30
 10
-570.98703899999987
 20
158.0
 30
0.0
 40
6.0
  0
LINE
  5
1AB
  8
SIZE
  6
CONTINUOUS
 62
    30
 10
-570.98703899999987
 20
158.0
 30
0.0
 11
-570.98703899999987
 21
146.0
 31
0.0
  0
LINE
  5
1AF
  8
SIZE
  6
CONTINUOUS
 62
    30
 10
-172.5
 20
161.5
 30
0.0
 11
-701.56935199999998
 21
161.5
 31
0.0
  0
LINE
  5
1B0
  8
SIZE
  6
CONTINUOUS
 62
    30
 10
-172.5
 20
56.5
 30
0.0
 11
-701.56935199999998
 21
56.5
 31
0.0
  0
LINE
  5
1B1
  8
SIZE
  6
CONTINUOUS
 62
    30
 10
-681.56935199999987
 20
149.5
 30
0.0
 11
-681.56935199999987
 21
68.5
 31
0.0
  0
LINE
  5
1B2
  8
SIZE
  6
CONTINUOUS
 62
    30
 10
-681.56935199999987
 20
429.19908700000002
 30
0.0
 11
-681.56935199999987
 21
161.5
 31
0.0
  0
TEXT
  5
1B3
  8
SIZE
  6
CONTINUOUS
 62
    30
 10
-706.56935199999987
 20
200.67908742857139
 30
0.0
 40
64.0
  1
âË105
 50
90.0
 41
0.9
 72
     1
 11
-706.56935199999987
 21
309.570516
 31
0.0
  0
CIRCLE
  5
1B4
  8
SIZE
  6
CONTINUOUS
 62
    30
 10
-681.56935199999987
 20
161.5
 30
0.0
 40
6.0
  0
LINE
  5
1B5
  8
SIZE
  6
CONTINUOUS
 62
    30
 10
-681.56935199999987
 20
161.5
 30
0.0
 11
-681.56935199999987
 21
149.5
 31
0.0
  0
CIRCLE
  5
1B6
  8
SIZE
  6
CONTINUOUS
 62
    30
 10
-681.56935199999987
 20
56.5
 30
0.0
 40
6.0
  0
LINE
  5
1B7
  8
SIZE
  6
CONTINUOUS
 62
    30
 10
-681.56935199999987
 20
56.5
 30
0.0
 11
-681.56935199999987
 21
68.5
 31
0.0
  0
LINE
  5
1BB
  8
SIZE
  6
CONTINUOUS
 62
    30
 10
-163.0
 20
0.0
 30
0.0
 11
-397.00382400000001
 21
0.0
 31
0.0
  0
LINE
  5
1BC
  8
SIZE
  6
CONTINUOUS
 62
    30
 10
-226.98857299999989
 20
109.0
 30
0.0
 11
-397.00382400000001
 21
109.0
 31
0.0
  0
LINE
  5
1BD
  8
SIZE
  6
CONTINUOUS
 62
    30
 10
-377.00382400000001
 20
12.0
 30
0.0
 11
-377.00382400000001
 21
97.0
 31
0.0
  0
LINE
  5
1BE
  8
SIZE
  6
CONTINUOUS
 62
    30
 10
-377.00382400000001
 20
-198.32020299999991
 30
0.0
 11
-377.00382400000001
 21
0.0
 31
0.0
  0
TEXT
  5
1BF
  8
SIZE
  6
CONTINUOUS
 62
    30
 10
-402.0038239999999
 20
-173.32020299999991
 30
0.0
 40
64.0
  1
109
 50
90.0
 41
0.9
 72
     1
 11
-402.0038239999999
 21
-106.120203
 31
0.0
  0
CIRCLE
  5
1C0
  8
SIZE
  6
CONTINUOUS
 62
    30
 10
-377.00382400000001
 20
0.0
 30
0.0
 40
6.0
  0
LINE
  5
1C1
  8
SIZE
  6
CONTINUOUS
 62
    30
 10
-377.00382400000001
 20
0.0
 30
0.0
 11
-377.00382400000001
 21
12.0
 31
0.0
  0
CIRCLE
  5
1C2
  8
SIZE
  6
CONTINUOUS
 62
    30
 10
-377.00382400000001
 20
109.0
 30
0.0
 40
6.0
  0
LINE
  5
1C3
  8
SIZE
  6
CONTINUOUS
 62
    30
 10
-377.00382400000001
 20
109.0
 30
0.0
 11
-377.00382400000001
 21
97.0
 31
0.0
  0
LINE
  5
1C7
  8
SIZE
  6
CONTINUOUS
 62
    30
 10
233.49999999999989
 20
156.0
 30
0.0
 11
601.41925400000002
 21
156.0
 31
0.0
  0
LINE
  5
1C8
  8
SIZE
  6
CONTINUOUS
 62
    30
 10
233.49999999999989
 20
58.0
 30
0.0
 11
601.41925400000002
 21
58.0
 31
0.0
  0
LINE
  5
1C9
  8
SIZE
  6
CONTINUOUS
 62
    30
 10
581.41925400000002
 20
144.0
 30
0.0
 11
581.41925400000002
 21
70.0
 31
0.0
  0
LINE
  5
1CA
  8
SIZE
  6
CONTINUOUS
 62
    30
 10
581.41925400000002
 20
382.62174700000003
 30
0.0
 11
581.41925400000002
 21
156.0
 31
0.0
  0
TEXT
  5
1CB
  8
SIZE
  6
CONTINUOUS
 62
    30
 10
556.41925400000002
 20
197.98746057142861
 30
0.0
 40
64.0
  1
âË98
 50
90.0
 41
0.9
 72
     1
 11
556.41925400000002
 21
284.93603200000001
 31
0.0
  0
CIRCLE
  5
1CC
  8
SIZE
  6
CONTINUOUS
 62
    30
 10
581.41925400000002
 20
156.0
 30
0.0
 40
6.0
  0
LINE
  5
1CD
  8
SIZE
  6
CONTINUOUS
 62
    30
 10
581.41925400000002
 20
156.0
 30
0.0
 11
581.41925400000002
 21
144.0
 31
0.0
  0
CIRCLE
  5
1CE
  8
SIZE
  6
CONTINUOUS
 62
    30
 10
581.41925400000002
 20
58.0
 30
0.0
 40
6.0
  0
LINE
  5
1CF
  8
SIZE
  6
CONTINUOUS
 62
    30
 10
581.41925400000002
 20
58.0
 30
0.0
 11
581.41925400000002
 21
70.0
 31
0.0
  0
LINE
  5
1D3
  8
SIZE
  6
CONTINUOUS
 62
    30
 10
199.5
 20
159.49999999999989
 30
0.0
 11
722.33898199999999
 21
159.49999999999989
 31
0.0
  0
LINE
  5
1D4
  8
SIZE
  6
CONTINUOUS
 62
    30
 10
199.5
 20
54.5
 30
0.0
 11
722.33898199999999
 21
54.5
 31
0.0
  0
LINE
  5
1D5
  8
SIZE
  6
CONTINUOUS
 62
    30
 10
702.33898199999999
 20
147.5
 30
0.0
 11
702.33898199999999
 21
66.5
 31
0.0
  0
LINE
  5
1D6
  8
SIZE
  6
CONTINUOUS
 62
    30
 10
702.33898199999999
 20
429.37433399999992
 30
0.0
 11
702.33898199999999
 21
159.49999999999989
 31
0.0
  0
TEXT
  5
1D7
  8
SIZE
  6
CONTINUOUS
 62
    30
 10
677.33898199999999
 20
200.85433442857141
 30
0.0
 40
64.0
  1
âË105
 50
90.0
 41
0.9
 72
     1
 11
677.33898199999999
 21
309.74576300000001
 31
0.0
  0
CIRCLE
  5
1D8
  8
SIZE
  6
CONTINUOUS
 62
    30
 10
702.33898199999999
 20
159.49999999999989
 30
0.0
 40
6.0
  0
LINE
  5
1D9
  8
SIZE
  6
CONTINUOUS
 62
    30
 10
702.33898199999999
 20
159.49999999999989
 30
0.0
 11
702.33898199999999
 21
147.5
 31
0.0
  0
CIRCLE
  5
1DA
  8
SIZE
  6
CONTINUOUS
 62
    30
 10
702.33898199999999
 20
54.5
 30
0.0
 40
6.0
  0
LINE
  5
1DB
  8
SIZE
  6
CONTINUOUS
 62
    30
 10
702.33898199999999
 20
54.5
 30
0.0
 11
702.33898199999999
 21
66.5
 31
0.0
  0
LINE
  5
1DF
  8
SIZE
  6
CONTINUOUS
 62
    30
 10
163.0
 20
0.0
 30
0.0
 11
534.67898099999979
 21
0.0
 31
0.0
  0
LINE
  5
1E0
  8
SIZE
  6
CONTINUOUS
 62
    30
 10
252.63551200000001
 20
107.0
 30
0.0
 11
534.67898099999979
 21
107.0
 31
0.0
  0
LINE
  5
1E1
  8
SIZE
  6
CONTINUOUS
 62
    30
 10
514.67898099999991
 20
12.0
 30
0.0
 11
514.67898099999991
 21
95.0
 31
0.0
  0
LINE
  5
1E2
  8
SIZE
  6
CONTINUOUS
 62
    30
 10
514.67898099999991
 20
-208.90068400000001
 30
0.0
 11
514.67898099999991
 21
0.0
 31
0.0
  0
TEXT
  5
1E3
  8
SIZE
  6
CONTINUOUS
 62
    30
 10
489.67898099999991
 20
-183.90068357142849
 30
0.0
 40
64.0
  1
107
 50
90.0
 41
0.9
 72
     1
 11
489.67898099999991
 21
-115.3292549999999
 31
0.0
  0
CIRCLE
  5
1E4
  8
SIZE
  6
CONTINUOUS
 62
    30
 10
514.67898099999991
 20
0.0
 30
0.0
 40
6.0
  0
LINE
  5
1E5
  8
SIZE
  6
CONTINUOUS
 62
    30
 10
514.67898099999991
 20
0.0
 30
0.0
 11
514.67898099999991
 21
12.0
 31
0.0
  0
CIRCLE
  5
1E6
  8
SIZE
  6
CONTINUOUS
 62
    30
 10
514.67898099999991
 20
107.0
 30
0.0
 40
6.0
  0
LINE
  5
1E7
  8
SIZE
  6
CONTINUOUS
 62
    30
 10
514.67898099999991
 20
107.0
 30
0.0
 11
514.67898099999991
 21
95.0
 31
0.0
  0
LINE
  5
1EB
  8
SIZE
  6
CONTINUOUS
 62
    30
 10
-100.5
 20
174.01745199999999
 30
0.0
 11
-100.5
 21
735.29829400000006
 31
0.0
  0
LINE
  5
1EC
  8
SIZE
  6
CONTINUOUS
 62
    30
 10
100.5
 20
190.53509
 30
0.0
 11
100.5
 21
735.29829400000006
 31
0.0
  0
LINE
  5
1ED
  8
SIZE
  6
CONTINUOUS
 62
    30
 10
-88.499999999999986
 20
715.29829400000006
 30
0.0
 11
88.499999999999986
 21
715.29829400000006
 31
0.0
  0
CIRCLE
  5
1EE
  8
SIZE
  6
CONTINUOUS
 62
    30
 10
-100.5
 20
715.29829400000006
 30
0.0
 40
6.0
  0
LINE
  5
1EF
  8
SIZE
  6
CONTINUOUS
 62
    30
 10
-100.5
 20
715.29829400000006
 30
0.0
 11
-88.499999999999986
 21
715.29829400000006
 31
0.0
  0
CIRCLE
  5
1F0
  8
SIZE
  6
CONTINUOUS
 62
    30
 10
100.5
 20
715.29829400000006
 30
0.0
 40
6.0
  0
LINE
  5
1F1
  8
SIZE
  6
CONTINUOUS
 62
    30
 10
100.5
 20
715.29829400000006
 30
0.0
 11
88.499999999999986
 21
715.29829400000006
 31
0.0
  0
TEXT
  5
1F2
  8
SIZE
  6
CONTINUOUS
 62
    30
 10
-61.714285714285701
 20
740.29829400000006
 30
0.0
 40
64.0
  1
201
 41
0.9
 72
     1
 11
0.0
 21
740.29829400000006
 31
0.0
  0
LINE
  5
1F6
  8
SIZE
  6
CONTINUOUS
 62
    30
 10
100.5
 20
190.53509
 30
0.0
 11
100.5
 21
735.29829400000006
 31
0.0
  0
LINE
  5
1F7
  8
SIZE
  6
CONTINUOUS
 62
    30
 10
213.5
 20
176.0
 30
0.0
 11
213.5
 21
735.29829400000006
 31
0.0
  0
LINE
  5
1F8
  8
SIZE
  6
CONTINUOUS
 62
    30
 10
112.5
 20
715.29829400000006
 30
0.0
 11
201.5
 21
715.29829400000006
 31
0.0
  0
LINE
  5
1F9
  8
SIZE
  6
CONTINUOUS
 62
    30
 10
403.67892599999988
 20
715.29829400000006
 30
0.0
 11
213.5
 21
715.29829400000006
 31
0.0
  0
TEXT
  5
1FA
  8
SIZE
  6
CONTINUOUS
 62
    30
 10
252.50749671428559
 20
740.29829400000006
 30
0.0
 40
64.0
  1
113
 41
0.9
 72
     1
 11
315.593211
 21
740.29829400000006
 31
0.0
  0
CIRCLE
  5
1FB
  8
SIZE
  6
CONTINUOUS
 62
    30
 10
100.5
 20
715.29829400000006
 30
0.0
 40
6.0
  0
LINE
  5
1FC
  8
SIZE
  6
CONTINUOUS
 62
    30
 10
100.5
 20
715.29829400000006
 30
0.0
 11
112.5
 21
715.29829400000006
 31
0.0
  0
CIRCLE
  5
1FD
  8
SIZE
  6
CONTINUOUS
 62
    30
 10
213.5
 20
715.29829400000006
 30
0.0
 40
6.0
  0
LINE
  5
1FE
  8
SIZE
  6
CONTINUOUS
 62
    30
 10
213.5
 20
715.29829400000006
 30
0.0
 11
201.5
 21
715.29829400000006
 31
0.0
  0
LINE
  5
202
  8
SIZE
  6
CONTINUOUS
 62
    30
 10
24.5
 20
206.0
 30
0.0
 11
24.5
 21
509.1042129999999
 31
0.0
  0
LINE
  5
203
  8
SIZE
  6
CONTINUOUS
 62
    30
 10
-36.5
 20
206.0
 30
0.0
 11
-36.5
 21
509.1042129999999
 31
0.0
  0
LINE
  5
204
  8
SIZE
  6
CONTINUOUS
 62
    30
 10
36.5
 20
489.10421300000002
 30
0.0
 11
48.5
 21
489.10421300000002
 31
0.0
  0
LINE
  5
205
  8
SIZE
  6
CONTINUOUS
 62
    30
 10
-48.5
 20
489.10421300000002
 30
0.0
 11
-60.5
 21
489.10421300000002
 31
0.0
  0
LINE
  5
206
  8
SIZE
  6
CONTINUOUS
 62
    30
 10
24.5
 20
489.10421300000002
 30
0.0
 11
-36.5
 21
489.10421300000002
 31
0.0
  0
CIRCLE
  5
207
  8
SIZE
  6
CONTINUOUS
 62
    30
 10
24.5
 20
489.10421300000002
 30
0.0
 40
6.0
  0
LINE
  5
208
  8
SIZE
  6
CONTINUOUS
 62
    30
 10
24.5
 20
489.10421300000002
 30
0.0
 11
36.5
 21
489.10421300000002
 31
0.0
  0
CIRCLE
  5
209
  8
SIZE
  6
CONTINUOUS
 62
    30
 10
-36.5
 20
489.10421300000002
 30
0.0
 40
6.0
  0
LINE
  5
20A
  8
SIZE
  6
CONTINUOUS
 62
    30
 10
-36.5
 20
489.10421300000002
 30
0.0
 11
-48.5
 21
489.10421300000002
 31
0.0
  0
TEXT
  5
20B
  8
SIZE
  6
CONTINUOUS
 62
    30
 10
-80.605714285714299
 20
514.10421299999985
 30
0.0
 40
64.0
  1
âË61
 41
0.9
 72
     1
 11
-6.0
 21
514.10421299999985
 31
0.0
  0
LINE
  5
20F
  8
SIZE
  6
CONTINUOUS
 62
    30
 10
143.5
 20
179.49999999999989
 30
0.0
 11
143.5
 21
612.17612199999985
 31
0.0
  0
LINE
  5
210
  8
SIZE
  6
CONTINUOUS
 62
    30
 10
213.5
 20
176.0
 30
0.0
 11
213.5
 21
612.17612199999985
 31
0.0
  0
LINE
  5
211
  8
SIZE
  6
CONTINUOUS
 62
    30
 10
131.49999999999989
 20
592.17612199999985
 30
0.0
 11
119.5
 21
592.17612199999985
 31
0.0
  0
LINE
  5
212
  8
SIZE
  6
CONTINUOUS
 62
    30
 10
225.49999999999989
 20
592.17612199999985
 30
0.0
 11
237.5
 21
592.17612199999985
 31
0.0
  0
LINE
  5
213
  8
SIZE
  6
CONTINUOUS
 62
    30
 10
380.77961699999992
 20
592.17612199999985
 30
0.0
 11
213.5
 21
592.17612199999985
 31
0.0
  0
TEXT
  5
214
  8
SIZE
  6
CONTINUOUS
 62
    30
 10
262.52247357142852
 20
617.17612199999985
 30
0.0
 40
64.0
  1
70
 41
0.9
 72
     1
 11
309.15104500000001
 21
617.17612199999985
 31
0.0
  0
LINE
  5
215
  8
SIZE
  6
CONTINUOUS
 62
    30
 10
143.5
 20
592.17612199999985
 30
0.0
 11
213.5
 21
592.17612199999985
 31
0.0
  0
LINE
  5
216
  8
SIZE
  6
CONTINUOUS
 62
    30
 10
143.5
 20
592.17612199999985
 30
0.0
 11
213.5
 21
592.17612199999985
 31
0.0
  0
CIRCLE
  5
217
  8
SIZE
  6
CONTINUOUS
 62
    30
 10
143.5
 20
592.17612199999985
 30
0.0
 40
6.0
  0
LINE
  5
218
  8
SIZE
  6
CONTINUOUS
 62
    30
 10
143.5
 20
592.17612199999985
 30
0.0
 11
131.49999999999989
 21
592.17612199999985
 31
0.0
  0
CIRCLE
  5
219
  8
SIZE
  6
CONTINUOUS
 62
    30
 10
213.5
 20
592.17612199999985
 30
0.0
 40
6.0
  0
LINE
  5
21A
  8
SIZE
  6
CONTINUOUS
 62
    30
 10
213.5
 20
592.17612199999985
 30
0.0
 11
225.49999999999989
 21
592.17612199999985
 31
0.0
  0
LINE
  5
21E
  8
SIZE
  6
CONTINUOUS
 62
    30
 10
213.5
 20
176.0
 30
0.0
 11
213.5
 21
488.98602499999993
 31
0.0
  0
LINE
  5
21F
  8
SIZE
  6
CONTINUOUS
 62
    30
 10
183.49999999999989
 20
176.0
 30
0.0
 11
183.49999999999989
 21
488.98602499999993
 31
0.0
  0
LINE
  5
220
  8
SIZE
  6
CONTINUOUS
 62
    30
 10
225.49999999999989
 20
468.98602499999993
 30
0.0
 11
237.5
 21
468.98602499999993
 31
0.0
  0
LINE
  5
221
  8
SIZE
  6
CONTINUOUS
 62
    30
 10
171.5
 20
468.98602499999993
 30
0.0
 11
159.49999999999989
 21
468.98602499999993
 31
0.0
  0
LINE
  5
222
  8
SIZE
  6
CONTINUOUS
 62
    30
 10
380.77961699999992
 20
468.98602499999993
 30
0.0
 11
213.5
 21
468.98602499999993
 31
0.0
  0
TEXT
  5
223
  8
SIZE
  6
CONTINUOUS
 62
    30
 10
262.52247357142852
 20
493.98602499999993
 30
0.0
 40
64.0
  1
30
 41
0.9
 72
     1
 11
309.15104500000001
 21
493.98602499999993
 31
0.0
  0
LINE
  5
224
  8
SIZE
  6
CONTINUOUS
 62
    30
 10
213.5
 20
468.98602499999993
 30
0.0
 11
183.49999999999989
 21
468.98602499999993
 31
0.0
  0
LINE
  5
225
  8
SIZE
  6
CONTINUOUS
 62
    30
 10
213.5
 20
468.98602499999993
 30
0.0
 11
183.49999999999989
 21
468.98602499999993
 31
0.0
  0
CIRCLE
  5
226
  8
SIZE
  6
CONTINUOUS
 62
    30
 10
213.5
 20
468.98602499999993
 30
0.0
 40
6.0
  0
LINE
  5
227
  8
SIZE
  6
CONTINUOUS
 62
    30
 10
213.5
 20
468.98602499999993
 30
0.0
 11
225.49999999999989
 21
468.98602499999993
 31
0.0
  0
CIRCLE
  5
228
  8
SIZE
  6
CONTINUOUS
 62
    30
 10
183.49999999999989
 20
468.98602499999993
 30
0.0
 40
6.0
  0
LINE
  5
229
  8
SIZE
  6
CONTINUOUS
 62
    30
 10
183.49999999999989
 20
468.98602499999993
 30
0.0
 11
171.5
 21
468.98602499999993
 31
0.0
  0
LINE
  5
22D
  8
SIZE
  6
CONTINUOUS
 62
    30
 10
-100.5
 20
174.01745199999999
 30
0.0
 11
-100.5
 21
735.29829400000006
 31
0.0
  0
LINE
  5
22E
  8
SIZE
  6
CONTINUOUS
 62
    30
 10
-182.5
 20
178.0
 30
0.0
 11
-182.5
 21
735.29829400000006
 31
0.0
  0
LINE
  5
22F
  8
SIZE
  6
CONTINUOUS
 62
    30
 10
-112.5
 20
715.29829400000006
 30
0.0
 11
-170.5
 21
715.29829400000006
 31
0.0
  0
LINE
  5
230
  8
SIZE
  6
CONTINUOUS
 62
    30
 10
-344.41979399999991
 20
715.29829400000006
 30
0.0
 11
-182.5
 21
715.29829400000006
 31
0.0
  0
TEXT
  5
231
  8
SIZE
  6
CONTINUOUS
 62
    30
 10
-319.41979442857138
 20
740.29829400000006
 30
0.0
 40
64.0
  1
82
 41
0.9
 72
     1
 11
-272.791223
 21
740.29829400000006
 31
0.0
  0
CIRCLE
  5
232
  8
SIZE
  6
CONTINUOUS
 62
    30
 10
-100.5
 20
715.29829400000006
 30
0.0
 40
6.0
  0
LINE
  5
233
  8
SIZE
  6
CONTINUOUS
 62
    30
 10
-100.5
 20
715.29829400000006
 30
0.0
 11
-112.5
 21
715.29829400000006
 31
0.0
  0
CIRCLE
  5
234
  8
SIZE
  6
CONTINUOUS
 62
    30
 10
-182.5
 20
715.29829400000006
 30
0.0
 40
6.0
  0
LINE
  5
235
  8
SIZE
  6
CONTINUOUS
 62
    30
 10
-182.5
 20
715.29829400000006
 30
0.0
 11
-170.5
 21
715.29829400000006
 31
0.0
  0
LINE
  5
239
  8
SIZE
  6
CONTINUOUS
 62
    30
 10
-182.5
 20
178.0
 30
0.0
 11
-182.5
 21
612.17612199999985
 31
0.0
  0
LINE
  5
23A
  8
SIZE
  6
CONTINUOUS
 62
    30
 10
-157.5
 20
177.000708
 30
0.0
 11
-157.5
 21
612.17612199999985
 31
0.0
  0
LINE
  5
23B
  8
SIZE
  6
CONTINUOUS
 62
    30
 10
-194.5
 20
592.17612199999985
 30
0.0
 11
-206.49999999999989
 21
592.17612199999985
 31
0.0
  0
LINE
  5
23C
  8
SIZE
  6
CONTINUOUS
 62
    30
 10
-145.5
 20
592.17612199999985
 30
0.0
 11
-133.49999999999989
 21
592.17612199999985
 31
0.0
  0
LINE
  5
23D
  8
SIZE
  6
CONTINUOUS
 62
    30
 10
-351.93565999999998
 20
592.17612199999985
 30
0.0
 11
-182.5
 21
592.17612199999985
 31
0.0
  0
TEXT
  5
23E
  8
SIZE
  6
CONTINUOUS
 62
    30
 10
-326.9356594285714
 20
617.17612199999985
 30
0.0
 40
64.0
  1
25
 41
0.9
 72
     1
 11
-280.30708799999991
 21
617.17612199999985
 31
0.0
  0
LINE
  5
23F
  8
SIZE
  6
CONTINUOUS
 62
    30
 10
-182.5
 20
592.17612199999985
 30
0.0
 11
-157.5
 21
592.17612199999985
 31
0.0
  0
LINE
  5
240
  8
SIZE
  6
CONTINUOUS
 62
    30
 10
-182.5
 20
592.17612199999985
 30
0.0
 11
-157.5
 21
592.17612199999985
 31
0.0
  0
CIRCLE
  5
241
  8
SIZE
  6
CONTINUOUS
 62
    30
 10
-182.5
 20
592.17612199999985
 30
0.0
 40
6.0
  0
LINE
  5
242
  8
SIZE
  6
CONTINUOUS
 62
    30
 10
-182.5
 20
592.17612199999985
 30
0.0
 11
-194.5
 21
592.17612199999985
 31
0.0
  0
CIRCLE
  5
243
  8
SIZE
  6
CONTINUOUS
 62
    30
 10
-157.5
 20
592.17612199999985
 30
0.0
 40
6.0
  0
LINE
  5
244
  8
SIZE
  6
CONTINUOUS
 62
    30
 10
-157.5
 20
592.17612199999985
 30
0.0
 11
-145.5
 21
592.17612199999985
 31
0.0
  0
TEXT
  5
248
  8
NOTE
  6
CONTINUOUS
 62
     4
 10
-313.33875199999989
 20
65.181034999999994
 30
0.0
 40
64.0
  1
RA
 41
0.9
  0
LINE
  5
249
  8
SIZE
  6
CONTINUOUS
 62
    30
 10
-163.0
 20
0.0
 30
0.0
 11
-520.013913
 21
0.0
 31
0.0
  0
LINE
  5
24A
  8
SIZE
  6
CONTINUOUS
 62
    30
 10
-40.0
 20
122.0
 30
0.0
 11
-520.013913
 21
122.0
 31
0.0
  0
LINE
  5
24B
  8
SIZE
  6
CONTINUOUS
 62
    30
 10
-500.01391299999989
 20
12.0
 30
0.0
 11
-500.01391299999989
 21
110.0
 31
0.0
  0
LINE
  5
24C
  8
SIZE
  6
CONTINUOUS
 62
    30
 10
-500.01391299999989
 20
-199.691632
 30
0.0
 11
-500.01391299999989
 21
0.0
 31
0.0
  0
TEXT
  5
24D
  8
SIZE
  6
CONTINUOUS
 62
    30
 10
-525.01391299999989
 20
-174.6916315714285
 30
0.0
 40
64.0
  1
122
 50
90.0
 41
0.9
 72
     1
 11
-525.01391299999989
 21
-106.120203
 31
0.0
  0
CIRCLE
  5
24E
  8
SIZE
  6
CONTINUOUS
 62
    30
 10
-500.01391299999989
 20
0.0
 30
0.0
 40
6.0
  0
LINE
  5
24F
  8
SIZE
  6
CONTINUOUS
 62
    30
 10
-500.01391299999989
 20
0.0
 30
0.0
 11
-500.01391299999989
 21
12.0
 31
0.0
  0
CIRCLE
  5
250
  8
SIZE
  6
CONTINUOUS
 62
    30
 10
-500.01391299999989
 20
122.0
 30
0.0
 40
6.0
  0
LINE
  5
251
  8
SIZE
  6
CONTINUOUS
 62
    30
 10
-500.01391299999989
 20
122.0
 30
0.0
 11
-500.01391299999989
 21
110.0
 31
0.0
  0
LINE
  5
255
  8
SIZE
  6
CONTINUOUS
 62
    30
 10
-157.5
 20
0.0
 30
0.0
 11
-280.2322069999999
 21
0.0
 31
0.0
  0
LINE
  5
256
  8
SIZE
  6
CONTINUOUS
 62
    30
 10
-122.7208679999999
 20
40.0
 30
0.0
 11
-280.2322069999999
 21
40.0
 31
0.0
  0
LINE
  5
257
  8
SIZE
  6
CONTINUOUS
 62
    30
 10
-260.2322069999999
 20
-12.0
 30
0.0
 11
-260.2322069999999
 21
-24.0
 31
0.0
  0
LINE
  5
258
  8
SIZE
  6
CONTINUOUS
 62
    30
 10
-260.2322069999999
 20
52.0
 30
0.0
 11
-260.2322069999999
 21
64.0
 31
0.0
  0
LINE
  5
259
  8
SIZE
  6
CONTINUOUS
 62
    30
 10
-260.2322069999999
 20
-168.6463029999999
 30
0.0
 11
-260.2322069999999
 21
0.0
 31
0.0
  0
TEXT
  5
25A
  8
SIZE
  6
CONTINUOUS
 62
    30
 10
-285.2322069999999
 20
-143.6463034285714
 30
0.0
 40
64.0
  1
40
 50
90.0
 41
0.9
 72
     1
 11
-285.2322069999999
 21
-97.017731999999995
 31
0.0
  0
LINE
  5
25B
  8
SIZE
  6
CONTINUOUS
 62
    30
 10
-260.2322069999999
 20
0.0
 30
0.0
 11
-260.2322069999999
 21
40.0
 31
0.0
  0
LINE
  5
25C
  8
SIZE
  6
CONTINUOUS
 62
    30
 10
-260.2322069999999
 20
0.0
 30
0.0
 11
-260.2322069999999
 21
40.0
 31
0.0
  0
CIRCLE
  5
25D
  8
SIZE
  6
CONTINUOUS
 62
    30
 10
-260.2322069999999
 20
0.0
 30
0.0
 40
6.0
  0
LINE
  5
25E
  8
SIZE
  6
CONTINUOUS
 62
    30
 10
-260.2322069999999
 20
0.0
 30
0.0
 11
-260.2322069999999
 21
-12.0
 31
0.0
  0
CIRCLE
  5
25F
  8
SIZE
  6
CONTINUOUS
 62
    30
 10
-260.2322069999999
 20
40.0
 30
0.0
 40
6.0
  0
LINE
  5
260
  8
SIZE
  6
CONTINUOUS
 62
    30
 10
-260.2322069999999
 20
40.0
 30
0.0
 11
-260.2322069999999
 21
52.0
 31
0.0
  0
LINE
  5
264
  8
SIZE
  6
CONTINUOUS
 62
    30
 10
163.0
 20
0.0
 30
0.0
 11
404.99207999999987
 21
0.0
 31
0.0
  0
LINE
  5
265
  8
SIZE
  6
CONTINUOUS
 62
    30
 10
122.714522
 20
45.0
 30
0.0
 11
404.99207999999987
 21
45.0
 31
0.0
  0
LINE
  5
266
  8
SIZE
  6
CONTINUOUS
 62
    30
 10
384.99207999999987
 20
-12.0
 30
0.0
 11
384.99207999999987
 21
-24.0
 31
0.0
  0
LINE
  5
267
  8
SIZE
  6
CONTINUOUS
 62
    30
 10
384.99207999999987
 20
57.0
 30
0.0
 11
384.99207999999987
 21
69.0
 31
0.0
  0
LINE
  5
268
  8
SIZE
  6
CONTINUOUS
 62
    30
 10
384.99207999999987
 20
-175.69647000000001
 30
0.0
 11
384.99207999999987
 21
0.0
 31
0.0
  0
TEXT
  5
269
  8
SIZE
  6
CONTINUOUS
 62
    30
 10
359.99207999999999
 20
-150.69647042857139
 30
0.0
 40
64.0
  1
45
 50
90.0
 41
0.9
 72
     1
 11
359.99207999999999
 21
-104.0678989999999
 31
0.0
  0
LINE
  5
26A
  8
SIZE
  6
CONTINUOUS
 62
    30
 10
384.99207999999987
 20
0.0
 30
0.0
 11
384.99207999999987
 21
45.0
 31
0.0
  0
LINE
  5
26B
  8
SIZE
  6
CONTINUOUS
 62
    30
 10
384.99207999999987
 20
0.0
 30
0.0
 11
384.99207999999987
 21
45.0
 31
0.0
  0
CIRCLE
  5
26C
  8
SIZE
  6
CONTINUOUS
 62
    30
 10
384.99207999999987
 20
0.0
 30
0.0
 40
6.0
  0
LINE
  5
26D
  8
SIZE
  6
CONTINUOUS
 62
    30
 10
384.99207999999987
 20
0.0
 30
0.0
 11
384.99207999999987
 21
-12.0
 31
0.0
  0
CIRCLE
  5
26E
  8
SIZE
  6
CONTINUOUS
 62
    30
 10
384.99207999999987
 20
45.0
 30
0.0
 40
6.0
  0
LINE
  5
26F
  8
SIZE
  6
CONTINUOUS
 62
    30
 10
384.99207999999987
 20
45.0
 30
0.0
 11
384.99207999999987
 21
57.0
 31
0.0
  0
LINE
  5
273
  8
NOTE
  6
CONTINUOUS
 62
     4
 10
0.0
 20
122.0
 30
0.0
 11
-223.062231
 21
287.85361599999987
 31
0.0
  0
LINE
  5
274
  8
NOTE
  6
CONTINUOUS
 62
     4
 10
-37.251491999999999
 20
136.5714209999999
 30
0.0
 11
0.0
 21
122.0
 31
0.0
  0
LINE
  5
275
  8
NOTE
  6
CONTINUOUS
 62
     4
 10
0.0
 20
122.0
 30
0.0
 11
-24.975027999999991
 21
153.244967
 31
0.0
  0
LINE
  5
276
  8
SIZE
  6
CONTINUOUS
 62
    30
 10
226.5
 20
139.34836299999989
 30
0.0
 11
226.5
 21
351.40748500000001
 31
0.0
  0
LINE
  5
277
  8
SIZE
  6
CONTINUOUS
 62
    30
 10
213.5
 20
176.0
 30
0.0
 11
213.5
 21
351.40748500000001
 31
0.0
  0
LINE
  5
278
  8
SIZE
  6
CONTINUOUS
 62
    30
 10
238.5
 20
331.40748500000001
 30
0.0
 11
250.49999999999989
 21
331.40748500000001
 31
0.0
  0
LINE
  5
279
  8
SIZE
  6
CONTINUOUS
 62
    30
 10
201.5
 20
331.40748500000001
 30
0.0
 11
189.49999999999989
 21
331.40748500000001
 31
0.0
  0
LINE
  5
27A
  8
SIZE
  6
CONTINUOUS
 62
    30
 10
387.32438500000001
 20
331.40748500000001
 30
0.0
 11
226.5
 21
331.40748500000001
 31
0.0
  0
TEXT
  5
27B
  8
SIZE
  6
CONTINUOUS
 62
    30
 10
280.03867085714279
 20
356.40748500000001
 30
0.0
 40
64.0
  1
13
 41
0.9
 72
     1
 11
321.1815279999999
 21
356.40748500000001
 31
0.0
  0
LINE
  5
27C
  8
SIZE
  6
CONTINUOUS
 62
    30
 10
226.5
 20
331.40748500000001
 30
0.0
 11
213.5
 21
331.40748500000001
 31
0.0
  0
LINE
  5
27D
  8
SIZE
  6
CONTINUOUS
 62
    30
 10
226.5
 20
331.40748500000001
 30
0.0
 11
213.5
 21
331.40748500000001
 31
0.0
  0
CIRCLE
  5
27E
  8
SIZE
  6
CONTINUOUS
 62
    30
 10
226.5
 20
331.40748500000001
 30
0.0
 40
6.0
  0
LINE
  5
27F
  8
SIZE
  6
CONTINUOUS
 62
    30
 10
226.5
 20
331.40748500000001
 30
0.0
 11
238.5
 21
331.40748500000001
 31
0.0
  0
CIRCLE
  5
280
  8
SIZE
  6
CONTINUOUS
 62
    30
 10
213.5
 20
331.40748500000001
 30
0.0
 40
6.0
  0
LINE
  5
281
  8
SIZE
  6
CONTINUOUS
 62
    30
 10
213.5
 20
331.40748500000001
 30
0.0
 11
201.5
 21
331.40748500000001
 31
0.0
  0
TEXT
  5
291
  8
ETC
  6
CONTINUOUS
 62
    61
 10
770.83535011661479
 20
537.51418291984191
 30
0.0
 40
50.0
  1
VD-10ZFC7
 41
0.9
  0
TEXT
  5
292
  8
ETC
  6
CONTINUOUS
 62
    61
 10
773.35852982984943
 20
465.63119144073329
 30
0.0
 40
50.0
  1
VD-10ZFLC7
 41
0.9
  0
TEXT
  5
293
  8
ETC
  6
CONTINUOUS
 62
    61
 10
666.979846319731
 20
713.29075775821661
 30
0.0
 40
64.0
  1
VD-10ZFC7_5
 41
0.9
  0
TEXT
  5
294
  8
ETC
  6
CONTINUOUS
 62
    61
 10
664.47964931973104
 20
615.94422675821647
 30
0.0
 40
64.0
  1
èÀïCÉ¯
 41
0.9
  0
ENDSEC
  0
EOF
