  0
SECTION
  2
HEADER
  9
$ACADVER
  1
AC1009
  9
$DWGCODEPAGE
  3
dos932
  9
$INSBASE
 10
0.0
 20
0.0
 30
0.0
  9
$EXTMIN
 10
-795.34147533744363
 20
-1286.544789078815
 30
-0.0015258207003583
  9
$EXTMAX
 10
1379.9514890298601
 20
688.29346516669466
 30
0.0000000349246037
  9
$LIMMIN
 10
-2970.0
 20
-2100.0
  9
$LIMMAX
 10
2970.0
 20
2100.0
  9
$ORTHOMODE
 70
     1
  9
$REGENMODE
 70
     1
  9
$FILLMODE
 70
     1
  9
$QTEXTMODE
 70
     0
  9
$MIRRTEXT
 70
     0
  9
$LTSCALE
 40
20.0
  9
$ATTMODE
 70
     1
  9
$TEXTSIZE
 40
64.0
  9
$TRACEWID
 40
0.05
  9
$TEXTSTYLE
  7
STANDARD
  9
$CLAYER
  8
SIZE
  9
$CELTYPE
  6
CONTINUOUS
  9
$CECOLOR
 62
     7
  9
$DIMSCALE
 40
1.0
  9
$DIMASZ
 40
12.0
  9
$DIMEXO
 40
20.0
  9
$DIMDLI
 40
200.0
  9
$DIMRND
 40
0.0
  9
$DIMDLE
 40
0.0
  9
$DIMEXE
 40
20.0
  9
$DIMTP
 40
0.0
  9
$DIMTM
 40
0.0
  9
$DIMTXT
 40
64.0
  9
$DIMCEN
 40
0.09
  9
$DIMTSZ
 40
0.0
  9
$DIMTOL
 70
     0
  9
$DIMLIM
 70
     0
  9
$DIMTIH
 70
     0
  9
$DIMTOH
 70
     0
  9
$DIMSE1
 70
     0
  9
$DIMSE2
 70
     0
  9
$DIMTAD
 70
     1
  9
$DIMZIN
 70
     8
  9
$DIMBLK
  1

  9
$DIMASO
 70
     1
  9
$DIMSHO
 70
     0
  9
$DIMPOST
  1

  9
$DIMAPOST
  1

  9
$DIMALT
 70
     0
  9
$DIMALTD
 70
     2
  9
$DIMALTF
 40
25.399999999999999
  9
$DIMLFAC
 40
1.0
  9
$DIMTOFL
 70
     1
  9
$DIMTVP
 40
0.0
  9
$DIMTIX
 70
     1
  9
$DIMSOXD
 70
     0
  9
$DIMSAH
 70
     0
  9
$DIMBLK1
  1

  9
$DIMBLK2
  1

  9
$DIMSTYLE
  2
STANDARD
  9
$DIMCLRD
 70
     7
  9
$DIMCLRE
 70
     7
  9
$DIMCLRT
 70
     7
  9
$DIMTFAC
 40
1.0
  9
$DIMGAP
 40
25.0
  9
$LUNITS
 70
     2
  9
$LUPREC
 70
     4
  9
$SKETCHINC
 40
0.1
  9
$FILLETRAD
 40
3.0
  9
$AUNITS
 70
     1
  9
$AUPREC
 70
     3
  9
$MENU
  1
ACAD
  9
$ELEVATION
 40
0.0
  9
$PELEVATION
 40
0.0
  9
$THICKNESS
 40
0.0
  9
$LIMCHECK
 70
     0
  9
$CHAMFERA
 40
0.0
  9
$CHAMFERB
 40
0.0
  9
$SKPOLY
 70
     0
  9
$TDCREATE
 40
2453019.62301037
  9
$TDUPDATE
 40
2459025.487414514
  9
$TDINDWG
 40
1.7130020949
  9
$TDUSRTIMER
 40
1.7130020949
  9
$USRTIMER
 70
     1
  9
$ANGBASE
 50
0.0
  9
$ANGDIR
 70
     0
  9
$PDMODE
 70
     3
  9
$PDSIZE
 40
-2.0
  9
$PLINEWID
 40
0.0
  9
$SPLFRAME
 70
     0
  9
$SPLINETYPE
 70
     6
  9
$SPLINESEGS
 70
     8
  9
$SURFTAB1
 70
     6
  9
$SURFTAB2
 70
     6
  9
$SURFTYPE
 70
     6
  9
$SURFU
 70
     6
  9
$SURFV
 70
     6
  9
$UCSNAME
  2

  9
$UCSORG
 10
0.0
 20
0.0
 30
0.0
  9
$UCSXDIR
 10
1.0
 20
0.0
 30
0.0
  9
$UCSYDIR
 10
0.0
 20
1.0
 30
0.0
  9
$PUCSNAME
  2

  9
$PUCSORG
 10
0.0
 20
0.0
 30
0.0
  9
$PUCSXDIR
 10
1.0
 20
0.0
 30
0.0
  9
$PUCSYDIR
 10
0.0
 20
1.0
 30
0.0
  9
$USERI1
 70
     0
  9
$USERI2
 70
     0
  9
$USERI3
 70
     0
  9
$USERI4
 70
     0
  9
$USERI5
 70
     0
  9
$USERR1
 40
20.0
  9
$USERR2
 40
0.0
  9
$USERR3
 40
0.0
  9
$USERR4
 40
0.0
  9
$USERR5
 40
0.0
  9
$WORLDVIEW
 70
     1
  9
$SHADEDGE
 70
     3
  9
$SHADEDIF
 70
    70
  9
$TILEMODE
 70
     1
  9
$MAXACTVP
 70
    48
  9
$PINSBASE
 10
0.0
 20
0.0
 30
0.0
  9
$PLIMCHECK
 70
     0
  9
$PEXTMIN
 10
-100000000000000000000.0
 20
-100000000000000000000.0
 30
-100000000000000000000.0
  9
$PEXTMAX
 10
100000000000000000000.0
 20
100000000000000000000.0
 30
100000000000000000000.0
  9
$PLIMMIN
 10
0.0
 20
0.0
  9
$PLIMMAX
 10
12.0
 20
9.0
  9
$UNITMODE
 70
     0
  9
$VISRETAIN
 70
     0
  9
$PLINEGEN
 70
     0
  9
$PSLTSCALE
 70
     0
  9
$TREEDEPTH
 70
  3020
  9
$ATTDIA
 70
     0
  9
$ATTREQ
 70
     1
  9
$BLIPMODE
 70
     1
  9
$COORDS
 70
     1
  9
$DRAGMODE
 70
     2
  9
$OSMODE
 70
     0
  9
$HANDLING
 70
     0
  9
$HANDSEED
  5
F074
  0
ENDSEC
  0
SECTION
  2
TABLES
  0
TABLE
  2
LTYPE
 70
     3
  0
LTYPE
  2
CONTINUOUS
 70
     0
  3
実線
 72
    65
 73
     0
 40
0.0
  0
LTYPE
  2
DASHDOT
 70
     0
  3
____ _ ____ _ ____ _ ____ _ ____ _ ____ _ ____
 72
    65
 73
     4
 40
5.5
 49
4.0
 49
-0.6
 49
0.3
 49
-0.6
  0
LTYPE
  2
CENTER
 70
     0
  3
Center ____ _ ____ _ ____ _ ____ _ ____ _ ____
 72
    65
 73
     4
 40
1.0
 49
0.5
 49
-0.25
 49
0.0
 49
-0.25
  0
ENDTAB
  0
TABLE
  2
LAYER
 70
    12
  0
LAYER
  2
0
 70
     0
 62
     7
  6
CONTINUOUS
  0
LAYER
  2
BASIS
 70
     0
 62
     6
  6
DASHDOT
  0
LAYER
  2
OUTLINE
 70
     0
 62
     3
  6
CONTINUOUS
  0
LAYER
  2
DETAIL
 70
     0
 62
     5
  6
CONTINUOUS
  0
LAYER
  2
SIZE
 70
     0
 62
    30
  6
CONTINUOUS
  0
LAYER
  2
ARRANGE
 70
     0
 62
     1
  6
CONTINUOUS
  0
LAYER
  2
DEFPOINTS
 70
     0
 62
     7
  6
CONTINUOUS
  0
LAYER
  2
ETC
 70
     0
 62
    61
  6
CONTINUOUS
  0
LAYER
  2
FIX
 70
     0
 62
    11
  6
CONTINUOUS
  0
LAYER
  2
NOTE
 70
     0
 62
     4
  6
CONTINUOUS
  0
LAYER
  2
SERVICESPACE
 70
    64
 62
     2
  6
DASHDOT
  0
LAYER
  2
SYMBOLLINE
 70
    64
 62
    15
  6
CONTINUOUS
  0
ENDTAB
  0
TABLE
  2
STYLE
 70
     1
  0
STYLE
  2
STANDARD
 70
     0
 40
64.0
 41
0.9
 50
0.0
 71
     0
 42
64.0
  3
SIMPLEX.shx
  4
BIGFONT.shx
  0
ENDTAB
  0
TABLE
  2
APPID
 70
    19
  0
APPID
  2
ACAD
 70
     0
  0
APPID
  2
AUTOCAD_POSTSCRIPT_FIGURE
 70
     0
  0
APPID
  2
ACAD_EXEMPT_FROM_CAD_STANDARDS
 70
     0
  0
APPID
  2
ACAD_PSEXT
 70
     0
  0
APPID
  2
ACAUTHENVIRON
 70
     0
  0
APPID
  2
GENIUS_GENOENT_13
 70
     0
  0
APPID
  2
GENIUS_GENCFG_13
 70
     0
  0
APPID
  2
GENIUS_GENCFG0_13
 70
     0
  0
APPID
  2
GENIUS_GENCFG1_13
 70
     0
  0
APPID
  2
GENIUS_GENCFG2_13
 70
     0
  0
APPID
  2
GENIUS_GENCFG3_13
 70
     0
  0
APPID
  2
GENIUS_GENCFG4_13
 70
     0
  0
APPID
  2
GENIUS_GEVCFG0_13
 70
     0
  0
APPID
  2
CONTENTBLOCKICON
 70
     0
  0
APPID
  2
CONTENTBLOCKDESCRIPTION
 70
     0
  0
APPID
  2
ACAD_NAV_VCDISPLAY
 70
     0
  0
APPID
  2
ACAD_MLEADERVER
 70
     0
  0
APPID
  2
ACDBDYNAMICBLOCKTRUENAME
 70
     0
  0
APPID
  2
ACDBDYNAMICBLOCKGUID
 70
     0
  0
ENDTAB
  0
TABLE
  2
DIMSTYLE
 70
     1
  0
DIMSTYLE
  2
STANDARD
 70
     0
  3

  4

  5
_ORIGIN
  6

  7

 40
1.0
 41
12.0
 42
20.0
 43
200.0
 44
20.0
 45
0.0
 46
0.0
 47
0.0
 48
0.0
140
64.0
141
0.09
142
0.0
143
25.399999999999999
144
1.0
145
0.0
146
1.0
147
25.0
 71
     0
 72
     0
 73
     0
 74
     0
 75
     0
 76
     0
 77
     1
 78
     8
170
     0
171
     2
172
     1
173
     0
174
     1
175
     0
176
     7
177
     7
178
     7
  0
ENDTAB
  0
TABLE
  2
VIEW
 70
     1
  0
VIEW
  2
ALL
 70
     0
 40
4282.6198079999986
 10
0.0
 20
41.309904000000003
 41
5940.0
 11
0.0
 21
0.0
 31
1.0
 12
0.0
 22
0.0
 32
0.0
 42
50.0
 43
0.0
 44
0.0
 50
0.0
 71
     0
  0
ENDTAB
  0
TABLE
  2
UCS
 70
     0
  0
ENDTAB
  0
TABLE
  2
VPORT
 70
     1
  0
VPORT
  2
*ACTIVE
 70
     0
 10
0.0
 20
0.0
 11
1.0
 21
1.0
 12
292.30500684620807
 22
-299.12566195606001
 13
0.0
 23
0.0
 14
1.0
 24
1.0
 15
0.0
 25
0.0
 16
0.0
 26
0.0
 36
1.0
 17
0.0
 27
0.0
 37
0.0
 40
1987.9311045498989
 41
1.747787610619469
 42
50.0
 43
0.0
 44
0.0
 50
0.0
 51
0.0
 71
     0
 72
  1000
 73
     1
 74
     3
 75
     0
 76
     0
 77
     0
 78
     0
  0
ENDTAB
  0
ENDSEC
  0
SECTION
  2
BLOCKS
  0
BLOCK
  8
0
  2
_ORIGIN
 70
     0
 10
0.0
 20
0.0
 30
0.0
  3
_ORIGIN
  1
_ORIGIN
  0
CIRCLE
  8
0
  6
CONTINUOUS
 62
     7
 10
0.0
 20
0.0
 30
0.0
 40
0.5
  0
LINE
  8
0
  6
CONTINUOUS
 62
     7
 10
0.0
 20
0.0
 30
0.0
 11
-1.0
 21
0.0
 31
0.0
  0
ENDBLK
  8
0
  0
ENDSEC
  0
SECTION
  2
ENTITIES
  0
TEXT
  8
NOTE
  6
CONTINUOUS
 62
     4
 10
381.20928100289581
 20
363.12095518514838
 30
0.0
 40
63.999999999999993
  1
8-φ5
 50
359.85073780173718
 41
0.9
  0
LINE
  8
NOTE
  6
CONTINUOUS
 62
     4
 10
634.36576009572173
 20
329.8116
 30
0.0
 11
352.78356798458663
 21
329.8116364789787
 31
0.0
  0
LINE
  8
NOTE
  6
CONTINUOUS
 62
     4
 10
117.5
 20
65.0
 30
0.0
 11
352.78356798458663
 21
329.8116364789787
 31
0.0
  0
LINE
  8
NOTE
  6
CONTINUOUS
 62
     4
 10
117.5
 20
65.0
 30
0.0
 11
148.81274534757901
 21
87.68342241888331
 31
0.0
  0
LINE
  8
NOTE
  6
CONTINUOUS
 62
     4
 10
136.49527469402349
 20
100.1992963337611
 30
0.0
 11
117.5
 21
65.0
 31
0.0
  0
TEXT
  8
NOTE
  6
CONTINUOUS
 62
     4
 10
-42.141495033672527
 20
-400.19855814017501
 30
0.0
 40
64.0
  1
EA
 41
0.9
  0
LINE
  8
BASIS
  6
DASHDOT
 62
     6
 10
199.69454799999949
 20
0.0
 30
0.0
 11
-213.75772200000031
 21
0.0
 31
0.0
  0
LINE
  8
BASIS
  6
DASHDOT
 62
     6
 10
0.0
 20
257.38846200000012
 30
0.0
 11
0.0
 21
-252.43922100000009
 31
0.0
  0
TEXT
  8
NOTE
  6
CONTINUOUS
 62
     4
 10
362.47433889379499
 20
-458.32688685288412
 30
0.0
 40
64.0
  1
EL
 41
0.9
  0
LINE
  8
NOTE
  6
CONTINUOUS
 62
     4
 10
485.61739665482168
 20
-492.19683120116042
 30
0.0
 11
317.09290512840289
 21
-492.1968312011179
 31
0.0
  0
LINE
  8
NOTE
  6
CONTINUOUS
 62
     4
 10
82.5
 20
-59.0
 30
0.0
 11
317.09290512840289
 21
-492.1968312011179
 31
0.0
  0
LINE
  8
NOTE
  6
CONTINUOUS
 62
     4
 10
82.5
 20
-59.0
 30
0.0
 11
110.5733740441128
 21
-85.643949187450062
 31
0.0
  0
LINE
  8
NOTE
  6
CONTINUOUS
 62
     4
 10
89.802562394578672
 20
-98.258049703845472
 30
0.0
 11
82.5
 21
-59.0
 31
0.0
  0
CIRCLE
  8
FIX
  6
CONTINUOUS
 62
    11
 10
-65.0
 20
117.5
 30
0.0
 40
10.0
  0
CIRCLE
  8
FIX
  6
CONTINUOUS
 62
    11
 10
-117.5
 20
65.0
 30
0.0
 40
10.0
  0
CIRCLE
  8
FIX
  6
CONTINUOUS
 62
    11
 10
-117.5
 20
-65.0
 30
0.0
 40
10.0
  0
CIRCLE
  8
FIX
  6
CONTINUOUS
 62
    11
 10
-65.0
 20
-117.5
 30
0.0
 40
10.0
  0
CIRCLE
  8
FIX
  6
CONTINUOUS
 62
    11
 10
65.0
 20
-117.5
 30
0.0
 40
10.0
  0
CIRCLE
  8
FIX
  6
CONTINUOUS
 62
    11
 10
117.5
 20
-65.0
 30
0.0
 40
10.0
  0
CIRCLE
  8
FIX
  6
CONTINUOUS
 62
    11
 10
117.5
 20
65.0
 30
0.0
 40
10.0
  0
CIRCLE
  8
FIX
  6
CONTINUOUS
 62
    11
 10
65.0
 20
117.5
 30
0.0
 40
10.0
  0
TEXT
  8
NOTE
  6
CONTINUOUS
 62
     4
 10
-42.141495033672527
 20
338.10383538687353
 30
0.0
 40
64.0
  1
RA
 41
0.9
  0
CIRCLE
  8
ARRANGE
  6
CONTINUOUS
 62
     1
 10
0.0
 20
0.0
 30
0.0
 40
40.0
  0
POINT
  8
ARRANGE
  6
CONTINUOUS
 62
     1
 10
0.0
 20
0.0
 30
0.0
 50
90.0
  0
LINE
  8
SIZE
  6
CONTINUOUS
 62
    30
 10
-48.813423987234273
 20
-233.5050313773379
 30
0.0
 11
-48.813423987234273
 21
-526.37579460786765
 31
0.0
  0
LINE
  8
SIZE
  6
CONTINUOUS
 62
    30
 10
48.813328000000183
 20
-233.505032
 30
0.0
 11
48.813328000000183
 21
-526.37579460786765
 31
0.0
  0
LINE
  8
SIZE
  6
CONTINUOUS
 62
    30
 10
36.813328000000183
 20
-506.37579460786759
 30
0.0
 11
-36.813423987234273
 21
-506.37579460786759
 31
0.0
  0
LINE
  8
SIZE
  6
CONTINUOUS
 62
    30
 10
-48.813423987234273
 20
-506.37579460786759
 30
0.0
 11
-415.20029798308718
 21
-506.37579460786759
 31
0.0
  0
CIRCLE
  8
SIZE
  6
CONTINUOUS
 62
    30
 10
48.813328000000183
 20
-506.37579460786759
 30
0.0
 40
6.0
  0
LINE
  8
SIZE
  6
CONTINUOUS
 62
    30
 10
48.813328000000183
 20
-506.37579460786759
 30
0.0
 11
36.813328000000183
 21
-506.37579460786759
 31
0.0
  0
CIRCLE
  8
SIZE
  6
CONTINUOUS
 62
    30
 10
-48.813423987234273
 20
-506.37579460786759
 30
0.0
 40
6.0
  0
LINE
  8
SIZE
  6
CONTINUOUS
 62
    30
 10
-48.813423987234273
 20
-506.37579460786759
 30
0.0
 11
-36.813423987234273
 21
-506.37579460786759
 31
0.0
  0
TEXT
  8
SIZE
  6
CONTINUOUS
 62
    30
 10
-400.34886941165848
 20
-470.7091279412009
 30
0.0
 40
64.0
  1
φ98
 41
0.9
 72
     1
 11
-313.40029798308711
 21
-470.7091279412009
 31
0.0
  0
POINT
  8
DEFPOINTS
  6
CONTINUOUS
 62
    30
 10
-48.813423987234273
 20
-213.5050313773379
 30
0.0
  0
POINT
  8
DEFPOINTS
  6
CONTINUOUS
 62
    30
 10
48.813328000000183
 20
-213.505032
 30
0.0
  0
POINT
  8
DEFPOINTS
  6
CONTINUOUS
 62
    30
 10
48.813328000000183
 20
-506.37579460786759
 30
0.0
  0
LINE
  8
SIZE
  6
CONTINUOUS
 62
    30
 10
-52.483545000000049
 20
-189.588109
 30
0.0
 11
-52.483545000000049
 21
-668.29651028007879
 31
0.0
  0
LINE
  8
SIZE
  6
CONTINUOUS
 62
    30
 10
52.483449999999721
 20
-189.588109
 30
0.0
 11
52.483449999999721
 21
-668.29651028007879
 31
0.0
  0
LINE
  8
SIZE
  6
CONTINUOUS
 62
    30
 10
40.483449999999721
 20
-648.29651028007879
 30
0.0
 11
-40.483545000000049
 21
-648.29651028007879
 31
0.0
  0
LINE
  8
SIZE
  6
CONTINUOUS
 62
    30
 10
-52.483545000000049
 20
-648.29651028007879
 30
0.0
 11
-409.33745771533683
 21
-648.29651028007879
 31
0.0
  0
CIRCLE
  8
SIZE
  6
CONTINUOUS
 62
    30
 10
52.483449999999721
 20
-648.29651028007879
 30
0.0
 40
6.0
  0
LINE
  8
SIZE
  6
CONTINUOUS
 62
    30
 10
52.483449999999721
 20
-648.29651028007879
 30
0.0
 11
40.483449999999721
 21
-648.29651028007879
 31
0.0
  0
CIRCLE
  8
SIZE
  6
CONTINUOUS
 62
    30
 10
-52.483545000000049
 20
-648.29651028007879
 30
0.0
 40
6.0
  0
LINE
  8
SIZE
  6
CONTINUOUS
 62
    30
 10
-52.483545000000049
 20
-648.29651028007879
 30
0.0
 11
-40.483545000000049
 21
-648.29651028007879
 31
0.0
  0
TEXT
  8
SIZE
  6
CONTINUOUS
 62
    30
 10
-394.48602914390813
 20
-612.62984361341205
 30
0.0
 40
64.0
  1
φ105
 41
0.9
 72
     1
 11
-285.59460057247952
 21
-612.62984361341205
 31
0.0
  0
POINT
  8
DEFPOINTS
  6
CONTINUOUS
 62
    30
 10
-52.483545000000049
 20
-169.588109
 30
0.0
  0
POINT
  8
DEFPOINTS
  6
CONTINUOUS
 62
    30
 10
52.483449999999721
 20
-169.588109
 30
0.0
  0
POINT
  8
DEFPOINTS
  6
CONTINUOUS
 62
    30
 10
52.483449999999721
 20
-648.29651028007879
 30
0.0
  0
LINE
  8
SIZE
  6
CONTINUOUS
 62
    30
 10
-69.336253065992423
 20
-173.70364500000011
 30
0.0
 11
-460.89945382610631
 21
-173.70364500000011
 31
0.0
  0
LINE
  8
SIZE
  6
CONTINUOUS
 62
    30
 10
-68.314118000000235
 20
-213.99999900000009
 30
0.0
 11
-460.89945382610631
 21
-213.99999900000009
 31
0.0
  0
LINE
  8
SIZE
  6
CONTINUOUS
 62
    30
 10
-440.89945382610631
 20
-161.7036449999998
 30
0.0
 11
-440.89945382610631
 21
-149.7036449999998
 31
0.0
  0
LINE
  8
SIZE
  6
CONTINUOUS
 62
    30
 10
-440.89945382610631
 20
-225.99999900000009
 30
0.0
 11
-440.89945382610631
 21
-424.08970334094693
 31
0.0
  0
LINE
  8
SIZE
  6
CONTINUOUS
 62
    30
 10
-440.89945382610631
 20
-173.70364500000011
 30
0.0
 11
-440.89945382610631
 21
-213.99999900000009
 31
0.0
  0
CIRCLE
  8
SIZE
  6
CONTINUOUS
 62
    30
 10
-440.89945382610631
 20
-173.70364500000011
 30
0.0
 40
6.0
  0
LINE
  8
SIZE
  6
CONTINUOUS
 62
    30
 10
-440.89945382610631
 20
-173.70364500000011
 30
0.0
 11
-440.89945382610631
 21
-161.7036449999998
 31
0.0
  0
CIRCLE
  8
SIZE
  6
CONTINUOUS
 62
    30
 10
-440.89945382610631
 20
-213.99999900000009
 30
0.0
 40
6.0
  0
LINE
  8
SIZE
  6
CONTINUOUS
 62
    30
 10
-440.89945382610631
 20
-213.99999900000009
 30
0.0
 11
-440.89945382610631
 21
-225.99999900000009
 31
0.0
  0
TEXT
  8
SIZE
  6
CONTINUOUS
 62
    30
 10
-465.89945382610631
 20
-399.08970334094721
 30
0.0
 40
64.0
  1
40
 50
90.0
 41
0.9
 72
     1
 11
-465.89945382610631
 21
-352.46113191237578
 31
0.0
  0
POINT
  8
DEFPOINTS
  6
CONTINUOUS
 62
    30
 10
-49.336253065992423
 20
-173.70364500000011
 30
0.0
  0
POINT
  8
DEFPOINTS
  6
CONTINUOUS
 62
    30
 10
-48.314118000000242
 20
-213.99999900000009
 30
0.0
  0
POINT
  8
DEFPOINTS
  6
CONTINUOUS
 62
    30
 10
-440.89945382610631
 20
-213.99999900000009
 30
0.0
  0
LINE
  8
SIZE
  6
CONTINUOUS
 62
    30
 10
-68.314118000000235
 20
-214.0
 30
0.0
 11
-590.26998433606013
 21
-213.9999999999998
 31
0.0
  0
LINE
  8
SIZE
  6
CONTINUOUS
 62
    30
 10
-72.928539000000001
 20
-144.09444500000001
 30
0.0
 11
-590.26998433606013
 21
-144.09444500000001
 31
0.0
  0
LINE
  8
SIZE
  6
CONTINUOUS
 62
    30
 10
-570.26998433606013
 20
-132.09444500000001
 30
0.0
 11
-570.26998433606013
 21
-120.09444499999999
 31
0.0
  0
LINE
  8
SIZE
  6
CONTINUOUS
 62
    30
 10
-570.26998433606013
 20
-226.0
 30
0.0
 11
-570.26998433606013
 21
-406.75714285714281
 31
0.0
  0
LINE
  8
SIZE
  6
CONTINUOUS
 62
    30
 10
-570.26998433606013
 20
-144.09444500000001
 30
0.0
 11
-570.26998433606013
 21
-214.0
 31
0.0
  0
CIRCLE
  8
SIZE
  6
CONTINUOUS
 62
    30
 10
-570.26998433606013
 20
-144.09444500000001
 30
0.0
 40
6.0
  0
LINE
  8
SIZE
  6
CONTINUOUS
 62
    30
 10
-570.26998433606013
 20
-144.09444500000001
 30
0.0
 11
-570.26998433606013
 21
-132.09444500000001
 31
0.0
  0
CIRCLE
  8
SIZE
  6
CONTINUOUS
 62
    30
 10
-570.26998433606013
 20
-214.0
 30
0.0
 40
6.0
  0
LINE
  8
SIZE
  6
CONTINUOUS
 62
    30
 10
-570.26998433606013
 20
-214.0
 30
0.0
 11
-570.26998433606013
 21
-226.0
 31
0.0
  0
TEXT
  8
SIZE
  6
CONTINUOUS
 62
    30
 10
-595.26998433606013
 20
-381.7571428571427
 30
0.0
 40
64.0
  1
70
 50
90.0
 41
0.9
 72
     1
 11
-595.26998433606013
 21
-335.12857142857132
 31
0.0
  0
POINT
  8
DEFPOINTS
  6
CONTINUOUS
 62
    30
 10
-48.314118000000242
 20
-214.0
 30
0.0
  0
POINT
  8
DEFPOINTS
  6
CONTINUOUS
 62
    30
 10
-52.928539000000001
 20
-144.09444500000021
 30
0.0
  0
POINT
  8
DEFPOINTS
  6
CONTINUOUS
 62
    30
 10
-570.26998433606013
 20
-144.09444500000001
 30
0.0
  0
LINE
  8
SIZE
  6
CONTINUOUS
 62
    30
 10
-65.0
 20
-145.0
 30
0.0
 11
-65.0
 21
-804.0793545100131
 31
0.0
  0
LINE
  8
SIZE
  6
CONTINUOUS
 62
    30
 10
65.0
 20
-145.0
 30
0.0
 11
65.0
 21
-804.0793545100131
 31
0.0
  0
LINE
  8
SIZE
  6
CONTINUOUS
 62
    30
 10
53.0
 20
-784.0793545100131
 30
0.0
 11
-53.0
 21
-784.0793545100131
 31
0.0
  0
LINE
  8
SIZE
  6
CONTINUOUS
 62
    30
 10
-65.0
 20
-784.0793545100131
 30
0.0
 11
-377.68245100836702
 21
-784.0793545100131
 31
0.0
  0
CIRCLE
  8
SIZE
  6
CONTINUOUS
 62
    30
 10
65.0
 20
-784.0793545100131
 30
0.0
 40
6.0
  0
LINE
  8
SIZE
  6
CONTINUOUS
 62
    30
 10
65.0
 20
-784.0793545100131
 30
0.0
 11
53.0
 21
-784.0793545100131
 31
0.0
  0
CIRCLE
  8
SIZE
  6
CONTINUOUS
 62
    30
 10
-65.0
 20
-784.0793545100131
 30
0.0
 40
6.0
  0
LINE
  8
SIZE
  6
CONTINUOUS
 62
    30
 10
-65.0
 20
-784.0793545100131
 30
0.0
 11
-53.0
 21
-784.0793545100131
 31
0.0
  0
TEXT
  8
SIZE
  6
CONTINUOUS
 62
    30
 10
-352.68245100836708
 20
-759.0793545100131
 30
0.0
 40
64.0
  1
130
 41
0.9
 72
     1
 11
-284.11102243693858
 21
-759.0793545100131
 31
0.0
  0
POINT
  8
DEFPOINTS
  6
CONTINUOUS
 62
    30
 10
-65.0
 20
-125.0
 30
0.0
  0
POINT
  8
DEFPOINTS
  6
CONTINUOUS
 62
    30
 10
65.0
 20
-125.0
 30
0.0
  0
POINT
  8
DEFPOINTS
  6
CONTINUOUS
 62
    30
 10
65.0
 20
-784.0793545100131
 30
0.0
  0
LINE
  8
SIZE
  6
CONTINUOUS
 62
    30
 10
-117.5
 20
-92.5
 30
0.0
 11
-117.5000000000005
 21
-1042.8827685563051
 31
0.0
  0
LINE
  8
SIZE
  6
CONTINUOUS
 62
    30
 10
117.5
 20
-92.5
 30
0.0
 11
117.5
 21
-1042.8827685563051
 31
0.0
  0
LINE
  8
SIZE
  6
CONTINUOUS
 62
    30
 10
-105.5000000000005
 20
-1022.882768556305
 30
0.0
 11
105.5
 21
-1022.882768556305
 31
0.0
  0
CIRCLE
  8
SIZE
  6
CONTINUOUS
 62
    30
 10
-117.5000000000005
 20
-1022.882768556305
 30
0.0
 40
6.0
  0
LINE
  8
SIZE
  6
CONTINUOUS
 62
    30
 10
-117.5000000000005
 20
-1022.882768556305
 30
0.0
 11
-105.5000000000005
 21
-1022.882768556305
 31
0.0
  0
CIRCLE
  8
SIZE
  6
CONTINUOUS
 62
    30
 10
117.5
 20
-1022.882768556305
 30
0.0
 40
6.0
  0
LINE
  8
SIZE
  6
CONTINUOUS
 62
    30
 10
117.5
 20
-1022.882768556305
 30
0.0
 11
105.5
 21
-1022.882768556305
 31
0.0
  0
TEXT
  8
SIZE
  6
CONTINUOUS
 62
    30
 10
-74.05714285714285
 20
-997.88276855630465
 30
0.0
 40
64.0
  1
235
 41
0.9
 72
     1
 11
0.0
 21
-997.88276855630465
 31
0.0
  0
POINT
  8
DEFPOINTS
  6
CONTINUOUS
 62
    30
 10
-117.5
 20
-72.5
 30
0.0
  0
POINT
  8
DEFPOINTS
  6
CONTINUOUS
 62
    30
 10
117.5
 20
-72.5
 30
0.0
  0
POINT
  8
DEFPOINTS
  6
CONTINUOUS
 62
    30
 10
117.5
 20
-1022.882768556305
 30
0.0
  0
LINE
  8
SIZE
  6
CONTINUOUS
 62
    30
 10
-143.0
 20
-162.0
 30
0.0
 11
-143.00000000000051
 21
-1286.335552819183
 31
0.0
  0
LINE
  8
SIZE
  6
CONTINUOUS
 62
    30
 10
143.0
 20
-162.0
 30
0.0
 11
143.0
 21
-1286.335552819183
 31
0.0
  0
LINE
  8
SIZE
  6
CONTINUOUS
 62
    30
 10
-131.00000000000051
 20
-1266.335552819183
 30
0.0
 11
131.0
 21
-1266.335552819183
 31
0.0
  0
CIRCLE
  8
SIZE
  6
CONTINUOUS
 62
    30
 10
-143.00000000000051
 20
-1266.335552819183
 30
0.0
 40
6.0
  0
LINE
  8
SIZE
  6
CONTINUOUS
 62
    30
 10
-143.00000000000051
 20
-1266.335552819183
 30
0.0
 11
-131.00000000000051
 21
-1266.335552819183
 31
0.0
  0
CIRCLE
  8
SIZE
  6
CONTINUOUS
 62
    30
 10
143.0
 20
-1266.335552819183
 30
0.0
 40
6.0
  0
LINE
  8
SIZE
  6
CONTINUOUS
 62
    30
 10
143.0
 20
-1266.335552819183
 30
0.0
 11
131.0
 21
-1266.335552819183
 31
0.0
  0
TEXT
  8
SIZE
  6
CONTINUOUS
 62
    30
 10
-109.1657142857143
 20
-1241.335552819183
 30
0.0
 40
64.0
  1
□286
 41
0.9
 72
     1
 11
0.0
 21
-1241.335552819183
 31
0.0
  0
POINT
  8
DEFPOINTS
  6
CONTINUOUS
 62
    30
 10
-143.0
 20
-142.0
 30
0.0
  0
POINT
  8
DEFPOINTS
  6
CONTINUOUS
 62
    30
 10
143.0
 20
-142.0
 30
0.0
  0
POINT
  8
DEFPOINTS
  6
CONTINUOUS
 62
    30
 10
143.0
 20
-1266.335552819183
 30
0.0
  0
LINE
  8
SIZE
  6
CONTINUOUS
 62
    30
 10
92.5
 20
-117.5
 30
0.0
 11
567.39377815818852
 21
-117.5
 31
0.0
  0
LINE
  8
SIZE
  6
CONTINUOUS
 62
    30
 10
92.5
 20
117.5
 30
0.0
 11
567.39377815818852
 21
117.5
 31
0.0
  0
LINE
  8
SIZE
  6
CONTINUOUS
 62
    30
 10
547.39377815818852
 20
-105.5
 30
0.0
 11
547.39377815818852
 21
105.5
 31
0.0
  0
CIRCLE
  8
SIZE
  6
CONTINUOUS
 62
    30
 10
547.39377815818852
 20
-117.5
 30
0.0
 40
6.0
  0
LINE
  8
SIZE
  6
CONTINUOUS
 62
    30
 10
547.39377815818852
 20
-117.5
 30
0.0
 11
547.39377815818852
 21
-105.5
 31
0.0
  0
CIRCLE
  8
SIZE
  6
CONTINUOUS
 62
    30
 10
547.39377815818852
 20
117.5
 30
0.0
 40
6.0
  0
LINE
  8
SIZE
  6
CONTINUOUS
 62
    30
 10
547.39377815818852
 20
117.5
 30
0.0
 11
547.39377815818852
 21
105.5
 31
0.0
  0
TEXT
  8
SIZE
  6
CONTINUOUS
 62
    30
 10
522.39377815818852
 20
-74.05714285714285
 30
0.0
 40
64.0
  1
235
 50
90.0
 41
0.9
 72
     1
 11
522.39377815818852
 21
0.0
 31
0.0
  0
POINT
  8
DEFPOINTS
  6
CONTINUOUS
 62
    30
 10
72.5
 20
-117.5
 30
0.0
  0
POINT
  8
DEFPOINTS
  6
CONTINUOUS
 62
    30
 10
72.5
 20
117.5
 30
0.0
  0
POINT
  8
DEFPOINTS
  6
CONTINUOUS
 62
    30
 10
547.39377815818852
 20
117.5
 30
0.0
  0
LINE
  8
SIZE
  6
CONTINUOUS
 62
    30
 10
145.0
 20
65.0
 30
0.0
 11
401.64294561090361
 21
65.0
 31
0.0
  0
LINE
  8
SIZE
  6
CONTINUOUS
 62
    30
 10
145.0
 20
-65.0
 30
0.0
 11
401.64294561090361
 21
-65.0
 31
0.0
  0
LINE
  8
SIZE
  6
CONTINUOUS
 62
    30
 10
381.64294561090361
 20
53.0
 30
0.0
 11
381.64294561090361
 21
-53.0
 31
0.0
  0
LINE
  8
SIZE
  6
CONTINUOUS
 62
    30
 10
381.64294561090361
 20
-65.0
 30
0.0
 11
381.64294561090361
 21
-349.97118222626449
 31
0.0
  0
CIRCLE
  8
SIZE
  6
CONTINUOUS
 62
    30
 10
381.64294561090361
 20
65.0
 30
0.0
 40
6.0
  0
LINE
  8
SIZE
  6
CONTINUOUS
 62
    30
 10
381.64294561090361
 20
65.0
 30
0.0
 11
381.64294561090361
 21
53.0
 31
0.0
  0
CIRCLE
  8
SIZE
  6
CONTINUOUS
 62
    30
 10
381.64294561090361
 20
-65.0
 30
0.0
 40
6.0
  0
LINE
  8
SIZE
  6
CONTINUOUS
 62
    30
 10
381.64294561090361
 20
-65.0
 30
0.0
 11
381.64294561090361
 21
-53.0
 31
0.0
  0
TEXT
  8
SIZE
  6
CONTINUOUS
 62
    30
 10
356.64294561090361
 20
-324.97118222626438
 30
0.0
 40
64.0
  1
130
 50
90.0
 41
0.9
 72
     1
 11
356.64294561090361
 21
-256.39975365483588
 31
0.0
  0
POINT
  8
DEFPOINTS
  6
CONTINUOUS
 62
    30
 10
125.0
 20
65.0
 30
0.0
  0
POINT
  8
DEFPOINTS
  6
CONTINUOUS
 62
    30
 10
125.0
 20
-65.0
 30
0.0
  0
POINT
  8
DEFPOINTS
  6
CONTINUOUS
 62
    30
 10
381.64294561090361
 20
-65.0
 30
0.0
  0
LINE
  8
SIZE
  6
CONTINUOUS
 62
    30
 10
-68.314070000000356
 20
181.83020400000009
 30
0.0
 11
-453.18090326483753
 21
181.83020400000009
 31
0.0
  0
LINE
  8
SIZE
  6
CONTINUOUS
 62
    30
 10
-69.029268999999658
 20
156.59639799999991
 30
0.0
 11
-453.18090326483753
 21
156.59639800000011
 31
0.0
  0
LINE
  8
SIZE
  6
CONTINUOUS
 62
    30
 10
-433.18090326483753
 20
144.59639799999991
 30
0.0
 11
-433.18090326483753
 21
132.59639799999991
 31
0.0
  0
LINE
  8
SIZE
  6
CONTINUOUS
 62
    30
 10
-433.18090326483753
 20
193.83020400000009
 30
0.0
 11
-433.18090326483753
 21
444.44741936226683
 31
0.0
  0
LINE
  8
SIZE
  6
CONTINUOUS
 62
    30
 10
-433.18090326483753
 20
156.59639799999991
 30
0.0
 11
-433.18090326483753
 21
181.83020400000009
 31
0.0
  0
CIRCLE
  8
SIZE
  6
CONTINUOUS
 62
    30
 10
-433.18090326483753
 20
156.59639799999991
 30
0.0
 40
6.0
  0
LINE
  8
SIZE
  6
CONTINUOUS
 62
    30
 10
-433.18090326483753
 20
156.59639799999991
 30
0.0
 11
-433.18090326483753
 21
144.59639799999991
 31
0.0
  0
CIRCLE
  8
SIZE
  6
CONTINUOUS
 62
    30
 10
-433.18090326483753
 20
181.83020400000009
 30
0.0
 40
6.0
  0
LINE
  8
SIZE
  6
CONTINUOUS
 62
    30
 10
-433.18090326483753
 20
181.83020400000009
 30
0.0
 11
-433.18090326483753
 21
193.83020400000009
 31
0.0
  0
TEXT
  8
SIZE
  6
CONTINUOUS
 62
    30
 10
-458.18090326483753
 20
326.19027650512379
 30
0.0
 40
64.0
  1
25
 50
90.0
 41
0.9
 72
     1
 11
-458.18090326483753
 21
372.81884793369522
 31
0.0
  0
POINT
  8
DEFPOINTS
  6
CONTINUOUS
 62
    30
 10
-48.314070000000363
 20
181.83020400000009
 30
0.0
  0
POINT
  8
DEFPOINTS
  6
CONTINUOUS
 62
    30
 10
-49.029268999999658
 20
156.59639799999991
 30
0.0
  0
POINT
  8
DEFPOINTS
  6
CONTINUOUS
 62
    30
 10
-433.18090326483753
 20
156.59639799999991
 30
0.0
  0
LINE
  8
SIZE
  6
CONTINUOUS
 62
    30
 10
-48.813376000000062
 20
201.3352359999999
 30
0.0
 11
-48.813376000000062
 21
466.34554029576822
 31
0.0
  0
LINE
  8
SIZE
  6
CONTINUOUS
 62
    30
 10
48.81337598723394
 20
201.33523637733771
 30
0.0
 11
48.81337598723394
 21
466.34554029576822
 31
0.0
  0
LINE
  8
SIZE
  6
CONTINUOUS
 62
    30
 10
36.81337598723394
 20
446.34554029576822
 30
0.0
 11
-36.813376000000062
 21
446.34554029576822
 31
0.0
  0
LINE
  8
SIZE
  6
CONTINUOUS
 62
    30
 10
-48.813376000000062
 20
446.34554029576822
 30
0.0
 11
-340.22196829780302
 21
446.34554029576822
 31
0.0
  0
CIRCLE
  8
SIZE
  6
CONTINUOUS
 62
    30
 10
48.81337598723394
 20
446.34554029576822
 30
0.0
 40
6.0
  0
LINE
  8
SIZE
  6
CONTINUOUS
 62
    30
 10
48.81337598723394
 20
446.34554029576822
 30
0.0
 11
36.81337598723394
 21
446.34554029576822
 31
0.0
  0
CIRCLE
  8
SIZE
  6
CONTINUOUS
 62
    30
 10
-48.813376000000062
 20
446.34554029576822
 30
0.0
 40
6.0
  0
LINE
  8
SIZE
  6
CONTINUOUS
 62
    30
 10
-48.813376000000062
 20
446.34554029576822
 30
0.0
 11
-36.813376000000062
 21
446.34554029576822
 31
0.0
  0
TEXT
  8
SIZE
  6
CONTINUOUS
 62
    30
 10
-325.37053972637472
 20
482.0122069624349
 30
0.0
 40
64.0
  1
φ98
 41
0.9
 72
     1
 11
-238.4219682978032
 21
482.0122069624349
 31
0.0
  0
POINT
  8
DEFPOINTS
  6
CONTINUOUS
 62
    30
 10
-48.813376000000062
 20
181.3352359999999
 30
0.0
  0
POINT
  8
DEFPOINTS
  6
CONTINUOUS
 62
    30
 10
48.81337598723394
 20
181.33523637733771
 30
0.0
  0
POINT
  8
DEFPOINTS
  6
CONTINUOUS
 62
    30
 10
48.81337598723394
 20
446.34554029576822
 30
0.0
  0
LINE
  8
SIZE
  6
CONTINUOUS
 62
    30
 10
-52.44110499999988
 20
171.68599399999991
 30
0.0
 11
-52.44110499999988
 21
608.51374891258297
 31
0.0
  0
LINE
  8
SIZE
  6
CONTINUOUS
 62
    30
 10
52.44110499999988
 20
171.68599399999991
 30
0.0
 11
52.44110499999988
 21
608.51374891258297
 31
0.0
  0
LINE
  8
SIZE
  6
CONTINUOUS
 62
    30
 10
40.44110499999988
 20
588.51374891258297
 30
0.0
 11
-40.44110499999988
 21
588.51374891258297
 31
0.0
  0
LINE
  8
SIZE
  6
CONTINUOUS
 62
    30
 10
-52.44110499999988
 20
588.51374891258297
 30
0.0
 11
-365.5507616511818
 21
588.51374891258297
 31
0.0
  0
CIRCLE
  8
SIZE
  6
CONTINUOUS
 62
    30
 10
52.44110499999988
 20
588.51374891258297
 30
0.0
 40
6.0
  0
LINE
  8
SIZE
  6
CONTINUOUS
 62
    30
 10
52.44110499999988
 20
588.51374891258297
 30
0.0
 11
40.44110499999988
 21
588.51374891258297
 31
0.0
  0
CIRCLE
  8
SIZE
  6
CONTINUOUS
 62
    30
 10
-52.44110499999988
 20
588.51374891258297
 30
0.0
 40
6.0
  0
LINE
  8
SIZE
  6
CONTINUOUS
 62
    30
 10
-52.44110499999988
 20
588.51374891258297
 30
0.0
 11
-40.44110499999988
 21
588.51374891258297
 31
0.0
  0
TEXT
  8
SIZE
  6
CONTINUOUS
 62
    30
 10
-350.69933307975322
 20
624.18041557924971
 30
0.0
 40
64.0
  1
φ105
 41
0.9
 72
     1
 11
-241.80790450832461
 21
624.18041557924971
 31
0.0
  0
POINT
  8
DEFPOINTS
  6
CONTINUOUS
 62
    30
 10
-52.44110499999988
 20
151.68599399999991
 30
0.0
  0
POINT
  8
DEFPOINTS
  6
CONTINUOUS
 62
    30
 10
52.44110499999988
 20
151.68599399999991
 30
0.0
  0
POINT
  8
DEFPOINTS
  6
CONTINUOUS
 62
    30
 10
52.44110499999988
 20
588.51374891258297
 30
0.0
  0
LINE
  8
SIZE
  6
CONTINUOUS
 62
    30
 10
140.5
 20
130.5
 30
0.0
 11
710.28734410252764
 21
130.4999999999998
 31
0.0
  0
LINE
  8
SIZE
  6
CONTINUOUS
 62
    30
 10
140.5
 20
-130.5
 30
0.0
 11
710.28734410252764
 21
-130.5000000000002
 31
0.0
  0
LINE
  8
SIZE
  6
CONTINUOUS
 62
    30
 10
690.28734410252764
 20
118.4999999999998
 30
0.0
 11
690.28734410252764
 21
-118.5000000000002
 31
0.0
  0
CIRCLE
  8
SIZE
  6
CONTINUOUS
 62
    30
 10
690.28734410252764
 20
130.4999999999998
 30
0.0
 40
6.0
  0
LINE
  8
SIZE
  6
CONTINUOUS
 62
    30
 10
690.28734410252764
 20
130.4999999999998
 30
0.0
 11
690.28734410252764
 21
118.4999999999998
 31
0.0
  0
CIRCLE
  8
SIZE
  6
CONTINUOUS
 62
    30
 10
690.28734410252764
 20
-130.5000000000002
 30
0.0
 40
6.0
  0
LINE
  8
SIZE
  6
CONTINUOUS
 62
    30
 10
690.28734410252764
 20
-130.5000000000002
 30
0.0
 11
690.28734410252764
 21
-118.5000000000002
 31
0.0
  0
TEXT
  8
SIZE
  6
CONTINUOUS
 62
    30
 10
665.28734410252764
 20
-61.714285714285701
 30
0.0
 40
64.0
  1
261
 50
90.0
 41
0.9
 72
     1
 11
665.28734410252764
 21
0.0
 31
0.0
  0
POINT
  8
DEFPOINTS
  6
CONTINUOUS
 62
    30
 10
120.5
 20
130.5
 30
0.0
  0
POINT
  8
DEFPOINTS
  6
CONTINUOUS
 62
    30
 10
120.5
 20
-130.5
 30
0.0
  0
POINT
  8
DEFPOINTS
  6
CONTINUOUS
 62
    30
 10
690.28734410252764
 20
-130.5000000000002
 30
0.0
  0
LINE
  8
SIZE
  6
CONTINUOUS
 62
    30
 10
-130.5
 20
-140.5
 30
0.0
 11
-130.50000000000051
 21
-1163.6506868977201
 31
0.0
  0
LINE
  8
SIZE
  6
CONTINUOUS
 62
    30
 10
130.5
 20
-140.5
 30
0.0
 11
130.5
 21
-1163.6506868977201
 31
0.0
  0
LINE
  8
SIZE
  6
CONTINUOUS
 62
    30
 10
-118.5000000000005
 20
-1143.6506868977201
 30
0.0
 11
118.5
 21
-1143.6506868977201
 31
0.0
  0
CIRCLE
  8
SIZE
  6
CONTINUOUS
 62
    30
 10
-130.50000000000051
 20
-1143.6506868977201
 30
0.0
 40
6.0
  0
LINE
  8
SIZE
  6
CONTINUOUS
 62
    30
 10
-130.50000000000051
 20
-1143.6506868977201
 30
0.0
 11
-118.5000000000005
 21
-1143.6506868977201
 31
0.0
  0
CIRCLE
  8
SIZE
  6
CONTINUOUS
 62
    30
 10
130.5
 20
-1143.6506868977201
 30
0.0
 40
6.0
  0
LINE
  8
SIZE
  6
CONTINUOUS
 62
    30
 10
130.5
 20
-1143.6506868977201
 30
0.0
 11
118.5
 21
-1143.6506868977201
 31
0.0
  0
TEXT
  8
SIZE
  6
CONTINUOUS
 62
    30
 10
-61.714285714285701
 20
-1118.6506868977201
 30
0.0
 40
64.0
  1
261
 41
0.9
 72
     1
 11
0.0
 21
-1118.6506868977201
 31
0.0
  0
POINT
  8
DEFPOINTS
  6
CONTINUOUS
 62
    30
 10
-130.5
 20
-120.5
 30
0.0
  0
POINT
  8
DEFPOINTS
  6
CONTINUOUS
 62
    30
 10
130.5
 20
-120.5
 30
0.0
  0
POINT
  8
DEFPOINTS
  6
CONTINUOUS
 62
    30
 10
130.5
 20
-1143.6506868977201
 30
0.0
  0
LINE
  8
NOTE
  6
CENTER
 62
     4
 10
98.0
 20
-59.0
 30
0.0
 11
67.0
 21
-59.0
 31
0.0
  0
LINE
  8
NOTE
  6
CENTER
 62
     4
 10
82.5
 20
-43.5
 30
0.0
 11
82.5
 21
-74.5
 31
0.0
  0
LINE
  8
NOTE
  6
CENTER
 62
     4
 10
72.5
 20
117.5
 30
0.0
 11
57.5
 21
117.5
 31
0.0
  0
LINE
  8
NOTE
  6
CENTER
 62
     4
 10
72.5
 20
-117.5
 30
0.0
 11
57.5
 21
-117.5
 31
0.0
  0
LINE
  8
NOTE
  6
CENTER
 62
     4
 10
-72.5
 20
-117.5
 30
0.0
 11
-57.5
 21
-117.5
 31
0.0
  0
LINE
  8
NOTE
  6
CENTER
 62
     4
 10
-72.5
 20
117.5
 30
0.0
 11
-57.5
 21
117.5
 31
0.0
  0
LINE
  8
NOTE
  6
CENTER
 62
     4
 10
65.0
 20
125.0
 30
0.0
 11
65.0
 21
110.0
 31
0.0
  0
LINE
  8
NOTE
  6
CENTER
 62
     4
 10
65.0
 20
-125.0
 30
0.0
 11
65.0
 21
-110.0
 31
0.0
  0
LINE
  8
NOTE
  6
CENTER
 62
     4
 10
-65.0
 20
-125.0
 30
0.0
 11
-65.0
 21
-110.0
 31
0.0
  0
LINE
  8
NOTE
  6
CENTER
 62
     4
 10
-65.0
 20
125.0
 30
0.0
 11
-65.0
 21
110.0
 31
0.0
  0
LINE
  8
NOTE
  6
CENTER
 62
     4
 10
125.0
 20
65.0
 30
0.0
 11
110.0
 21
65.0
 31
0.0
  0
LINE
  8
NOTE
  6
CENTER
 62
     4
 10
125.0
 20
-65.0
 30
0.0
 11
110.0
 21
-65.0
 31
0.0
  0
LINE
  8
NOTE
  6
CENTER
 62
     4
 10
-125.0
 20
-65.0
 30
0.0
 11
-110.0
 21
-65.0
 31
0.0
  0
LINE
  8
NOTE
  6
CENTER
 62
     4
 10
-125.0
 20
65.0
 30
0.0
 11
-110.0
 21
65.0
 31
0.0
  0
LINE
  8
NOTE
  6
CENTER
 62
     4
 10
117.5
 20
72.5
 30
0.0
 11
117.5
 21
57.5
 31
0.0
  0
LINE
  8
NOTE
  6
CENTER
 62
     4
 10
117.5
 20
-72.5
 30
0.0
 11
117.5
 21
-57.5
 31
0.0
  0
LINE
  8
NOTE
  6
CENTER
 62
     4
 10
-117.5
 20
-72.5
 30
0.0
 11
-117.5
 21
-57.5
 31
0.0
  0
LINE
  8
NOTE
  6
CENTER
 62
     4
 10
-117.5
 20
72.5
 30
0.0
 11
-117.5
 21
57.5
 31
0.0
  0
LINE
  8
DETAIL
  6
CONTINUOUS
 62
     5
 10
66.095812999999907
 20
-104.0
 30
0.0
 11
102.0
 21
-104.0
 31
0.0
  0
LINE
  8
DETAIL
  6
CONTINUOUS
 62
     5
 10
53.926906000000137
 20
104.0
 30
0.0
 11
89.5
 21
104.0
 31
0.0
  0
ARC
  8
DETAIL
  6
CONTINUOUS
 62
     5
 10
-89.5
 20
91.5
 30
0.0
 40
12.5
 50
90.0
 51
180.0
  0
ARC
  8
DETAIL
  6
CONTINUOUS
 62
     5
 10
89.5
 20
91.5
 30
0.0
 40
12.5
 50
0.0
 51
90.0
  0
LINE
  8
DETAIL
  6
CONTINUOUS
 62
     5
 10
-102.0
 20
91.5
 30
0.0
 11
-102.0
 21
-104.0
 31
0.0
  0
LINE
  8
DETAIL
  6
CONTINUOUS
 62
     5
 10
102.0
 20
91.5
 30
0.0
 11
102.0
 21
-104.0
 31
0.0
  0
LINE
  8
DETAIL
  6
CONTINUOUS
 62
     5
 10
-102.0
 20
-104.0
 30
0.0
 11
-66.095908000000236
 21
-104.0
 31
0.0
  0
LINE
  8
DETAIL
  6
CONTINUOUS
 62
     5
 10
-89.5
 20
104.0
 30
0.0
 11
-75.647568000000319
 21
104.0
 31
0.0
  0
CIRCLE
  8
DETAIL
  6
CONTINUOUS
 62
     5
 10
11.98380900000029
 20
3.463631999999961
 30
0.0
 40
31.457498999999999
  0
LINE
  8
DETAIL
  6
CONTINUOUS
 62
     5
 10
-74.501886000000013
 20
121.11022299999991
 30
0.0
 11
-74.345366000000467
 21
121.176025
 31
0.0
  0
LINE
  8
DETAIL
  6
CONTINUOUS
 62
     5
 10
-74.345366000000467
 20
121.176025
 30
0.0
 11
-74.179199000000153
 21
121.229572
 31
0.0
  0
LINE
  8
DETAIL
  6
CONTINUOUS
 62
     5
 10
-74.179199000000153
 20
121.229572
 30
0.0
 11
-74.006604000000152
 21
121.268838
 31
0.0
  0
LINE
  8
DETAIL
  6
CONTINUOUS
 62
     5
 10
-74.006604000000152
 20
121.268838
 30
0.0
 11
-73.8298020000002
 21
121.292796
 31
0.0
  0
LINE
  8
DETAIL
  6
CONTINUOUS
 62
     5
 10
-73.8298020000002
 20
121.292796
 30
0.0
 11
-73.650266000000101
 21
121.300882
 31
0.0
  0
LINE
  8
DETAIL
  6
CONTINUOUS
 62
     5
 10
-52.047320000000127
 20
81.681098999999904
 30
0.0
 11
-75.370316999999886
 21
93.262454999999818
 31
0.0
  0
LINE
  8
DETAIL
  6
CONTINUOUS
 62
     5
 10
-75.647568000000319
 20
119.30358
 30
0.0
 11
-75.647568000000319
 21
93.709664999999859
 31
0.0
  0
LINE
  8
DETAIL
  6
CONTINUOUS
 62
     5
 10
-49.029268999999658
 20
156.59639799999991
 30
0.0
 11
-48.813376000000062
 21
181.33523600000009
 31
0.0
  0
LINE
  8
OUTLINE
  6
CONTINUOUS
 62
     3
 10
-49.029268999999658
 20
156.59639799999991
 30
0.0
 11
-48.813376000000062
 21
181.3352359999999
 31
0.0
  0
LINE
  8
DETAIL
  6
CONTINUOUS
 62
     5
 10
-52.937224999999671
 20
123.26332600000001
 30
0.0
 11
-52.44110499999988
 21
151.68599399999991
 31
0.0
  0
LINE
  8
OUTLINE
  6
CONTINUOUS
 62
     3
 10
-52.592720000000099
 20
143.0
 30
0.0
 11
-52.44110499999988
 21
151.68599399999991
 31
0.0
  0
LINE
  8
DETAIL
  6
CONTINUOUS
 62
     5
 10
52.878558999999768
 20
126.7970029999999
 30
0.0
 11
52.876326999999947
 21
126.75213699999991
 31
0.0
  0
LINE
  8
DETAIL
  6
CONTINUOUS
 62
     5
 10
53.113515000000007
 20
122.0726929999998
 30
0.0
 11
53.106907999999748
 21
122.14797900000011
 31
0.0
  0
LINE
  8
DETAIL
  6
CONTINUOUS
 62
     5
 10
53.12328400000024
 20
121.95336999999989
 30
0.0
 11
53.113515000000007
 21
122.0726929999998
 31
0.0
  0
LINE
  8
DETAIL
  6
CONTINUOUS
 62
     5
 10
53.136199000000033
 20
121.7837589999999
 30
0.0
 11
53.12328400000024
 21
121.95336999999989
 31
0.0
  0
LINE
  8
DETAIL
  6
CONTINUOUS
 62
     5
 10
53.165248000000247
 20
121.37738899999999
 30
0.0
 11
53.136199000000033
 21
121.7837589999999
 31
0.0
  0
LINE
  8
DETAIL
  6
CONTINUOUS
 62
     5
 10
53.203375999999928
 20
120.841267
 30
0.0
 11
53.175165000000113
 21
121.2363129999999
 31
0.0
  0
LINE
  8
DETAIL
  6
CONTINUOUS
 62
     5
 10
53.175165000000113
 20
121.2363129999999
 30
0.0
 11
53.165248000000247
 21
121.37738899999999
 31
0.0
  0
LINE
  8
DETAIL
  6
CONTINUOUS
 62
     5
 10
53.926913000000241
 20
119.30358
 30
0.0
 11
53.918601000000308
 21
119.48560999999999
 31
0.0
  0
LINE
  8
DETAIL
  6
CONTINUOUS
 62
     5
 10
53.918601000000308
 20
119.48560999999999
 30
0.0
 11
53.894510999999973
 21
119.6618899999999
 31
0.0
  0
LINE
  8
DETAIL
  6
CONTINUOUS
 62
     5
 10
53.894510999999973
 20
119.6618899999999
 30
0.0
 11
53.855199000000077
 21
119.833983
 31
0.0
  0
LINE
  8
DETAIL
  6
CONTINUOUS
 62
     5
 10
53.855199000000077
 20
119.833983
 30
0.0
 11
53.801319000000149
 21
120.00066199999991
 31
0.0
  0
LINE
  8
DETAIL
  6
CONTINUOUS
 62
     5
 10
53.801319000000149
 20
120.00066199999991
 30
0.0
 11
53.733874000000007
 21
120.1602310000001
 31
0.0
  0
LINE
  8
DETAIL
  6
CONTINUOUS
 62
     5
 10
53.733874000000007
 20
120.1602310000001
 30
0.0
 11
53.653314000000137
 21
120.312572
 31
0.0
  0
LINE
  8
DETAIL
  6
CONTINUOUS
 62
     5
 10
53.653314000000137
 20
120.312572
 30
0.0
 11
53.560715000000073
 21
120.45627899999999
 31
0.0
  0
LINE
  8
DETAIL
  6
CONTINUOUS
 62
     5
 10
53.560715000000073
 20
120.45627899999999
 30
0.0
 11
53.456350999999813
 21
120.5913229999999
 31
0.0
  0
LINE
  8
DETAIL
  6
CONTINUOUS
 62
     5
 10
53.456350999999813
 20
120.5913229999999
 30
0.0
 11
53.340897000000041
 21
120.7169059999999
 31
0.0
  0
LINE
  8
DETAIL
  6
CONTINUOUS
 62
     5
 10
53.340897000000041
 20
120.7169059999999
 30
0.0
 11
53.214606999999887
 21
120.832633
 31
0.0
  0
LINE
  8
DETAIL
  6
CONTINUOUS
 62
     5
 10
53.214606999999887
 20
120.832633
 30
0.0
 11
53.077081999999791
 21
120.938367
 31
0.0
  0
LINE
  8
DETAIL
  6
CONTINUOUS
 62
     5
 10
53.077081999999791
 20
120.938367
 30
0.0
 11
52.931120000000192
 21
121.03164099999979
 31
0.0
  0
LINE
  8
DETAIL
  6
CONTINUOUS
 62
     5
 10
52.931120000000192
 20
121.03164099999979
 30
0.0
 11
52.781232000000273
 21
121.11022299999991
 31
0.0
  0
LINE
  8
DETAIL
  6
CONTINUOUS
 62
     5
 10
52.781232000000273
 20
121.11022299999991
 30
0.0
 11
52.624710999999927
 21
121.176025
 31
0.0
  0
LINE
  8
DETAIL
  6
CONTINUOUS
 62
     5
 10
52.624710999999927
 20
121.176025
 30
0.0
 11
52.458544999999958
 21
121.229572
 31
0.0
  0
LINE
  8
DETAIL
  6
CONTINUOUS
 62
     5
 10
52.458544999999958
 20
121.229572
 30
0.0
 11
52.285949999999957
 21
121.268838
 31
0.0
  0
LINE
  8
DETAIL
  6
CONTINUOUS
 62
     5
 10
52.285949999999957
 20
121.268838
 30
0.0
 11
52.109147999999998
 21
121.292796
 31
0.0
  0
LINE
  8
DETAIL
  6
CONTINUOUS
 62
     5
 10
52.109147999999998
 20
121.292796
 30
0.0
 11
51.929611999999914
 21
121.300882
 31
0.0
  0
LINE
  8
DETAIL
  6
CONTINUOUS
 62
     5
 10
52.937225000000133
 20
123.26332600000001
 30
0.0
 11
52.44110499999988
 21
151.68599399999991
 31
0.0
  0
LINE
  8
OUTLINE
  6
CONTINUOUS
 62
     3
 10
52.592719999999638
 20
143.0
 30
0.0
 11
52.44110499999988
 21
151.68599399999991
 31
0.0
  0
LINE
  8
DETAIL
  6
CONTINUOUS
 62
     5
 10
49.029268999999658
 20
156.59639799999991
 30
0.0
 11
48.813376000000062
 21
181.33523600000009
 31
0.0
  0
LINE
  8
OUTLINE
  6
CONTINUOUS
 62
     3
 10
49.029268999999658
 20
156.59639799999991
 30
0.0
 11
48.813376000000062
 21
181.3352359999999
 31
0.0
  0
LINE
  8
DETAIL
  6
CONTINUOUS
 62
     5
 10
52.878558999999768
 20
126.7970029999999
 30
0.0
 11
52.878558999999768
 21
126.6243069999998
 31
0.0
  0
LINE
  8
DETAIL
  6
CONTINUOUS
 62
     5
 10
53.926913000000241
 20
119.30358
 30
0.0
 11
53.926900999999823
 21
93.580614999999852
 31
0.0
  0
LINE
  8
DETAIL
  6
CONTINUOUS
 62
     5
 10
53.096598999999969
 20
122.2555829999999
 30
0.0
 11
53.092936000000009
 21
122.2906739999999
 31
0.0
  0
LINE
  8
DETAIL
  6
CONTINUOUS
 62
     5
 10
53.092936000000009
 20
122.2906739999999
 30
0.0
 11
53.089100000000137
 21
122.3255859999999
 31
0.0
  0
LINE
  8
DETAIL
  6
CONTINUOUS
 62
     5
 10
53.089100000000137
 20
122.3255859999999
 30
0.0
 11
53.085019000000102
 21
122.3606909999999
 31
0.0
  0
LINE
  8
DETAIL
  6
CONTINUOUS
 62
     5
 10
53.085019000000102
 20
122.3606909999999
 30
0.0
 11
53.080621999999948
 21
122.3962099999999
 31
0.0
  0
LINE
  8
DETAIL
  6
CONTINUOUS
 62
     5
 10
53.080621999999948
 20
122.3962099999999
 30
0.0
 11
53.075772000000143
 21
122.4327879999998
 31
0.0
  0
LINE
  8
DETAIL
  6
CONTINUOUS
 62
     5
 10
53.075772000000143
 20
122.4327879999998
 30
0.0
 11
53.070334000000003
 21
122.47080800000001
 31
0.0
  0
LINE
  8
DETAIL
  6
CONTINUOUS
 62
     5
 10
53.070334000000003
 20
122.47080800000001
 30
0.0
 11
53.064030000000002
 21
122.511354
 31
0.0
  0
LINE
  8
DETAIL
  6
CONTINUOUS
 62
     5
 10
53.064030000000002
 20
122.511354
 30
0.0
 11
53.056566000000203
 21
122.55514699999981
 31
0.0
  0
LINE
  8
DETAIL
  6
CONTINUOUS
 62
     5
 10
53.056566000000203
 20
122.55514699999981
 30
0.0
 11
53.047411000000011
 21
122.60370399999989
 31
0.0
  0
LINE
  8
DETAIL
  6
CONTINUOUS
 62
     5
 10
53.047411000000011
 20
122.60370399999989
 30
0.0
 11
53.035848999999871
 21
122.65858899999991
 31
0.0
  0
LINE
  8
DETAIL
  6
CONTINUOUS
 62
     5
 10
53.035848999999871
 20
122.65858899999991
 30
0.0
 11
53.02117700000008
 21
122.720343
 31
0.0
  0
LINE
  8
DETAIL
  6
CONTINUOUS
 62
     5
 10
53.02117700000008
 20
122.720343
 30
0.0
 11
53.008872999999767
 21
122.7669239999998
 31
0.0
  0
LINE
  8
DETAIL
  6
CONTINUOUS
 62
     5
 10
53.106907999999748
 20
122.14797900000011
 30
0.0
 11
53.103552000000043
 21
122.1843889999998
 31
0.0
  0
LINE
  8
DETAIL
  6
CONTINUOUS
 62
     5
 10
53.103552000000043
 20
122.1843889999998
 30
0.0
 11
53.096598999999969
 21
122.2555829999999
 31
0.0
  0
ARC
  8
DETAIL
  6
CONTINUOUS
 62
     5
 10
-54.934221999999863
 20
123.2981829999999
 30
0.0
 40
1.9973019999999999
 50
275.36444100001432
 51
358.99999999999818
  0
ARC
  8
DETAIL
  6
CONTINUOUS
 62
     5
 10
-50.444107999999687
 20
151.65113600000001
 30
0.0
 40
1.9973019999999999
 50
141.1852550000078
 51
178.99999999999829
  0
ARC
  8
OUTLINE
  6
CONTINUOUS
 62
     3
 10
-50.444107999999687
 20
151.65113600000001
 30
0.0
 40
1.9973019999999999
 50
141.1852550000078
 51
178.99999999999829
  0
ARC
  8
DETAIL
  6
CONTINUOUS
 62
     5
 10
-48.314070000000363
 20
181.3308789999999
 30
0.0
 40
0.499325
 50
90.0
 51
179.49999999999551
  0
ARC
  8
OUTLINE
  6
CONTINUOUS
 62
     3
 10
-48.314070000000363
 20
181.3308790000001
 30
0.0
 40
0.499325
 50
90.0
 51
179.49999999999551
  0
ARC
  8
DETAIL
  6
CONTINUOUS
 62
     5
 10
-75.148229000000356
 20
93.709671999999955
 30
0.0
 40
0.499325
 50
180.00073999999631
 51
243.59099299999991
  0
ARC
  8
DETAIL
  6
CONTINUOUS
 62
     5
 10
54.934221999999863
 20
123.2981829999999
 30
0.0
 40
1.9973019999999999
 50
181.00000000000179
 51
195.42752599999511
  0
ARC
  8
DETAIL
  6
CONTINUOUS
 62
     5
 10
50.444108000000142
 20
151.65113600000001
 30
0.0
 40
1.9973019999999999
 50
1.0000000000017619
 51
38.8147449999922
  0
ARC
  8
OUTLINE
  6
CONTINUOUS
 62
     3
 10
50.444108000000142
 20
151.65113600000001
 30
0.0
 40
1.9973019999999999
 50
1.0000000000017619
 51
38.8147449999922
  0
ARC
  8
DETAIL
  6
CONTINUOUS
 62
     5
 10
53.427574000000277
 20
93.580638999999792
 30
0.0
 40
0.499325
 50
316.78094599999679
 51
359.99724900000092
  0
ARC
  8
DETAIL
  6
CONTINUOUS
 62
     5
 10
48.314069999999901
 20
181.3308789999999
 30
0.0
 40
0.499325
 50
0.5000000000044884
 51
90.0
  0
ARC
  8
OUTLINE
  6
CONTINUOUS
 62
     3
 10
48.314069999999901
 20
181.3308790000001
 30
0.0
 40
0.499325
 50
0.5000000000044884
 51
90.0
  0
LINE
  8
DETAIL
  6
CONTINUOUS
 62
     5
 10
53.791452999999819
 20
93.238706000000093
 30
0.0
 11
35.275128000000223
 21
73.535579999999982
 31
0.0
  0
LINE
  8
DETAIL
  6
CONTINUOUS
 62
     5
 10
-52.047320000000127
 20
81.681098999999904
 30
0.0
 11
-39.946030999999948
 21
81.681098999999904
 31
0.0
  0
LINE
  8
DETAIL
  6
CONTINUOUS
 62
     5
 10
-30.470771000000241
 20
63.206059999999979
 30
0.0
 11
30.470771000000241
 21
63.206059999999979
 31
0.0
  0
LINE
  8
DETAIL
  6
CONTINUOUS
 62
     5
 10
-34.952776999999969
 20
76.687844999999925
 30
0.0
 11
-34.952776999999969
 21
73.192567000000054
 31
0.0
  0
LINE
  8
DETAIL
  6
CONTINUOUS
 62
     5
 10
-32.38383900000008
 20
64.629441000000043
 30
0.0
 11
-34.952776999999969
 21
73.192567000000054
 31
0.0
  0
LINE
  8
DETAIL
  6
CONTINUOUS
 62
     5
 10
34.817520000000059
 20
72.741708999999901
 30
0.0
 11
32.38383900000008
 21
64.629441000000043
 31
0.0
  0
ARC
  8
DETAIL
  6
CONTINUOUS
 62
     5
 10
-39.946030999999948
 20
76.687844999999925
 30
0.0
 40
4.9932540000000003
 50
0.0
 51
90.0
  0
ARC
  8
DETAIL
  6
CONTINUOUS
 62
     5
 10
-30.470771000000241
 20
65.203360999999859
 30
0.0
 40
1.9973019999999999
 50
196.69924399999579
 51
270.0
  0
ARC
  8
DETAIL
  6
CONTINUOUS
 62
     5
 10
30.470771000000241
 20
65.203360999999859
 30
0.0
 40
1.9973019999999999
 50
270.0
 51
343.30075600000418
  0
ARC
  8
DETAIL
  6
CONTINUOUS
 62
     5
 10
36.730587999999898
 20
72.167788999999857
 30
0.0
 40
1.9973019999999999
 50
136.7785950000094
 51
163.30075600000421
  0
LINE
  8
DETAIL
  6
CONTINUOUS
 62
     5
 10
-48.314070000000363
 20
181.8302039999999
 30
0.0
 11
48.314069999999901
 21
181.8302039999999
 31
0.0
  0
LINE
  8
OUTLINE
  6
CONTINUOUS
 62
     3
 10
-48.314070000000363
 20
181.83020400000009
 30
0.0
 11
48.314069999999901
 21
181.83020400000009
 31
0.0
  0
LINE
  8
DETAIL
  6
CONTINUOUS
 62
     5
 10
-49.029268999999658
 20
156.59639799999991
 30
0.0
 11
49.029268999999658
 21
156.59639799999991
 31
0.0
  0
LINE
  8
DETAIL
  6
CONTINUOUS
 62
     5
 10
52.000359000000117
 20
152.90305399999991
 30
0.0
 11
49.029268999999658
 21
156.59639799999991
 31
0.0
  0
LINE
  8
OUTLINE
  6
CONTINUOUS
 62
     3
 10
52.000359000000117
 20
152.90305399999991
 30
0.0
 11
49.029268999999658
 21
156.59639799999991
 31
0.0
  0
LINE
  8
DETAIL
  6
CONTINUOUS
 62
     5
 10
-52.000358999999662
 20
152.90305399999991
 30
0.0
 11
-49.029268999999658
 21
156.59639799999991
 31
0.0
  0
LINE
  8
OUTLINE
  6
CONTINUOUS
 62
     3
 10
-52.000358999999662
 20
152.90305399999991
 30
0.0
 11
-49.029268999999658
 21
156.59639799999991
 31
0.0
  0
LINE
  8
DETAIL
  6
CONTINUOUS
 62
     5
 10
-73.650266000000101
 20
121.300882
 30
0.0
 11
51.929611999999914
 21
121.300882
 31
0.0
  0
LINE
  8
DETAIL
  6
CONTINUOUS
 62
     5
 10
-75.647568000000319
 20
119.30358
 30
0.0
 11
-75.639255000000048
 21
119.48560999999999
 31
0.0
  0
LINE
  8
DETAIL
  6
CONTINUOUS
 62
     5
 10
-75.639255000000048
 20
119.48560999999999
 30
0.0
 11
-75.615165000000161
 21
119.6618899999999
 31
0.0
  0
LINE
  8
DETAIL
  6
CONTINUOUS
 62
     5
 10
-75.615165000000161
 20
119.6618899999999
 30
0.0
 11
-75.575852999999825
 21
119.833983
 31
0.0
  0
LINE
  8
DETAIL
  6
CONTINUOUS
 62
     5
 10
-75.575852999999825
 20
119.833983
 30
0.0
 11
-75.521974000000228
 21
120.00066199999991
 31
0.0
  0
LINE
  8
DETAIL
  6
CONTINUOUS
 62
     5
 10
-75.521974000000228
 20
120.00066199999991
 30
0.0
 11
-75.454529000000093
 21
120.1602310000001
 31
0.0
  0
LINE
  8
DETAIL
  6
CONTINUOUS
 62
     5
 10
-75.454529000000093
 20
120.1602310000001
 30
0.0
 11
-75.373967999999877
 21
120.312572
 31
0.0
  0
LINE
  8
DETAIL
  6
CONTINUOUS
 62
     5
 10
-75.373967999999877
 20
120.312572
 30
0.0
 11
-75.281370000000152
 21
120.45627899999999
 31
0.0
  0
LINE
  8
DETAIL
  6
CONTINUOUS
 62
     5
 10
-75.281370000000152
 20
120.45627899999999
 30
0.0
 11
-75.177005999999892
 21
120.5913229999999
 31
0.0
  0
LINE
  8
DETAIL
  6
CONTINUOUS
 62
     5
 10
-75.177005999999892
 20
120.5913229999999
 30
0.0
 11
-75.061550999999781
 21
120.7169059999999
 31
0.0
  0
LINE
  8
DETAIL
  6
CONTINUOUS
 62
     5
 10
-75.061550999999781
 20
120.7169059999999
 30
0.0
 11
-74.935261000000082
 21
120.832633
 31
0.0
  0
LINE
  8
DETAIL
  6
CONTINUOUS
 62
     5
 10
-74.935261000000082
 20
120.832633
 30
0.0
 11
-74.797735999999986
 21
120.938367
 31
0.0
  0
LINE
  8
DETAIL
  6
CONTINUOUS
 62
     5
 10
-74.797735999999986
 20
120.938367
 30
0.0
 11
-74.651773999999932
 21
121.03164099999979
 31
0.0
  0
LINE
  8
DETAIL
  6
CONTINUOUS
 62
     5
 10
-74.651773999999932
 20
121.03164099999979
 30
0.0
 11
-74.501886000000013
 21
121.11022299999991
 31
0.0
  0
LINE
  8
DETAIL
  6
CONTINUOUS
 62
     5
 10
100.040994
 20
-125.310434
 30
0.0
 11
99.835221000000274
 21
-125.58738100000009
 31
0.0
  0
LINE
  8
DETAIL
  6
CONTINUOUS
 62
     5
 10
99.835221000000274
 20
-125.58738100000009
 30
0.0
 11
99.610838999999942
 21
-125.84943800000021
 31
0.0
  0
LINE
  8
DETAIL
  6
CONTINUOUS
 62
     5
 10
99.610838999999942
 20
-125.84943800000021
 30
0.0
 11
99.368911999999909
 21
-126.095372
 31
0.0
  0
LINE
  8
DETAIL
  6
CONTINUOUS
 62
     5
 10
99.368911999999909
 20
-126.095372
 30
0.0
 11
99.110583000000133
 21
-126.324022
 31
0.0
  0
LINE
  8
DETAIL
  6
CONTINUOUS
 62
     5
 10
99.110583000000133
 20
-126.324022
 30
0.0
 11
98.837065000000166
 21
-126.534312
 31
0.0
  0
LINE
  8
DETAIL
  6
CONTINUOUS
 62
     5
 10
98.837065000000166
 20
-126.534312
 30
0.0
 11
98.549649000000045
 21
-126.7252400000002
 31
0.0
  0
LINE
  8
DETAIL
  6
CONTINUOUS
 62
     5
 10
98.549649000000045
 20
-126.7252400000002
 30
0.0
 11
98.249660999999833
 21
-126.8959090000001
 31
0.0
  0
LINE
  8
DETAIL
  6
CONTINUOUS
 62
     5
 10
98.249660999999833
 20
-126.8959090000001
 30
0.0
 11
97.938602000000174
 21
-127.0454570000002
 31
0.0
  0
LINE
  8
DETAIL
  6
CONTINUOUS
 62
     5
 10
97.938602000000174
 20
-127.0454570000002
 30
0.0
 11
97.61797099999967
 21
-127.173162
 31
0.0
  0
LINE
  8
DETAIL
  6
CONTINUOUS
 62
     5
 10
97.61797099999967
 20
-127.173162
 30
0.0
 11
97.28946199999973
 21
-127.2783730000001
 31
0.0
  0
LINE
  8
DETAIL
  6
CONTINUOUS
 62
     5
 10
97.28946199999973
 20
-127.2783730000001
 30
0.0
 11
96.954781999999796
 21
-127.3605950000001
 31
0.0
  0
ARC
  8
DETAIL
  6
CONTINUOUS
 62
     5
 10
-76.161705999999867
 20
-73.29010500000004
 30
0.0
 40
1.9973019999999999
 50
90.0
 51
130.37916499999491
  0
LINE
  8
DETAIL
  6
CONTINUOUS
 62
     5
 10
96.954781999999796
 20
-127.3605950000001
 30
0.0
 11
96.615659000000051
 21
-127.419484
 31
0.0
  0
LINE
  8
DETAIL
  6
CONTINUOUS
 62
     5
 10
-66.4761239999998
 20
-102.892691
 30
0.0
 11
-66.476756999999907
 21
-102.8933830000001
 31
0.0
  0
LINE
  8
DETAIL
  6
CONTINUOUS
 62
     5
 10
96.615659000000051
 20
-127.419484
 30
0.0
 11
96.256693000000269
 21
-127.45483299999999
 31
0.0
  0
LINE
  8
DETAIL
  6
CONTINUOUS
 62
     5
 10
-66.476756999999907
 20
-102.8933830000001
 30
0.0
 11
-66.44643300000007
 21
-102.944039
 31
0.0
  0
LINE
  8
DETAIL
  6
CONTINUOUS
 62
     5
 10
101.888042
 20
-104.1513400000001
 30
0.0
 11
101.8879010000001
 21
-104.148414
 31
0.0
  0
LINE
  8
DETAIL
  6
CONTINUOUS
 62
     5
 10
-66.44643300000007
 20
-102.944039
 30
0.0
 11
-66.427066999999624
 21
-102.991618
 31
0.0
  0
LINE
  8
DETAIL
  6
CONTINUOUS
 62
     5
 10
101.8878329999998
 20
-104.1619700000001
 30
0.0
 11
101.8880119999999
 21
-104.154573
 31
0.0
  0
LINE
  8
DETAIL
  6
CONTINUOUS
 62
     5
 10
-52.928539000000001
 20
-144.09444500000021
 30
0.0
 11
-67.083013999999821
 21
-100.9942759999999
 31
0.0
  0
LINE
  8
OUTLINE
  6
CONTINUOUS
 62
     3
 10
-52.928539000000001
 20
-144.09444500000021
 30
0.0
 11
-53.287964999999993
 21
-143.0
 31
0.0
  0
LINE
  8
DETAIL
  6
CONTINUOUS
 62
     5
 10
101.8880119999999
 20
-104.154573
 30
0.0
 11
101.888042
 21
-104.1513400000001
 31
0.0
  0
LINE
  8
DETAIL
  6
CONTINUOUS
 62
     5
 10
-101.90045000000011
 20
-104.0
 30
0.0
 11
-100.9191340000002
 21
-122.7347730000001
 31
0.0
  0
LINE
  8
DETAIL
  6
CONTINUOUS
 62
     5
 10
-101.860482
 20
-104.75491600000009
 30
0.0
 11
-101.85407500000019
 21
-104.88535400000001
 31
0.0
  0
ARC
  8
DETAIL
  6
CONTINUOUS
 62
     5
 10
98.89202000000023
 20
-99.995625000000018
 30
0.0
 40
0.9986510000000001
 50
270.0
 51
0.0010259999938832
  0
LINE
  8
DETAIL
  6
CONTINUOUS
 62
     5
 10
-101.8838930000002
 20
-104.262232
 30
0.0
 11
-101.860482
 21
-104.75491600000009
 31
0.0
  0
LINE
  8
DETAIL
  6
CONTINUOUS
 62
     5
 10
-101.8866840000001
 20
-104.196592
 30
0.0
 11
-101.8838930000002
 21
-104.262232
 31
0.0
  0
LINE
  8
DETAIL
  6
CONTINUOUS
 62
     5
 10
-101.8881369999999
 20
-104.151341
 30
0.0
 11
-101.8881070000002
 21
-104.1545940000001
 31
0.0
  0
LINE
  8
DETAIL
  6
CONTINUOUS
 62
     5
 10
-101.8881070000002
 20
-104.1545940000001
 30
0.0
 11
-101.8879270000002
 21
-104.1620130000001
 31
0.0
  0
LINE
  8
DETAIL
  6
CONTINUOUS
 62
     5
 10
-101.8879270000002
 20
-104.1620130000001
 30
0.0
 11
-101.88761699999991
 21
-104.17176400000019
 31
0.0
  0
LINE
  8
DETAIL
  6
CONTINUOUS
 62
     5
 10
-101.88761699999991
 20
-104.17176400000019
 30
0.0
 11
-101.8866840000001
 21
-104.196592
 31
0.0
  0
LINE
  8
DETAIL
  6
CONTINUOUS
 62
     5
 10
-101.8879969999998
 20
-104.148414
 30
0.0
 11
-101.8881369999999
 21
-104.151341
 31
0.0
  0
LINE
  8
DETAIL
  6
CONTINUOUS
 62
     5
 10
99.890446999999767
 20
-87.491782999999941
 30
0.0
 11
99.890671000000111
 21
-99.995607000000064
 31
0.0
  0
LINE
  8
DETAIL
  6
CONTINUOUS
 62
     5
 10
49.336158000000069
 20
-173.70364500000011
 30
0.0
 11
-49.336253999999833
 21
-173.70364500000011
 31
0.0
  0
ARC
  8
DETAIL
  6
CONTINUOUS
 62
     5
 10
-98.892036999999618
 20
-99.995625000000018
 30
0.0
 40
0.9986510000000001
 50
179.99789199999839
 51
270.0
  0
LINE
  8
DETAIL
  6
CONTINUOUS
 62
     5
 10
-52.29783499999985
 20
-170.39494800000011
 30
0.0
 11
52.297738999999638
 21
-170.39494800000011
 31
0.0
  0
LINE
  8
DETAIL
  6
CONTINUOUS
 62
     5
 10
-99.890228000000207
 20
-87.491461000000072
 30
0.0
 11
-99.890687999999955
 21
-99.995589000000109
 31
0.0
  0
LINE
  8
DETAIL
  6
CONTINUOUS
 62
     5
 10
98.416791000000103
 20
-85.984859000000142
 30
0.0
 11
98.090204000000085
 21
-85.917107000000215
 31
0.0
  0
LINE
  8
DETAIL
  6
CONTINUOUS
 62
     5
 10
98.090204000000085
 20
-85.917107000000215
 30
0.0
 11
98.060179999999946
 21
-85.911738000000014
 31
0.0
  0
LINE
  8
DETAIL
  6
CONTINUOUS
 62
     5
 10
98.060179999999946
 20
-85.911738000000014
 30
0.0
 11
98.032807000000048
 21
-85.907488000000058
 31
0.0
  0
LINE
  8
DETAIL
  6
CONTINUOUS
 62
     5
 10
98.032807000000048
 20
-85.907488000000058
 30
0.0
 11
98.007485999999972
 21
-85.904048000000103
 31
0.0
  0
LINE
  8
DETAIL
  6
CONTINUOUS
 62
     5
 10
98.007485999999972
 20
-85.904048000000103
 30
0.0
 11
97.983408000000054
 21
-85.901161000000002
 31
0.0
  0
LINE
  8
DETAIL
  6
CONTINUOUS
 62
     5
 10
97.983408000000054
 20
-85.901161000000002
 30
0.0
 11
97.960141000000021
 21
-85.898678999999902
 31
0.0
  0
LINE
  8
DETAIL
  6
CONTINUOUS
 62
     5
 10
97.960141000000021
 20
-85.898678999999902
 30
0.0
 11
97.937206999999944
 21
-85.8964840000001
 31
0.0
  0
LINE
  8
DETAIL
  6
CONTINUOUS
 62
     5
 10
97.937206999999944
 20
-85.8964840000001
 30
0.0
 11
97.914186999999856
 21
-85.894490000000133
 31
0.0
  0
LINE
  8
DETAIL
  6
CONTINUOUS
 62
     5
 10
97.914186999999856
 20
-85.894490000000133
 30
0.0
 11
97.890599999999722
 21
-85.892630000000054
 31
0.0
  0
LINE
  8
DETAIL
  6
CONTINUOUS
 62
     5
 10
97.890599999999722
 20
-85.892630000000054
 30
0.0
 11
97.866213000000243
 21
-85.890868000000182
 31
0.0
  0
LINE
  8
DETAIL
  6
CONTINUOUS
 62
     5
 10
97.866213000000243
 20
-85.890868000000182
 30
0.0
 11
97.840686000000005
 21
-85.889171000000033
 31
0.0
  0
LINE
  8
DETAIL
  6
CONTINUOUS
 62
     5
 10
97.840686000000005
 20
-85.889171000000033
 30
0.0
 11
97.813865999999962
 21
-85.887524000000212
 31
0.0
  0
LINE
  8
DETAIL
  6
CONTINUOUS
 62
     5
 10
97.813865999999962
 20
-85.887524000000212
 30
0.0
 11
97.755564000000049
 21
-85.884323000000222
 31
0.0
  0
LINE
  8
DETAIL
  6
CONTINUOUS
 62
     5
 10
93.996635999999853
 20
-85.835814000000028
 30
0.0
 11
77.455547999999908
 21
-71.768613000000187
 31
0.0
  0
LINE
  8
DETAIL
  6
CONTINUOUS
 62
     5
 10
-98.631935999999769
 20
-86.204762000000073
 30
0.0
 11
-102.0
 21
-89.648863000000119
 31
0.0
  0
LINE
  8
DETAIL
  6
CONTINUOUS
 62
     5
 10
-93.996731000000182
 20
-85.835814000000028
 30
0.0
 11
-77.455643999999666
 21
-71.768613000000187
 31
0.0
  0
LINE
  8
DETAIL
  6
CONTINUOUS
 62
     5
 10
-97.819610000000011
 20
-85.88786099999993
 30
0.0
 11
-97.847776999999951
 21
-85.889623000000029
 31
0.0
  0
LINE
  8
DETAIL
  6
CONTINUOUS
 62
     5
 10
-97.847776999999951
 20
-85.889623000000029
 30
0.0
 11
-97.874546000000009
 21
-85.891446999999971
 31
0.0
  0
LINE
  8
DETAIL
  6
CONTINUOUS
 62
     5
 10
97.755564000000049
 20
-85.884323000000222
 30
0.0
 11
97.69017199999962
 21
-85.881196999999929
 31
0.0
  0
LINE
  8
DETAIL
  6
CONTINUOUS
 62
     5
 10
-97.874546000000009
 20
-85.891446999999971
 30
0.0
 11
-97.900215000000117
 21
-85.89336000000003
 31
0.0
  0
LINE
  8
DETAIL
  6
CONTINUOUS
 62
     5
 10
-97.900215000000117
 20
-85.89336000000003
 30
0.0
 11
-97.924970999999914
 21
-85.895392000000129
 31
0.0
  0
LINE
  8
DETAIL
  6
CONTINUOUS
 62
     5
 10
-97.924970999999914
 20
-85.895392000000129
 30
0.0
 11
-97.949367000000166
 21
-85.897609999999986
 31
0.0
  0
LINE
  8
DETAIL
  6
CONTINUOUS
 62
     5
 10
-97.949367000000166
 20
-85.897609999999986
 30
0.0
 11
-97.973721999999725
 21
-85.900084000000106
 31
0.0
  0
LINE
  8
DETAIL
  6
CONTINUOUS
 62
     5
 10
-97.973721999999725
 20
-85.900084000000106
 30
0.0
 11
-97.998977000000195
 21
-85.902976000000081
 31
0.0
  0
LINE
  8
DETAIL
  6
CONTINUOUS
 62
     5
 10
-97.998977000000195
 20
-85.902976000000081
 30
0.0
 11
-98.025929999999789
 21
-85.906496000000061
 31
0.0
  0
LINE
  8
DETAIL
  6
CONTINUOUS
 62
     5
 10
-98.025929999999789
 20
-85.906496000000061
 30
0.0
 11
-98.055411000000277
 21
-85.910939000000099
 31
0.0
  0
LINE
  8
DETAIL
  6
CONTINUOUS
 62
     5
 10
-52.928539000000001
 20
-144.09444500000021
 30
0.0
 11
-52.483545000000049
 21
-169.588109
 31
0.0
  0
LINE
  8
OUTLINE
  6
CONTINUOUS
 62
     3
 10
-52.928539000000001
 20
-144.09444500000021
 30
0.0
 11
-52.483545000000049
 21
-169.588109
 31
0.0
  0
LINE
  8
DETAIL
  6
CONTINUOUS
 62
     5
 10
-98.055411000000277
 20
-85.910939000000099
 30
0.0
 11
-98.088579000000209
 21
-85.916778000000022
 31
0.0
  0
LINE
  8
DETAIL
  6
CONTINUOUS
 62
     5
 10
-49.153634999999667
 20
-174.52073200000001
 30
0.0
 11
-48.813423999999941
 21
-213.505032
 31
0.0
  0
LINE
  8
OUTLINE
  6
CONTINUOUS
 62
     3
 10
-49.153634999999667
 20
-174.52073200000001
 30
0.0
 11
-48.813423999999941
 21
-213.505032
 31
0.0
  0
LINE
  8
DETAIL
  6
CONTINUOUS
 62
     5
 10
-98.088579000000209
 20
-85.916778000000022
 30
0.0
 11
-98.125532000000021
 21
-85.924440000000004
 31
0.0
  0
LINE
  8
DETAIL
  6
CONTINUOUS
 62
     5
 10
49.15353899999991
 20
-174.52073200000001
 30
0.0
 11
48.813328000000183
 21
-213.505032
 31
0.0
  0
LINE
  8
OUTLINE
  6
CONTINUOUS
 62
     3
 10
49.15353899999991
 20
-174.52073200000001
 30
0.0
 11
48.813328000000183
 21
-213.505032
 31
0.0
  0
LINE
  8
DETAIL
  6
CONTINUOUS
 62
     5
 10
-98.125532000000021
 20
-85.924440000000004
 30
0.0
 11
-98.166885999999977
 21
-85.934583000000202
 31
0.0
  0
LINE
  8
DETAIL
  6
CONTINUOUS
 62
     5
 10
52.928442999999788
 20
-144.09444500000021
 30
0.0
 11
52.483449999999721
 21
-169.588109
 31
0.0
  0
LINE
  8
OUTLINE
  6
CONTINUOUS
 62
     3
 10
52.928442999999788
 20
-144.09444500000021
 30
0.0
 11
52.483449999999721
 21
-169.588109
 31
0.0
  0
LINE
  8
DETAIL
  6
CONTINUOUS
 62
     5
 10
-98.166885999999977
 20
-85.934583000000202
 30
0.0
 11
-98.212118000000373
 21
-85.947709000000032
 31
0.0
  0
LINE
  8
DETAIL
  6
CONTINUOUS
 62
     5
 10
-52.928539000000001
 20
-144.09444500000021
 30
0.0
 11
52.881666000000223
 21
-144.0943199999999
 31
0.0
  0
LINE
  8
DETAIL
  6
CONTINUOUS
 62
     5
 10
-98.212118000000373
 20
-85.947709000000032
 30
0.0
 11
-98.260729999999967
 21
-85.964337999999998
 31
0.0
  0
LINE
  8
DETAIL
  6
CONTINUOUS
 62
     5
 10
52.881666000000223
 20
-144.0943199999999
 30
0.0
 11
52.928442999999788
 21
-144.09444500000021
 31
0.0
  0
LINE
  8
OUTLINE
  6
CONTINUOUS
 62
     3
 10
52.881666000000223
 20
-144.0943199999999
 30
0.0
 11
52.928442999999788
 21
-144.09444500000021
 31
0.0
  0
LINE
  8
DETAIL
  6
CONTINUOUS
 62
     5
 10
-98.260729999999967
 20
-85.964337999999998
 30
0.0
 11
-98.312546000000111
 21
-85.985139000000117
 31
0.0
  0
LINE
  8
DETAIL
  6
CONTINUOUS
 62
     5
 10
-49.738554999999913
 20
-173.12585600000011
 30
0.0
 11
-51.898854000000028
 21
-170.96555699999999
 31
0.0
  0
LINE
  8
OUTLINE
  6
CONTINUOUS
 62
     3
 10
-49.738554999999913
 20
-173.12585600000011
 30
0.0
 11
-51.898854000000028
 21
-170.96555699999999
 31
0.0
  0
LINE
  8
DETAIL
  6
CONTINUOUS
 62
     5
 10
-98.312546000000111
 20
-85.985139000000117
 30
0.0
 11
-98.367243000000144
 21
-86.010813000000098
 31
0.0
  0
LINE
  8
DETAIL
  6
CONTINUOUS
 62
     5
 10
49.738459000000148
 20
-173.12585600000011
 30
0.0
 11
51.898758000000271
 21
-170.96555699999999
 31
0.0
  0
LINE
  8
OUTLINE
  6
CONTINUOUS
 62
     3
 10
49.738459000000148
 20
-173.12585600000011
 30
0.0
 11
51.898758000000271
 21
-170.96555699999999
 31
0.0
  0
LINE
  8
DETAIL
  6
CONTINUOUS
 62
     5
 10
-98.367243000000144
 20
-86.010813000000098
 30
0.0
 11
-98.423878999999943
 21
-86.041799000000083
 31
0.0
  0
LINE
  8
DETAIL
  6
CONTINUOUS
 62
     5
 10
48.314022000000023
 20
-214.0
 30
0.0
 11
-48.314118000000242
 21
-214.0
 31
0.0
  0
LINE
  8
OUTLINE
  6
CONTINUOUS
 62
     3
 10
48.314022000000023
 20
-214.0
 30
0.0
 11
-48.314118000000242
 21
-214.0
 31
0.0
  0
LINE
  8
DETAIL
  6
CONTINUOUS
 62
     5
 10
-98.423878999999943
 20
-86.041799000000083
 30
0.0
 11
-98.481606000000284
 21
-86.078523000000132
 31
0.0
  0
ARC
  8
DETAIL
  6
CONTINUOUS
 62
     5
 10
-51.150859999999739
 20
-174.5381610000002
 30
0.0
 40
1.9973019999999999
 50
0.5000000000044884
 51
44.999995000008362
  0
ARC
  8
OUTLINE
  6
CONTINUOUS
 62
     3
 10
-51.150859999999739
 20
-174.5381610000002
 30
0.0
 40
1.9973019999999999
 50
0.5000000000044884
 51
44.999995000008362
  0
LINE
  8
DETAIL
  6
CONTINUOUS
 62
     5
 10
-98.481606000000284
 20
-86.078523000000132
 30
0.0
 11
-98.539286999999604
 21
-86.121137999999974
 31
0.0
  0
ARC
  8
DETAIL
  6
CONTINUOUS
 62
     5
 10
-50.486547999999857
 20
-169.55325099999999
 30
0.0
 40
1.9973019999999999
 50
181.00000000000179
 51
224.99999500000831
  0
ARC
  8
OUTLINE
  6
CONTINUOUS
 62
     3
 10
-50.486547999999857
 20
-169.55325099999999
 30
0.0
 40
1.9973019999999999
 50
181.00000000000179
 51
224.99999500000831
  0
LINE
  8
DETAIL
  6
CONTINUOUS
 62
     5
 10
-98.539286999999604
 20
-86.121137999999974
 30
0.0
 11
-98.595796999999948
 21
-86.169624000000113
 31
0.0
  0
ARC
  8
DETAIL
  6
CONTINUOUS
 62
     5
 10
-48.314118000000242
 20
-213.50067400000009
 30
0.0
 40
0.499325
 50
180.50000000000449
 51
270.0
  0
ARC
  8
OUTLINE
  6
CONTINUOUS
 62
     3
 10
-48.314118000000242
 20
-213.50067400000009
 30
0.0
 40
0.499325
 50
180.50000000000449
 51
270.0
  0
LINE
  8
DETAIL
  6
CONTINUOUS
 62
     5
 10
-98.595796999999948
 20
-86.169624000000113
 30
0.0
 11
-98.63102200000003
 21
-86.203832000000148
 31
0.0
  0
ARC
  8
DETAIL
  6
CONTINUOUS
 62
     5
 10
51.15076500000032
 20
-174.5381610000002
 30
0.0
 40
1.9973019999999999
 50
135.0000049999916
 51
179.49999999999551
  0
ARC
  8
OUTLINE
  6
CONTINUOUS
 62
     3
 10
51.15076500000032
 20
-174.5381610000002
 30
0.0
 40
1.9973019999999999
 50
135.0000049999916
 51
179.49999999999551
  0
ARC
  8
DETAIL
  6
CONTINUOUS
 62
     5
 10
50.486452000000099
 20
-169.55325099999999
 30
0.0
 40
1.9973019999999999
 50
315.00000499999169
 51
358.99999999999818
  0
ARC
  8
OUTLINE
  6
CONTINUOUS
 62
     3
 10
50.486452000000099
 20
-169.55325099999999
 30
0.0
 40
1.9973019999999999
 50
315.00000499999169
 51
358.99999999999818
  0
ARC
  8
DETAIL
  6
CONTINUOUS
 62
     5
 10
48.314022000000023
 20
-213.50067400000009
 30
0.0
 40
0.499325
 50
270.0
 51
359.49999999999551
  0
ARC
  8
OUTLINE
  6
CONTINUOUS
 62
     3
 10
48.314022000000023
 20
-213.50067400000009
 30
0.0
 40
0.499325
 50
270.0
 51
359.49999999999551
  0
LINE
  8
DETAIL
  6
CONTINUOUS
 62
     5
 10
-100.9002820000005
 20
-122.7346789999999
 30
0.0
 11
-100.8706320000001
 21
-123.0763690000001
 31
0.0
  0
LINE
  8
DETAIL
  6
CONTINUOUS
 62
     5
 10
-100.8706320000001
 20
-123.0763690000001
 30
0.0
 11
-100.81748400000011
 21
-123.41577600000009
 31
0.0
  0
LINE
  8
DETAIL
  6
CONTINUOUS
 62
     5
 10
-100.81748400000011
 20
-123.41577600000009
 30
0.0
 11
-100.74095699999999
 21
-123.75134199999999
 31
0.0
  0
LINE
  8
DETAIL
  6
CONTINUOUS
 62
     5
 10
-100.74095699999999
 20
-123.75134199999999
 30
0.0
 11
-100.6413520000001
 21
-124.0812430000001
 31
0.0
  0
LINE
  8
DETAIL
  6
CONTINUOUS
 62
     5
 10
-100.6413520000001
 20
-124.0812430000001
 30
0.0
 11
-100.51911600000039
 21
-124.4037450000001
 31
0.0
  0
LINE
  8
DETAIL
  6
CONTINUOUS
 62
     5
 10
-100.51911600000039
 20
-124.4037450000001
 30
0.0
 11
-100.3748310000001
 21
-124.7171840000001
 31
0.0
  0
LINE
  8
DETAIL
  6
CONTINUOUS
 62
     5
 10
-100.3748310000001
 20
-124.7171840000001
 30
0.0
 11
-100.20924000000009
 21
-125.019904
 31
0.0
  0
LINE
  8
DETAIL
  6
CONTINUOUS
 62
     5
 10
-100.20924000000009
 20
-125.019904
 30
0.0
 11
-100.0231370000001
 21
-125.3104559999999
 31
0.0
  0
LINE
  8
DETAIL
  6
CONTINUOUS
 62
     5
 10
-100.0231370000001
 20
-125.3104559999999
 30
0.0
 11
-99.817461999999978
 21
-125.587391
 31
0.0
  0
LINE
  8
DETAIL
  6
CONTINUOUS
 62
     5
 10
-99.817461999999978
 20
-125.587391
 30
0.0
 11
-99.593177000000196
 21
-125.8494350000001
 31
0.0
  0
LINE
  8
DETAIL
  6
CONTINUOUS
 62
     5
 10
-99.593177000000196
 20
-125.8494350000001
 30
0.0
 11
-99.351345000000038
 21
-126.095356
 31
0.0
  0
LINE
  8
DETAIL
  6
CONTINUOUS
 62
     5
 10
-99.351345000000038
 20
-126.095356
 30
0.0
 11
-99.093104999999923
 21
-126.3239970000002
 31
0.0
  0
LINE
  8
DETAIL
  6
CONTINUOUS
 62
     5
 10
-99.093104999999923
 20
-126.3239970000002
 30
0.0
 11
-98.819671000000199
 21
-126.5342790000002
 31
0.0
  0
LINE
  8
DETAIL
  6
CONTINUOUS
 62
     5
 10
-98.819671000000199
 20
-126.5342790000002
 30
0.0
 11
-98.53233100000034
 21
-126.7252040000001
 31
0.0
  0
LINE
  8
DETAIL
  6
CONTINUOUS
 62
     5
 10
-98.53233100000034
 20
-126.7252040000001
 30
0.0
 11
-98.23240799999985
 21
-126.89587400000001
 31
0.0
  0
LINE
  8
DETAIL
  6
CONTINUOUS
 62
     5
 10
-98.23240799999985
 20
-126.89587400000001
 30
0.0
 11
-97.921402999999827
 21
-127.04542499999999
 31
0.0
  0
LINE
  8
DETAIL
  6
CONTINUOUS
 62
     5
 10
-97.921402999999827
 20
-127.04542499999999
 30
0.0
 11
-97.6008139999999
 21
-127.1731360000001
 31
0.0
  0
LINE
  8
DETAIL
  6
CONTINUOUS
 62
     5
 10
-97.6008139999999
 20
-127.1731360000001
 30
0.0
 11
-97.272334000000228
 21
-127.27835399999999
 31
0.0
  0
LINE
  8
DETAIL
  6
CONTINUOUS
 62
     5
 10
94.96037299999989
 20
-85.838180000000193
 30
0.0
 11
93.996635999999853
 21
-85.835814000000028
 31
0.0
  0
LINE
  8
DETAIL
  6
CONTINUOUS
 62
     5
 10
-97.272334000000228
 20
-127.27835399999999
 30
0.0
 11
-96.93767200000002
 21
-127.36058299999991
 31
0.0
  0
LINE
  8
DETAIL
  6
CONTINUOUS
 62
     5
 10
95.839815000000272
 20
-85.844301000000087
 30
0.0
 11
94.96037299999989
 21
-85.838180000000193
 31
0.0
  0
LINE
  8
DETAIL
  6
CONTINUOUS
 62
     5
 10
-96.93767200000002
 20
-127.36058299999991
 30
0.0
 11
-96.598552999999811
 21
-127.419478
 31
0.0
  0
LINE
  8
DETAIL
  6
CONTINUOUS
 62
     5
 10
96.463802999999643
 20
-85.851611000000048
 30
0.0
 11
95.839815000000272
 21
-85.844301000000087
 31
0.0
  0
LINE
  8
DETAIL
  6
CONTINUOUS
 62
     5
 10
-100.9191270000001
 20
-122.7347730000001
 30
0.0
 11
-100.901331
 21
-122.96838
 31
0.0
  0
LINE
  8
DETAIL
  6
CONTINUOUS
 62
     5
 10
96.886367000000064
 20
-85.858572000000095
 30
0.0
 11
96.463802999999643
 21
-85.851611000000048
 31
0.0
  0
LINE
  8
DETAIL
  6
CONTINUOUS
 62
     5
 10
-100.901331
 20
-122.96838
 30
0.0
 11
-100.8533859999998
 21
-123.321105
 31
0.0
  0
LINE
  8
DETAIL
  6
CONTINUOUS
 62
     5
 10
97.163556000000426
 20
-85.864452000000028
 30
0.0
 11
96.886367000000064
 21
-85.858572000000095
 31
0.0
  0
LINE
  8
DETAIL
  6
CONTINUOUS
 62
     5
 10
-100.8533859999998
 20
-123.321105
 30
0.0
 11
-100.7804180000003
 21
-123.6695159999999
 31
0.0
  0
LINE
  8
DETAIL
  6
CONTINUOUS
 62
     5
 10
97.391821000000164
 20
-85.870476000000053
 30
0.0
 11
97.163556000000426
 21
-85.864452000000028
 31
0.0
  0
LINE
  8
DETAIL
  6
CONTINUOUS
 62
     5
 10
-100.7804180000003
 20
-123.6695159999999
 30
0.0
 11
-100.68280200000029
 21
-124.01188500000011
 31
0.0
  0
LINE
  8
DETAIL
  6
CONTINUOUS
 62
     5
 10
97.53418099999999
 20
-85.875046000000111
 30
0.0
 11
97.391821000000164
 21
-85.870476000000053
 31
0.0
  0
LINE
  8
DETAIL
  6
CONTINUOUS
 62
     5
 10
-100.68280200000029
 20
-124.01188500000011
 30
0.0
 11
-100.5987610000002
 21
-124.250409
 31
0.0
  0
LINE
  8
DETAIL
  6
CONTINUOUS
 62
     5
 10
97.616684999999961
 20
-85.87811099999999
 30
0.0
 11
97.53418099999999
 21
-85.875046000000111
 31
0.0
  0
LINE
  8
DETAIL
  6
CONTINUOUS
 62
     5
 10
-95.931175000000167
 20
-127.4666060000002
 30
0.0
 11
-58.389272999999783
 21
-127.4666060000002
 31
0.0
  0
LINE
  8
DETAIL
  6
CONTINUOUS
 62
     5
 10
97.69017199999962
 20
-85.881196999999929
 30
0.0
 11
97.616684999999961
 21
-85.87811099999999
 31
0.0
  0
LINE
  8
DETAIL
  6
CONTINUOUS
 62
     5
 10
58.389177000000018
 20
-127.4666060000002
 30
0.0
 11
95.931201000000328
 21
-127.4666060000002
 31
0.0
  0
LINE
  8
DETAIL
  6
CONTINUOUS
 62
     5
 10
101.887107
 20
-104.1832460000001
 30
0.0
 11
101.8878329999998
 21
-104.1619700000001
 31
0.0
  0
LINE
  8
DETAIL
  6
CONTINUOUS
 62
     5
 10
101.8846060000001
 20
-104.2438139999999
 30
0.0
 11
101.887107
 21
-104.1832460000001
 31
0.0
  0
LINE
  8
DETAIL
  6
CONTINUOUS
 62
     5
 10
101.8693760000001
 20
-104.56999400000019
 30
0.0
 11
101.8846060000001
 21
-104.2438139999999
 31
0.0
  0
LINE
  8
DETAIL
  6
CONTINUOUS
 62
     5
 10
101.8642279999999
 20
-104.67621200000011
 30
0.0
 11
101.8693760000001
 21
-104.56999400000019
 31
0.0
  0
LINE
  8
DETAIL
  6
CONTINUOUS
 62
     5
 10
101.8583520000002
 20
-104.79644400000009
 30
0.0
 11
101.8642279999999
 21
-104.67621200000011
 31
0.0
  0
LINE
  8
DETAIL
  6
CONTINUOUS
 62
     5
 10
101.85166699999991
 20
-104.932231
 30
0.0
 11
101.8583520000002
 21
-104.79644400000009
 31
0.0
  0
LINE
  8
DETAIL
  6
CONTINUOUS
 62
     5
 10
101.89858600000029
 20
-104.0
 30
0.0
 11
101.7685730000003
 21
-106.58322100000009
 31
0.0
  0
LINE
  8
DETAIL
  6
CONTINUOUS
 62
     5
 10
101.76869600000011
 20
-106.5810280000001
 30
0.0
 11
100.9190389999999
 21
-122.7347730000001
 31
0.0
  0
LINE
  8
DETAIL
  6
CONTINUOUS
 62
     5
 10
100.9189710000001
 20
-122.7346789999999
 30
0.0
 11
100.8892100000003
 21
-123.07635399999999
 31
0.0
  0
LINE
  8
DETAIL
  6
CONTINUOUS
 62
     5
 10
100.8892100000003
 20
-123.07635399999999
 30
0.0
 11
100.835955
 21
-123.41574900000001
 31
0.0
  0
LINE
  8
DETAIL
  6
CONTINUOUS
 62
     5
 10
100.835955
 20
-123.41574900000001
 30
0.0
 11
100.759321
 21
-123.7513060000001
 31
0.0
  0
LINE
  8
DETAIL
  6
CONTINUOUS
 62
     5
 10
100.759321
 20
-123.7513060000001
 30
0.0
 11
100.6596119999999
 21
-124.0812020000001
 31
0.0
  0
LINE
  8
DETAIL
  6
CONTINUOUS
 62
     5
 10
100.6596119999999
 20
-124.0812020000001
 30
0.0
 11
100.5986339999999
 21
-124.2503330000002
 31
0.0
  0
LINE
  8
DETAIL
  6
CONTINUOUS
 62
     5
 10
96.273901999999907
 20
-127.4548340000001
 30
0.0
 11
95.913971999999831
 21
-127.4666060000002
 31
0.0
  0
LINE
  8
DETAIL
  6
CONTINUOUS
 62
     5
 10
-95.914068000000043
 20
-127.4666060000002
 30
0.0
 11
-96.273997999999665
 21
-127.4548340000001
 31
0.0
  0
LINE
  8
DETAIL
  6
CONTINUOUS
 62
     5
 10
-96.256788000000142
 20
-127.45483299999999
 30
0.0
 11
-96.615754999999808
 21
-127.419484
 31
0.0
  0
LINE
  8
DETAIL
  6
CONTINUOUS
 62
     5
 10
-96.615754999999808
 20
-127.419484
 30
0.0
 11
-96.954878000000008
 21
-127.3605950000001
 31
0.0
  0
LINE
  8
DETAIL
  6
CONTINUOUS
 62
     5
 10
-96.954878000000008
 20
-127.3605950000001
 30
0.0
 11
-97.289557999999943
 21
-127.2783730000001
 31
0.0
  0
LINE
  8
DETAIL
  6
CONTINUOUS
 62
     5
 10
-97.289557999999943
 20
-127.2783730000001
 30
0.0
 11
-97.618066999999883
 21
-127.173162
 31
0.0
  0
LINE
  8
DETAIL
  6
CONTINUOUS
 62
     5
 10
-97.618066999999883
 20
-127.173162
 30
0.0
 11
-97.938697000000047
 21
-127.0454570000002
 31
0.0
  0
LINE
  8
DETAIL
  6
CONTINUOUS
 62
     5
 10
-97.938697000000047
 20
-127.0454570000002
 30
0.0
 11
-98.249756000000161
 21
-126.8959090000001
 31
0.0
  0
LINE
  8
DETAIL
  6
CONTINUOUS
 62
     5
 10
-98.249756000000161
 20
-126.8959090000001
 30
0.0
 11
-98.549745000000257
 21
-126.7252400000002
 31
0.0
  0
LINE
  8
DETAIL
  6
CONTINUOUS
 62
     5
 10
-98.549745000000257
 20
-126.7252400000002
 30
0.0
 11
-98.83716000000004
 21
-126.534312
 31
0.0
  0
LINE
  8
DETAIL
  6
CONTINUOUS
 62
     5
 10
-98.83716000000004
 20
-126.534312
 30
0.0
 11
-99.110678000000007
 21
-126.324022
 31
0.0
  0
LINE
  8
DETAIL
  6
CONTINUOUS
 62
     5
 10
-99.110678000000007
 20
-126.324022
 30
0.0
 11
-99.369007999999667
 21
-126.095372
 31
0.0
  0
LINE
  8
DETAIL
  6
CONTINUOUS
 62
     5
 10
-99.369007999999667
 20
-126.095372
 30
0.0
 11
-99.61093400000027
 21
-125.84943800000021
 31
0.0
  0
LINE
  8
DETAIL
  6
CONTINUOUS
 62
     5
 10
-99.61093400000027
 20
-125.84943800000021
 30
0.0
 11
-99.835316000000148
 21
-125.58738100000009
 31
0.0
  0
LINE
  8
DETAIL
  6
CONTINUOUS
 62
     5
 10
-99.835316000000148
 20
-125.58738100000009
 30
0.0
 11
-100.0410899999997
 21
-125.310434
 31
0.0
  0
LINE
  8
DETAIL
  6
CONTINUOUS
 62
     5
 10
-100.0410899999997
 20
-125.310434
 30
0.0
 11
-100.22729200000001
 21
-125.01987200000011
 31
0.0
  0
LINE
  8
DETAIL
  6
CONTINUOUS
 62
     5
 10
-100.22729200000001
 20
-125.01987200000011
 30
0.0
 11
-100.3929840000001
 21
-124.7171440000002
 31
0.0
  0
LINE
  8
DETAIL
  6
CONTINUOUS
 62
     5
 10
-100.3929840000001
 20
-124.7171440000002
 30
0.0
 11
-100.53737
 21
-124.40370300000021
 31
0.0
  0
LINE
  8
DETAIL
  6
CONTINUOUS
 62
     5
 10
-100.53737
 20
-124.40370300000021
 30
0.0
 11
-100.5987329999998
 21
-124.2503260000001
 31
0.0
  0
LINE
  8
DETAIL
  6
CONTINUOUS
 62
     5
 10
96.598457000000053
 20
-127.419478
 30
0.0
 11
96.937576000000263
 21
-127.36058299999991
 31
0.0
  0
LINE
  8
DETAIL
  6
CONTINUOUS
 62
     5
 10
96.937576000000263
 20
-127.36058299999991
 30
0.0
 11
97.2722389999999
 21
-127.27835399999999
 31
0.0
  0
LINE
  8
DETAIL
  6
CONTINUOUS
 62
     5
 10
97.2722389999999
 20
-127.27835399999999
 30
0.0
 11
97.600719000000026
 21
-127.1731360000001
 31
0.0
  0
LINE
  8
DETAIL
  6
CONTINUOUS
 62
     5
 10
97.600719000000026
 20
-127.1731360000001
 30
0.0
 11
97.921307999999954
 21
-127.04542499999999
 31
0.0
  0
LINE
  8
DETAIL
  6
CONTINUOUS
 62
     5
 10
97.921307999999954
 20
-127.04542499999999
 30
0.0
 11
98.232312000000093
 21
-126.89587400000001
 31
0.0
  0
LINE
  8
DETAIL
  6
CONTINUOUS
 62
     5
 10
98.232312000000093
 20
-126.89587400000001
 30
0.0
 11
98.532234999999673
 21
-126.7252040000001
 31
0.0
  0
LINE
  8
DETAIL
  6
CONTINUOUS
 62
     5
 10
98.532234999999673
 20
-126.7252040000001
 30
0.0
 11
98.819574999999986
 21
-126.5342790000002
 31
0.0
  0
LINE
  8
DETAIL
  6
CONTINUOUS
 62
     5
 10
98.819574999999986
 20
-126.5342790000002
 30
0.0
 11
99.093010000000049
 21
-126.3239970000002
 31
0.0
  0
LINE
  8
DETAIL
  6
CONTINUOUS
 62
     5
 10
99.093010000000049
 20
-126.3239970000002
 30
0.0
 11
99.351249999999709
 21
-126.095356
 31
0.0
  0
LINE
  8
DETAIL
  6
CONTINUOUS
 62
     5
 10
-97.758393000000069
 20
-85.884463000000096
 30
0.0
 11
-97.819610000000011
 21
-85.88786099999993
 31
0.0
  0
LINE
  8
DETAIL
  6
CONTINUOUS
 62
     5
 10
99.351249999999709
 20
-126.095356
 30
0.0
 11
99.593082000000322
 21
-125.8494350000001
 31
0.0
  0
LINE
  8
DETAIL
  6
CONTINUOUS
 62
     5
 10
-97.689624000000094
 20
-85.881168000000116
 30
0.0
 11
-97.758393000000069
 21
-85.884463000000096
 31
0.0
  0
LINE
  8
DETAIL
  6
CONTINUOUS
 62
     5
 10
99.593082000000322
 20
-125.8494350000001
 30
0.0
 11
99.817367000000104
 21
-125.587391
 31
0.0
  0
LINE
  8
DETAIL
  6
CONTINUOUS
 62
     5
 10
99.817367000000104
 20
-125.587391
 30
0.0
 11
100.0230410000004
 21
-125.3104559999999
 31
0.0
  0
LINE
  8
DETAIL
  6
CONTINUOUS
 62
     5
 10
100.0230410000004
 20
-125.3104559999999
 30
0.0
 11
100.2091439999999
 21
-125.019904
 31
0.0
  0
LINE
  8
DETAIL
  6
CONTINUOUS
 62
     5
 10
100.2091439999999
 20
-125.019904
 30
0.0
 11
100.3747359999998
 21
-124.7171840000001
 31
0.0
  0
LINE
  8
DETAIL
  6
CONTINUOUS
 62
     5
 10
100.3747359999998
 20
-124.7171840000001
 30
0.0
 11
100.51902100000009
 21
-124.4037450000001
 31
0.0
  0
ARC
  8
DETAIL
  6
CONTINUOUS
 62
     5
 10
76.16161000000011
 20
-73.29010500000004
 30
0.0
 40
1.9973019999999999
 50
49.620835000005123
 51
90.0
  0
LINE
  8
DETAIL
  6
CONTINUOUS
 62
     5
 10
100.51902100000009
 20
-124.4037450000001
 30
0.0
 11
100.64125700000019
 21
-124.0812430000001
 31
0.0
  0
LINE
  8
DETAIL
  6
CONTINUOUS
 62
     5
 10
100.64125700000019
 20
-124.0812430000001
 30
0.0
 11
100.74086100000019
 21
-123.75134199999999
 31
0.0
  0
LINE
  8
DETAIL
  6
CONTINUOUS
 62
     5
 10
52.928442999999788
 20
-144.09444500000021
 30
0.0
 11
67.082918999999947
 21
-100.9942759999999
 31
0.0
  0
LINE
  8
OUTLINE
  6
CONTINUOUS
 62
     3
 10
52.928442999999788
 20
-144.09444500000021
 30
0.0
 11
53.287868999999773
 21
-143.0
 31
0.0
  0
LINE
  8
DETAIL
  6
CONTINUOUS
 62
     5
 10
100.74086100000019
 20
-123.75134199999999
 30
0.0
 11
100.81738899999981
 21
-123.41577600000009
 31
0.0
  0
LINE
  8
DETAIL
  6
CONTINUOUS
 62
     5
 10
100.81738899999981
 20
-123.41577600000009
 30
0.0
 11
100.8705359999999
 21
-123.0763690000001
 31
0.0
  0
LINE
  8
DETAIL
  6
CONTINUOUS
 62
     5
 10
-76.161705999999867
 20
-71.29280400000016
 30
0.0
 11
76.16161000000011
 21
-71.29280400000016
 31
0.0
  0
LINE
  8
DETAIL
  6
CONTINUOUS
 62
     5
 10
100.8705359999999
 20
-123.0763690000001
 30
0.0
 11
100.90018599999981
 21
-122.7346789999999
 31
0.0
  0
LINE
  8
DETAIL
  6
CONTINUOUS
 62
     5
 10
-100.5987329999998
 20
-124.2503260000001
 30
0.0
 11
-100.65970800000009
 21
-124.0812020000001
 31
0.0
  0
LINE
  8
DETAIL
  6
CONTINUOUS
 62
     5
 10
-100.65970800000009
 20
-124.0812020000001
 30
0.0
 11
-100.7594170000002
 21
-123.7513060000001
 31
0.0
  0
LINE
  8
DETAIL
  6
CONTINUOUS
 62
     5
 10
-100.7594170000002
 20
-123.7513060000001
 30
0.0
 11
-100.8360499999999
 21
-123.41574900000001
 31
0.0
  0
LINE
  8
DETAIL
  6
CONTINUOUS
 62
     5
 10
-100.8360499999999
 20
-123.41574900000001
 30
0.0
 11
-100.889306
 21
-123.07635399999999
 31
0.0
  0
LINE
  8
DETAIL
  6
CONTINUOUS
 62
     5
 10
-97.612407000000076
 20
-85.877938999999969
 30
0.0
 11
-97.689624000000094
 21
-85.881168000000116
 31
0.0
  0
LINE
  8
DETAIL
  6
CONTINUOUS
 62
     5
 10
-100.889306
 20
-123.07635399999999
 30
0.0
 11
-100.9190669999998
 21
-122.7346789999999
 31
0.0
  0
LINE
  8
DETAIL
  6
CONTINUOUS
 62
     5
 10
-97.479459000000134
 20
-85.873192000000017
 30
0.0
 11
-97.612407000000076
 21
-85.877938999999969
 31
0.0
  0
LINE
  8
DETAIL
  6
CONTINUOUS
 62
     5
 10
-98.892036999999618
 20
-100.9942759999999
 30
0.0
 11
98.89202000000023
 21
-100.9942759999999
 31
0.0
  0
LINE
  8
DETAIL
  6
CONTINUOUS
 62
     5
 10
100.5986629999998
 20
-124.2504160000001
 30
0.0
 11
100.6861079999999
 21
-124.0013490000001
 31
0.0
  0
LINE
  8
DETAIL
  6
CONTINUOUS
 62
     5
 10
-97.32503799999995
 20
-85.868569000000207
 30
0.0
 11
-97.479459000000134
 21
-85.873192000000017
 31
0.0
  0
LINE
  8
DETAIL
  6
CONTINUOUS
 62
     5
 10
100.6861079999999
 20
-124.0013490000001
 30
0.0
 11
100.7829590000001
 21
-123.65879100000009
 31
0.0
  0
LINE
  8
DETAIL
  6
CONTINUOUS
 62
     5
 10
-97.08462899999995
 20
-85.862641000000167
 30
0.0
 11
-97.32503799999995
 21
-85.868569000000207
 31
0.0
  0
LINE
  8
DETAIL
  6
CONTINUOUS
 62
     5
 10
98.416791000000103
 20
-85.984859000000142
 30
0.0
 11
102.0
 21
-89.648959999999988
 31
0.0
  0
LINE
  8
DETAIL
  6
CONTINUOUS
 62
     5
 10
100.7829590000001
 20
-123.65879100000009
 30
0.0
 11
100.8551520000001
 21
-123.310244
 31
0.0
  0
LINE
  8
DETAIL
  6
CONTINUOUS
 62
     5
 10
-96.726704000000154
 20
-85.855700999999954
 30
0.0
 11
-97.08462899999995
 21
-85.862641000000167
 31
0.0
  0
LINE
  8
DETAIL
  6
CONTINUOUS
 62
     5
 10
100.8551520000001
 20
-123.310244
 30
0.0
 11
100.9023150000003
 21
-122.9574400000001
 31
0.0
  0
LINE
  8
DETAIL
  6
CONTINUOUS
 62
     5
 10
-96.212100000000191
 20
-85.848300999999992
 30
0.0
 11
-96.726704000000154
 21
-85.855700999999954
 31
0.0
  0
LINE
  8
DETAIL
  6
CONTINUOUS
 62
     5
 10
100.9023150000003
 20
-122.9574400000001
 30
0.0
 11
100.9190319999998
 21
-122.7347730000001
 31
0.0
  0
LINE
  8
DETAIL
  6
CONTINUOUS
 62
     5
 10
-95.499227000000246
 20
-85.841425000000072
 30
0.0
 11
-96.212100000000191
 21
-85.848300999999992
 31
0.0
  0
LINE
  8
DETAIL
  6
CONTINUOUS
 62
     5
 10
100.5986339999999
 20
-124.2503330000002
 30
0.0
 11
100.53727400000029
 21
-124.40370300000021
 31
0.0
  0
LINE
  8
DETAIL
  6
CONTINUOUS
 62
     5
 10
-94.555969000000005
 20
-85.836677000000009
 30
0.0
 11
-95.499227000000246
 21
-85.841425000000072
 31
0.0
  0
LINE
  8
DETAIL
  6
CONTINUOUS
 62
     5
 10
100.53727400000029
 20
-124.40370300000021
 30
0.0
 11
100.3928879999999
 21
-124.7171440000002
 31
0.0
  0
LINE
  8
DETAIL
  6
CONTINUOUS
 62
     5
 10
-93.996731000000182
 20
-85.835814000000028
 30
0.0
 11
-94.555969000000005
 21
-85.836677000000009
 31
0.0
  0
LINE
  8
DETAIL
  6
CONTINUOUS
 62
     5
 10
100.3928879999999
 20
-124.7171440000002
 30
0.0
 11
100.2271970000002
 21
-125.01987200000011
 31
0.0
  0
LINE
  8
DETAIL
  6
CONTINUOUS
 62
     5
 10
100.2271970000002
 20
-125.01987200000011
 30
0.0
 11
100.040994
 21
-125.310434
 31
0.0
  0
CIRCLE
  8
DETAIL
  6
CONTINUOUS
 62
     5
 10
82.5
 20
-59.0
 30
0.0
 40
10.5
  0
ARC
  8
DETAIL
  6
CONTINUOUS
 62
     5
 10
-142.0
 20
142.0
 30
0.0
 40
1.0
 50
90.0
 51
180.0
  0
ARC
  8
OUTLINE
  6
CONTINUOUS
 62
     3
 10
-142.0
 20
142.0
 30
0.0
 40
1.0
 50
90.0
 51
180.0
  0
ARC
  8
DETAIL
  6
CONTINUOUS
 62
     5
 10
142.0
 20
142.0
 30
0.0
 40
1.0
 50
0.0
 51
90.0
  0
ARC
  8
OUTLINE
  6
CONTINUOUS
 62
     3
 10
142.0
 20
142.0
 30
0.0
 40
1.0
 50
0.0
 51
90.0
  0
ARC
  8
DETAIL
  6
CONTINUOUS
 62
     5
 10
142.0
 20
-142.0
 30
0.0
 40
1.0
 50
270.0
 51
0.0
  0
ARC
  8
OUTLINE
  6
CONTINUOUS
 62
     3
 10
142.0
 20
-142.0
 30
0.0
 40
1.0
 50
270.0
 51
0.0
  0
ARC
  8
DETAIL
  6
CONTINUOUS
 62
     5
 10
-142.0
 20
-142.0
 30
0.0
 40
1.0
 50
180.0
 51
270.0
  0
ARC
  8
OUTLINE
  6
CONTINUOUS
 62
     3
 10
-142.0
 20
-142.0
 30
0.0
 40
1.0
 50
180.0
 51
270.0
  0
LINE
  8
DETAIL
  6
CONTINUOUS
 62
     5
 10
-143.0
 20
0.0
 30
0.0
 11
-143.0
 21
142.0
 31
0.0
  0
LINE
  8
OUTLINE
  6
CONTINUOUS
 62
     3
 10
-143.0
 20
0.0
 30
0.0
 11
-143.0
 21
142.0
 31
0.0
  0
LINE
  8
DETAIL
  6
CONTINUOUS
 62
     5
 10
143.0
 20
0.0
 30
0.0
 11
143.0
 21
142.0
 31
0.0
  0
LINE
  8
OUTLINE
  6
CONTINUOUS
 62
     3
 10
143.0
 20
0.0
 30
0.0
 11
143.0
 21
142.0
 31
0.0
  0
LINE
  8
DETAIL
  6
CONTINUOUS
 62
     5
 10
143.0
 20
0.0
 30
0.0
 11
143.0
 21
-142.0
 31
0.0
  0
LINE
  8
OUTLINE
  6
CONTINUOUS
 62
     3
 10
143.0
 20
0.0
 30
0.0
 11
143.0
 21
-142.0
 31
0.0
  0
LINE
  8
DETAIL
  6
CONTINUOUS
 62
     5
 10
-143.0
 20
0.0
 30
0.0
 11
-143.0
 21
-142.0
 31
0.0
  0
LINE
  8
OUTLINE
  6
CONTINUOUS
 62
     3
 10
-143.0
 20
0.0
 30
0.0
 11
-143.0
 21
-142.0
 31
0.0
  0
LINE
  8
DETAIL
  6
CONTINUOUS
 62
     5
 10
-142.0
 20
143.0
 30
0.0
 11
-52.592720000000099
 21
143.0
 31
0.0
  0
LINE
  8
OUTLINE
  6
CONTINUOUS
 62
     3
 10
-142.0
 20
143.0
 30
0.0
 11
-52.592720000000099
 21
143.0
 31
0.0
  0
LINE
  8
DETAIL
  6
CONTINUOUS
 62
     5
 10
142.0
 20
143.0
 30
0.0
 11
52.592719999999638
 21
143.0
 31
0.0
  0
LINE
  8
OUTLINE
  6
CONTINUOUS
 62
     3
 10
142.0
 20
143.0
 30
0.0
 11
52.592719999999638
 21
143.0
 31
0.0
  0
LINE
  8
DETAIL
  6
CONTINUOUS
 62
     5
 10
142.0
 20
-143.0
 30
0.0
 11
53.287868999999773
 21
-143.0
 31
0.0
  0
LINE
  8
OUTLINE
  6
CONTINUOUS
 62
     3
 10
142.0
 20
-143.0
 30
0.0
 11
53.287868999999773
 21
-143.0
 31
0.0
  0
LINE
  8
DETAIL
  6
CONTINUOUS
 62
     5
 10
-142.0
 20
-143.0
 30
0.0
 11
-53.287964999999993
 21
-143.0
 31
0.0
  0
LINE
  8
OUTLINE
  6
CONTINUOUS
 62
     3
 10
-142.0
 20
-143.0
 30
0.0
 11
-53.287964999999993
 21
-143.0
 31
0.0
  0
LINE
  8
DETAIL
  6
CONTINUOUS
 62
     5
 10
130.5
 20
0.0
 30
0.0
 11
130.5
 21
120.5
 31
0.0
  0
LINE
  8
DETAIL
  6
CONTINUOUS
 62
     5
 10
130.5
 20
0.0
 30
0.0
 11
130.5
 21
-120.5
 31
0.0
  0
LINE
  8
DETAIL
  6
CONTINUOUS
 62
     5
 10
-130.5
 20
0.0
 30
0.0
 11
-130.5
 21
-120.5
 31
0.0
  0
LINE
  8
DETAIL
  6
CONTINUOUS
 62
     5
 10
-130.5
 20
0.0
 30
0.0
 11
-130.5
 21
120.5
 31
0.0
  0
LINE
  8
DETAIL
  6
CONTINUOUS
 62
     5
 10
120.5
 20
130.5
 30
0.0
 11
52.810908000000381
 21
130.5
 31
0.0
  0
LINE
  8
DETAIL
  6
CONTINUOUS
 62
     5
 10
120.5
 20
-130.5
 30
0.0
 11
57.392979000000203
 21
-130.5
 31
0.0
  0
LINE
  8
DETAIL
  6
CONTINUOUS
 62
     5
 10
-120.5
 20
-130.5
 30
0.0
 11
-57.393074999999953
 21
-130.5
 31
0.0
  0
LINE
  8
DETAIL
  6
CONTINUOUS
 62
     5
 10
-120.5
 20
130.5
 30
0.0
 11
-52.810907999999927
 21
130.5
 31
0.0
  0
ARC
  8
DETAIL
  6
CONTINUOUS
 62
     5
 10
120.5
 20
120.5
 30
0.0
 40
10.0
 50
0.0
 51
90.0
  0
ARC
  8
DETAIL
  6
CONTINUOUS
 62
     5
 10
120.5
 20
-120.5
 30
0.0
 40
10.0
 50
270.0
 51
0.0
  0
ARC
  8
DETAIL
  6
CONTINUOUS
 62
     5
 10
-120.5
 20
-120.5
 30
0.0
 40
10.0
 50
180.0
 51
270.0
  0
ARC
  8
DETAIL
  6
CONTINUOUS
 62
     5
 10
-120.5
 20
120.5
 30
0.0
 40
10.0
 50
90.0
 51
180.0
  0
CIRCLE
  8
DETAIL
  6
CONTINUOUS
 62
     5
 10
65.0
 20
117.5
 30
0.0
 40
2.5
  0
CIRCLE
  8
DETAIL
  6
CONTINUOUS
 62
     5
 10
65.0
 20
-117.5
 30
0.0
 40
2.5
  0
CIRCLE
  8
DETAIL
  6
CONTINUOUS
 62
     5
 10
-65.0
 20
-117.5
 30
0.0
 40
2.5
  0
CIRCLE
  8
DETAIL
  6
CONTINUOUS
 62
     5
 10
-65.0
 20
117.5
 30
0.0
 40
2.5
  0
CIRCLE
  8
DETAIL
  6
CONTINUOUS
 62
     5
 10
117.5
 20
65.0
 30
0.0
 40
2.5
  0
CIRCLE
  8
DETAIL
  6
CONTINUOUS
 62
     5
 10
117.5
 20
-65.0
 30
0.0
 40
2.5
  0
CIRCLE
  8
DETAIL
  6
CONTINUOUS
 62
     5
 10
-117.5
 20
-65.0
 30
0.0
 40
2.5
  0
CIRCLE
  8
DETAIL
  6
CONTINUOUS
 62
     5
 10
-117.5
 20
65.0
 30
0.0
 40
2.5
  0
LINE
  8
SIZE
  6
CONTINUOUS
 62
    30
 10
-122.0
 20
-104.0
 30
0.0
 11
-726.18383568741956
 21
-103.9999999999998
 31
0.0
  0
LINE
  8
SIZE
  6
CONTINUOUS
 62
    30
 10
-68.314118000000235
 20
-214.0
 30
0.0
 11
-726.18383568741956
 21
-213.9999999999998
 31
0.0
  0
LINE
  8
SIZE
  6
CONTINUOUS
 62
    30
 10
-706.18383568741956
 20
-115.9999999999998
 30
0.0
 11
-706.18383568741956
 21
-201.9999999999998
 31
0.0
  0
CIRCLE
  8
SIZE
  6
CONTINUOUS
 62
    30
 10
-706.18383568741956
 20
-103.9999999999998
 30
0.0
 40
6.0
  0
LINE
  8
SIZE
  6
CONTINUOUS
 62
    30
 10
-706.18383568741956
 20
-103.9999999999998
 30
0.0
 11
-706.18383568741956
 21
-115.9999999999998
 31
0.0
  0
CIRCLE
  8
SIZE
  6
CONTINUOUS
 62
    30
 10
-706.18383568741956
 20
-213.9999999999998
 30
0.0
 40
6.0
  0
LINE
  8
SIZE
  6
CONTINUOUS
 62
    30
 10
-706.18383568741956
 20
-213.9999999999998
 30
0.0
 11
-706.18383568741956
 21
-201.9999999999998
 31
0.0
  0
TEXT
  8
SIZE
  6
CONTINUOUS
 62
    30
 10
-731.18383568741956
 20
-222.08571428571409
 30
0.0
 40
64.0
  1
110
 50
90.0
 41
0.9
 72
     1
 11
-731.18383568741956
 21
-158.9999999999998
 31
0.0
  0
POINT
  8
DEFPOINTS
  6
CONTINUOUS
 62
    30
 10
-102.0
 20
-104.0
 30
0.0
  0
POINT
  8
DEFPOINTS
  6
CONTINUOUS
 62
    30
 10
-48.314118000000242
 20
-214.0
 30
0.0
  0
POINT
  8
DEFPOINTS
  6
CONTINUOUS
 62
    30
 10
-706.18383568741956
 20
-213.9999999999998
 30
0.0
  0
LINE
  8
SIZE
  6
CONTINUOUS
 62
    30
 10
-102.0
 20
-124.0
 30
0.0
 11
-102.0000000000005
 21
-925.8818373123795
 31
0.0
  0
LINE
  8
SIZE
  6
CONTINUOUS
 62
    30
 10
102.0
 20
-124.0
 30
0.0
 11
102.0
 21
-925.8818373123795
 31
0.0
  0
LINE
  8
SIZE
  6
CONTINUOUS
 62
    30
 10
-90.0
 20
-905.8818373123795
 30
0.0
 11
90.0
 21
-905.8818373123795
 31
0.0
  0
CIRCLE
  8
SIZE
  6
CONTINUOUS
 62
    30
 10
-102.0000000000005
 20
-905.8818373123795
 30
0.0
 40
6.0
  0
LINE
  8
SIZE
  6
CONTINUOUS
 62
    30
 10
-102.0000000000005
 20
-905.8818373123795
 30
0.0
 11
-90.000000000000455
 21
-905.8818373123795
 31
0.0
  0
CIRCLE
  8
SIZE
  6
CONTINUOUS
 62
    30
 10
102.0
 20
-905.8818373123795
 30
0.0
 40
6.0
  0
LINE
  8
SIZE
  6
CONTINUOUS
 62
    30
 10
102.0
 20
-905.8818373123795
 30
0.0
 11
90.0
 21
-905.8818373123795
 31
0.0
  0
TEXT
  8
SIZE
  6
CONTINUOUS
 62
    30
 10
-75.428571428571416
 20
-880.8818373123795
 30
0.0
 40
64.0
  1
204
 41
0.9
 72
     1
 11
0.0
 21
-880.8818373123795
 31
0.0
  0
POINT
  8
DEFPOINTS
  6
CONTINUOUS
 62
    30
 10
-102.0
 20
-104.0
 30
0.0
  0
POINT
  8
DEFPOINTS
  6
CONTINUOUS
 62
    30
 10
102.0
 20
-104.0
 30
0.0
  0
POINT
  8
DEFPOINTS
  6
CONTINUOUS
 62
    30
 10
102.0
 20
-905.8818373123795
 30
0.0
  0
LINE
  8
SIZE
  6
CONTINUOUS
 62
    30
 10
-122.0
 20
-104.0
 30
0.0
 11
-726.18383568741956
 21
-103.9999999999998
 31
0.0
  0
LINE
  8
SIZE
  6
CONTINUOUS
 62
    30
 10
-109.5
 20
104.0
 30
0.0
 11
-726.18383568741956
 21
104.0000000000002
 31
0.0
  0
LINE
  8
SIZE
  6
CONTINUOUS
 62
    30
 10
-706.18383568741956
 20
-91.999999999999773
 30
0.0
 11
-706.18383568741956
 21
92.000000000000227
 31
0.0
  0
LINE
  8
SIZE
  6
CONTINUOUS
 62
    30
 10
-706.18383568741956
 20
104.0000000000002
 30
0.0
 11
-706.18383568741956
 21
314.11428571428593
 31
0.0
  0
CIRCLE
  8
SIZE
  6
CONTINUOUS
 62
    30
 10
-706.18383568741956
 20
-103.9999999999998
 30
0.0
 40
6.0
  0
LINE
  8
SIZE
  6
CONTINUOUS
 62
    30
 10
-706.18383568741956
 20
-103.9999999999998
 30
0.0
 11
-706.18383568741956
 21
-91.999999999999773
 31
0.0
  0
CIRCLE
  8
SIZE
  6
CONTINUOUS
 62
    30
 10
-706.18383568741956
 20
104.0000000000002
 30
0.0
 40
6.0
  0
LINE
  8
SIZE
  6
CONTINUOUS
 62
    30
 10
-706.18383568741956
 20
104.0000000000002
 30
0.0
 11
-706.18383568741956
 21
92.000000000000227
 31
0.0
  0
TEXT
  8
SIZE
  6
CONTINUOUS
 62
    30
 10
-731.18383568741956
 20
141.00000000000011
 30
0.0
 40
64.0
  1
208
 50
90.0
 41
0.9
 72
     1
 11
-731.18383568741956
 21
215.05714285714291
 31
0.0
  0
POINT
  8
DEFPOINTS
  6
CONTINUOUS
 62
    30
 10
-102.0
 20
-104.0
 30
0.0
  0
POINT
  8
DEFPOINTS
  6
CONTINUOUS
 62
    30
 10
-89.5
 20
104.0
 30
0.0
  0
POINT
  8
DEFPOINTS
  6
CONTINUOUS
 62
    30
 10
-706.18383568741956
 20
104.0000000000002
 30
0.0
  0
LINE
  8
SIZE
  6
CONTINUOUS
 62
    30
 10
-68.314070000000356
 20
181.3308789999999
 30
0.0
 11
-618.76778039949022
 21
181.3308790000001
 31
0.0
  0
LINE
  8
SIZE
  6
CONTINUOUS
 62
    30
 10
-109.5
 20
104.0
 30
0.0
 11
-618.76778039949022
 21
104.0000000000002
 31
0.0
  0
LINE
  8
SIZE
  6
CONTINUOUS
 62
    30
 10
-598.76778039949022
 20
116.0
 30
0.0
 11
-598.76778039949022
 21
169.3308790000001
 31
0.0
  0
LINE
  8
SIZE
  6
CONTINUOUS
 62
    30
 10
-598.76778039949022
 20
181.3308790000001
 30
0.0
 11
-598.76778039949022
 21
440.96083774213912
 31
0.0
  0
CIRCLE
  8
SIZE
  6
CONTINUOUS
 62
    30
 10
-598.76778039949022
 20
104.0
 30
0.0
 40
6.0
  0
LINE
  8
SIZE
  6
CONTINUOUS
 62
    30
 10
-598.76778039949022
 20
104.0
 30
0.0
 11
-598.76778039949022
 21
116.0
 31
0.0
  0
CIRCLE
  8
SIZE
  6
CONTINUOUS
 62
    30
 10
-598.76778039949022
 20
181.3308790000001
 30
0.0
 40
6.0
  0
LINE
  8
SIZE
  6
CONTINUOUS
 62
    30
 10
-598.76778039949022
 20
181.3308790000001
 30
0.0
 11
-598.76778039949022
 21
169.3308790000001
 31
0.0
  0
TEXT
  8
SIZE
  6
CONTINUOUS
 62
    30
 10
-623.76778039949022
 20
322.70369488499631
 30
0.0
 40
64.0
  1
80
 50
90.0
 41
0.9
 72
     1
 11
-623.76778039949022
 21
369.33226631356769
 31
0.0
  0
POINT
  8
DEFPOINTS
  6
CONTINUOUS
 62
    30
 10
-48.314070000000363
 20
181.3308789999999
 30
0.0
  0
POINT
  8
DEFPOINTS
  6
CONTINUOUS
 62
    30
 10
-89.5
 20
104.0
 30
0.0
  0
POINT
  8
DEFPOINTS
  6
CONTINUOUS
 62
    30
 10
-598.76778039949022
 20
104.0
 30
0.0
  0
TEXT
  8
ETC
  6
CONTINUOUS
 62
    61
 10
746.3066838266177
 20
615.50644868796485
 30
0.0
 40
64.0
  1
VD-10ZFVC6_1
 41
0.9
  0
TEXT
  8
ETC
  6
CONTINUOUS
 62
    61
 10
742.12068982661731
 20
497.55113867313372
 30
0.0
 40
64.0
  1
換気扇
 41
0.9
  0
TEXT
  8
ETC
  6
CONTINUOUS
 62
    61
 10
792.82208807517327
 20
389.40236578690838
 30
0.0
 40
40.0
  1
VD-10ZFVC6
 41
0.9
  0
TEXT
  8
ETC
  6
CONTINUOUS
 62
    61
 10
792.82208807517327
 20
323.40236578690838
 30
0.0
 40
40.0
  1
VD-10ZFLC13
 41
0.9
  0
ENDSEC
  0
EOF
