  0
SECTION
  2
HEADER
  9
$ACADVER
  1
AC1009
  9
$DWGCODEPAGE
  3
dos932
  9
$INSBASE
 10
0.0
 20
0.0
 30
0.0
  9
$EXTMIN
 10
-965.28623871887976
 20
-597.29002753422901
 30
-0.0015258207003583
  9
$EXTMAX
 10
1254.872143181123
 20
743.40821132460587
 30
0.0000000349246037
  9
$LIMMIN
 10
-2970.0
 20
-2100.0
  9
$LIMMAX
 10
2970.0
 20
2100.0
  9
$ORTHOMODE
 70
     1
  9
$REGENMODE
 70
     1
  9
$FILLMODE
 70
     1
  9
$QTEXTMODE
 70
     0
  9
$MIRRTEXT
 70
     0
  9
$LTSCALE
 40
20.0
  9
$ATTMODE
 70
     1
  9
$TEXTSIZE
 40
64.0
  9
$TRACEWID
 40
0.05
  9
$TEXTSTYLE
  7
STANDARD
  9
$CLAYER
  8
SIZE
  9
$CELTYPE
  6
CONTINUOUS
  9
$CECOLOR
 62
     7
  9
$DIMSCALE
 40
1.0
  9
$DIMASZ
 40
12.0
  9
$DIMEXO
 40
20.0
  9
$DIMDLI
 40
200.0
  9
$DIMRND
 40
0.0
  9
$DIMDLE
 40
0.0
  9
$DIMEXE
 40
20.0
  9
$DIMTP
 40
0.0
  9
$DIMTM
 40
0.0
  9
$DIMTXT
 40
64.0
  9
$DIMCEN
 40
0.09
  9
$DIMTSZ
 40
0.0
  9
$DIMTOL
 70
     0
  9
$DIMLIM
 70
     0
  9
$DIMTIH
 70
     0
  9
$DIMTOH
 70
     0
  9
$DIMSE1
 70
     0
  9
$DIMSE2
 70
     0
  9
$DIMTAD
 70
     1
  9
$DIMZIN
 70
     8
  9
$DIMBLK
  1

  9
$DIMASO
 70
     1
  9
$DIMSHO
 70
     0
  9
$DIMPOST
  1

  9
$DIMAPOST
  1

  9
$DIMALT
 70
     0
  9
$DIMALTD
 70
     2
  9
$DIMALTF
 40
25.399999999999999
  9
$DIMLFAC
 40
1.0
  9
$DIMTOFL
 70
     1
  9
$DIMTVP
 40
0.0
  9
$DIMTIX
 70
     1
  9
$DIMSOXD
 70
     0
  9
$DIMSAH
 70
     0
  9
$DIMBLK1
  1

  9
$DIMBLK2
  1

  9
$DIMSTYLE
  2
STANDARD
  9
$DIMCLRD
 70
     7
  9
$DIMCLRE
 70
     7
  9
$DIMCLRT
 70
     7
  9
$DIMTFAC
 40
1.0
  9
$DIMGAP
 40
25.0
  9
$LUNITS
 70
     2
  9
$LUPREC
 70
     4
  9
$SKETCHINC
 40
0.1
  9
$FILLETRAD
 40
3.0
  9
$AUNITS
 70
     1
  9
$AUPREC
 70
     3
  9
$MENU
  1
ACAD
  9
$ELEVATION
 40
0.0
  9
$PELEVATION
 40
0.0
  9
$THICKNESS
 40
0.0
  9
$LIMCHECK
 70
     0
  9
$CHAMFERA
 40
0.0
  9
$CHAMFERB
 40
0.0
  9
$SKPOLY
 70
     0
  9
$TDCREATE
 40
2453019.62301037
  9
$TDUPDATE
 40
2459025.487600671
  9
$TDINDWG
 40
1.7135807986
  9
$TDUSRTIMER
 40
1.7135807986
  9
$USRTIMER
 70
     1
  9
$ANGBASE
 50
0.0
  9
$ANGDIR
 70
     0
  9
$PDMODE
 70
     3
  9
$PDSIZE
 40
-2.0
  9
$PLINEWID
 40
0.0
  9
$SPLFRAME
 70
     0
  9
$SPLINETYPE
 70
     6
  9
$SPLINESEGS
 70
     8
  9
$SURFTAB1
 70
     6
  9
$SURFTAB2
 70
     6
  9
$SURFTYPE
 70
     6
  9
$SURFU
 70
     6
  9
$SURFV
 70
     6
  9
$UCSNAME
  2

  9
$UCSORG
 10
0.0
 20
0.0
 30
0.0
  9
$UCSXDIR
 10
1.0
 20
0.0
 30
0.0
  9
$UCSYDIR
 10
0.0
 20
1.0
 30
0.0
  9
$PUCSNAME
  2

  9
$PUCSORG
 10
0.0
 20
0.0
 30
0.0
  9
$PUCSXDIR
 10
1.0
 20
0.0
 30
0.0
  9
$PUCSYDIR
 10
0.0
 20
1.0
 30
0.0
  9
$USERI1
 70
     0
  9
$USERI2
 70
     0
  9
$USERI3
 70
     0
  9
$USERI4
 70
     0
  9
$USERI5
 70
     0
  9
$USERR1
 40
20.0
  9
$USERR2
 40
0.0
  9
$USERR3
 40
0.0
  9
$USERR4
 40
0.0
  9
$USERR5
 40
0.0
  9
$WORLDVIEW
 70
     1
  9
$SHADEDGE
 70
     3
  9
$SHADEDIF
 70
    70
  9
$TILEMODE
 70
     1
  9
$MAXACTVP
 70
    48
  9
$PINSBASE
 10
0.0
 20
0.0
 30
0.0
  9
$PLIMCHECK
 70
     0
  9
$PEXTMIN
 10
-100000000000000000000.0
 20
-100000000000000000000.0
 30
-100000000000000000000.0
  9
$PEXTMAX
 10
100000000000000000000.0
 20
100000000000000000000.0
 30
100000000000000000000.0
  9
$PLIMMIN
 10
0.0
 20
0.0
  9
$PLIMMAX
 10
12.0
 20
9.0
  9
$UNITMODE
 70
     0
  9
$VISRETAIN
 70
     0
  9
$PLINEGEN
 70
     0
  9
$PSLTSCALE
 70
     0
  9
$TREEDEPTH
 70
  3020
  9
$ATTDIA
 70
     0
  9
$ATTREQ
 70
     1
  9
$BLIPMODE
 70
     1
  9
$COORDS
 70
     1
  9
$DRAGMODE
 70
     2
  9
$OSMODE
 70
     0
  9
$HANDLING
 70
     0
  9
$HANDSEED
  5
FB60
  0
ENDSEC
  0
SECTION
  2
TABLES
  0
TABLE
  2
LTYPE
 70
     3
  0
LTYPE
  2
CONTINUOUS
 70
     0
  3
実線
 72
    65
 73
     0
 40
0.0
  0
LTYPE
  2
DASHDOT
 70
     0
  3
____ _ ____ _ ____ _ ____ _ ____ _ ____ _ ____
 72
    65
 73
     4
 40
5.5
 49
4.0
 49
-0.6
 49
0.3
 49
-0.6
  0
LTYPE
  2
CENTER
 70
     0
  3
Center ____ _ ____ _ ____ _ ____ _ ____ _ ____
 72
    65
 73
     4
 40
1.0
 49
0.5
 49
-0.25
 49
0.0
 49
-0.25
  0
ENDTAB
  0
TABLE
  2
LAYER
 70
    12
  0
LAYER
  2
0
 70
     0
 62
     7
  6
CONTINUOUS
  0
LAYER
  2
BASIS
 70
     0
 62
     6
  6
DASHDOT
  0
LAYER
  2
OUTLINE
 70
     0
 62
     3
  6
CONTINUOUS
  0
LAYER
  2
DETAIL
 70
     0
 62
     5
  6
CONTINUOUS
  0
LAYER
  2
SIZE
 70
     0
 62
    30
  6
CONTINUOUS
  0
LAYER
  2
ARRANGE
 70
     0
 62
     1
  6
CONTINUOUS
  0
LAYER
  2
DEFPOINTS
 70
     0
 62
     7
  6
CONTINUOUS
  0
LAYER
  2
ETC
 70
     0
 62
    61
  6
CONTINUOUS
  0
LAYER
  2
FIX
 70
     0
 62
    11
  6
CONTINUOUS
  0
LAYER
  2
NOTE
 70
     0
 62
     4
  6
CONTINUOUS
  0
LAYER
  2
SERVICESPACE
 70
    64
 62
     2
  6
DASHDOT
  0
LAYER
  2
SYMBOLLINE
 70
    64
 62
    15
  6
CONTINUOUS
  0
ENDTAB
  0
TABLE
  2
STYLE
 70
     1
  0
STYLE
  2
STANDARD
 70
     0
 40
64.0
 41
0.9
 50
0.0
 71
     0
 42
64.0
  3
SIMPLEX.shx
  4
BIGFONT.shx
  0
ENDTAB
  0
TABLE
  2
APPID
 70
    19
  0
APPID
  2
ACAD
 70
     0
  0
APPID
  2
AUTOCAD_POSTSCRIPT_FIGURE
 70
     0
  0
APPID
  2
ACAD_EXEMPT_FROM_CAD_STANDARDS
 70
     0
  0
APPID
  2
ACAD_PSEXT
 70
     0
  0
APPID
  2
ACAUTHENVIRON
 70
     0
  0
APPID
  2
GENIUS_GENOENT_13
 70
     0
  0
APPID
  2
GENIUS_GENCFG_13
 70
     0
  0
APPID
  2
GENIUS_GENCFG0_13
 70
     0
  0
APPID
  2
GENIUS_GENCFG1_13
 70
     0
  0
APPID
  2
GENIUS_GENCFG2_13
 70
     0
  0
APPID
  2
GENIUS_GENCFG3_13
 70
     0
  0
APPID
  2
GENIUS_GENCFG4_13
 70
     0
  0
APPID
  2
GENIUS_GEVCFG0_13
 70
     0
  0
APPID
  2
CONTENTBLOCKICON
 70
     0
  0
APPID
  2
CONTENTBLOCKDESCRIPTION
 70
     0
  0
APPID
  2
ACAD_NAV_VCDISPLAY
 70
     0
  0
APPID
  2
ACAD_MLEADERVER
 70
     0
  0
APPID
  2
ACDBDYNAMICBLOCKTRUENAME
 70
     0
  0
APPID
  2
ACDBDYNAMICBLOCKGUID
 70
     0
  0
ENDTAB
  0
TABLE
  2
DIMSTYLE
 70
     1
  0
DIMSTYLE
  2
STANDARD
 70
     0
  3

  4

  5
_ORIGIN
  6

  7

 40
1.0
 41
12.0
 42
20.0
 43
200.0
 44
20.0
 45
0.0
 46
0.0
 47
0.0
 48
0.0
140
64.0
141
0.09
142
0.0
143
25.399999999999999
144
1.0
145
0.0
146
1.0
147
25.0
 71
     0
 72
     0
 73
     0
 74
     0
 75
     0
 76
     0
 77
     1
 78
     8
170
     0
171
     2
172
     1
173
     0
174
     1
175
     0
176
     7
177
     7
178
     7
  0
ENDTAB
  0
TABLE
  2
VIEW
 70
     1
  0
VIEW
  2
ALL
 70
     0
 40
4282.6198079999986
 10
0.0
 20
41.309904000000003
 41
5940.0
 11
0.0
 21
0.0
 31
1.0
 12
0.0
 22
0.0
 32
0.0
 42
50.0
 43
0.0
 44
0.0
 50
0.0
 71
     0
  0
ENDTAB
  0
TABLE
  2
UCS
 70
     0
  0
ENDTAB
  0
TABLE
  2
VPORT
 70
     1
  0
VPORT
  2
*ACTIVE
 70
     0
 10
0.0
 20
0.0
 11
1.0
 21
1.0
 12
144.7929522311214
 22
73.05909189518843
 13
0.0
 23
0.0
 14
1.0
 24
1.0
 15
0.0
 25
0.0
 16
0.0
 26
0.0
 36
1.0
 17
0.0
 27
0.0
 37
0.0
 40
1349.5868459672911
 41
1.747787610619469
 42
50.0
 43
0.0
 44
0.0
 50
0.0
 51
0.0
 71
     0
 72
  1000
 73
     1
 74
     3
 75
     0
 76
     0
 77
     0
 78
     0
  0
ENDTAB
  0
ENDSEC
  0
SECTION
  2
BLOCKS
  0
BLOCK
  8
0
  2
_ORIGIN
 70
     0
 10
0.0
 20
0.0
 30
0.0
  3
_ORIGIN
  1
_ORIGIN
  0
CIRCLE
  8
0
  6
CONTINUOUS
 62
     7
 10
0.0
 20
0.0
 30
0.0
 40
0.5
  0
LINE
  8
0
  6
CONTINUOUS
 62
     7
 10
0.0
 20
0.0
 30
0.0
 11
-1.0
 21
0.0
 31
0.0
  0
ENDBLK
  8
0
  0
ENDSEC
  0
SECTION
  2
ENTITIES
  0
LINE
  8
NOTE
  6
CONTINUOUS
 62
     4
 10
-117.5
 20
0.0
 30
0.0
 11
-352.78356798458663
 21
264.8116364789787
 31
0.0
  0
LINE
  8
NOTE
  6
CONTINUOUS
 62
     4
 10
-117.5
 20
0.0
 30
0.0
 11
-148.81274534757901
 21
22.68342241888331
 31
0.0
  0
LINE
  8
NOTE
  6
CONTINUOUS
 62
     4
 10
-136.49527469402349
 20
35.19929633376114
 30
0.0
 11
-117.5
 21
0.0
 31
0.0
  0
TEXT
  8
NOTE
  6
CONTINUOUS
 62
     4
 10
233.01990145663851
 20
82.085018296530279
 30
0.0
 40
64.0
  1
RA
 41
0.9
 72
     2
 11
334.5056157423528
 21
82.085018296530279
 31
0.0
  0
TEXT
  8
NOTE
  6
CONTINUOUS
 62
     4
 10
-389.08336949270068
 20
76.135908881067508
 30
0.0
 40
64.0
  1
EA
 41
0.9
 72
     2
 11
-293.08336949270068
 21
76.135908881067508
 31
0.0
  0
LINE
  8
BASIS
  6
DASHDOT
 62
     6
 10
-0.0000965000001543
 20
-49.296064929904333
 30
0.0
 11
-0.0000965000001543
 21
242.8854340296775
 31
0.0
  0
TEXT
  8
NOTE
  6
CONTINUOUS
 62
     4
 10
403.78965398026548
 20
560.33528675872685
 30
0.0
 40
64.0
  1
EL
 41
0.9
  0
LINE
  8
NOTE
  6
CONTINUOUS
 62
     4
 10
542.83695159225431
 20
533.0694889489273
 30
0.0
 11
258.00866893490092
 21
533.069488948855
 31
0.0
  0
LINE
  8
NOTE
  6
CONTINUOUS
 62
     4
 10
-59.0
 20
149.49999999999989
 30
0.0
 11
258.00866893490092
 21
533.069488948855
 31
0.0
  0
LINE
  8
NOTE
  6
CONTINUOUS
 62
     4
 10
-59.0
 20
149.49999999999989
 30
0.0
 11
-26.309434089616161
 21
170.22055160904111
 31
0.0
  0
LINE
  8
NOTE
  6
CONTINUOUS
 62
     4
 10
-44.253053188944477
 20
186.60861684067751
 30
0.0
 11
-59.0
 21
149.49999999999989
 31
0.0
  0
CIRCLE
  8
ARRANGE
  6
CONTINUOUS
 62
     1
 10
0.0
 20
0.0
 30
0.0
 40
40.0
  0
POINT
  8
ARRANGE
  6
CONTINUOUS
 62
     1
 10
0.0
 20
0.0
 30
0.0
 50
90.000000000000014
  0
CIRCLE
  8
FIX
  6
CONTINUOUS
 62
    11
 10
117.5
 20
0.0
 30
0.0
 40
10.0
  0
CIRCLE
  8
FIX
  6
CONTINUOUS
 62
    11
 10
65.0
 20
0.0
 30
0.0
 40
10.0
  0
CIRCLE
  8
FIX
  6
CONTINUOUS
 62
    11
 10
-65.0
 20
0.0
 30
0.0
 40
10.0
  0
CIRCLE
  8
FIX
  6
CONTINUOUS
 62
    11
 10
-117.5
 20
0.0
 30
0.0
 40
10.0
  0
LINE
  8
SIZE
  6
CONTINUOUS
 62
    30
 10
-102.0
 20
20.0
 30
0.0
 11
-102.0
 21
649.50698328004364
 31
0.0
  0
LINE
  8
SIZE
  6
CONTINUOUS
 62
    30
 10
104.75
 20
20.0
 30
0.0
 11
104.75
 21
649.50698328004364
 31
0.0
  0
LINE
  8
SIZE
  6
CONTINUOUS
 62
    30
 10
-90.0
 20
629.50698328004364
 30
0.0
 11
92.75
 21
629.50698328004364
 31
0.0
  0
CIRCLE
  8
SIZE
  6
CONTINUOUS
 62
    30
 10
-102.0
 20
629.50698328004364
 30
0.0
 40
6.0
  0
LINE
  8
SIZE
  6
CONTINUOUS
 62
    30
 10
-102.0
 20
629.50698328004364
 30
0.0
 11
-90.0
 21
629.50698328004364
 31
0.0
  0
CIRCLE
  8
SIZE
  6
CONTINUOUS
 62
    30
 10
104.75
 20
629.50698328004364
 30
0.0
 40
6.0
  0
LINE
  8
SIZE
  6
CONTINUOUS
 62
    30
 10
104.75
 20
629.50698328004364
 30
0.0
 11
92.75
 21
629.50698328004364
 31
0.0
  0
TEXT
  8
SIZE
  6
CONTINUOUS
 62
    30
 10
-71.317791357142951
 20
654.50698328004364
 30
0.0
 40
64.0
  1
208
 41
0.9
 72
     1
 11
2.7393514999998838
 21
654.50698328004364
 31
0.0
  0
POINT
  8
DEFPOINTS
  6
CONTINUOUS
 62
    30
 10
-102.0
 20
0.0
 30
0.0
  0
POINT
  8
DEFPOINTS
  6
CONTINUOUS
 62
    30
 10
104.75
 20
0.0
 30
0.0
  0
POINT
  8
DEFPOINTS
  6
CONTINUOUS
 62
    30
 10
104.75
 20
629.50698328004364
 30
0.0
  0
LINE
  8
SIZE
  6
CONTINUOUS
 62
    30
 10
104.75
 20
20.0
 30
0.0
 11
104.75
 21
649.50698328004364
 31
0.0
  0
LINE
  8
SIZE
  6
CONTINUOUS
 62
    30
 10
184.64502599999989
 20
177.3793439912732
 30
0.0
 11
184.64502599999989
 21
649.50698328004364
 31
0.0
  0
LINE
  8
SIZE
  6
CONTINUOUS
 62
    30
 10
116.75
 20
629.50698328004364
 30
0.0
 11
172.64502599999989
 21
629.50698328004364
 31
0.0
  0
LINE
  8
SIZE
  6
CONTINUOUS
 62
    30
 10
184.64502599999989
 20
629.50698328004364
 30
0.0
 11
339.9021688571429
 21
629.50698328004364
 31
0.0
  0
CIRCLE
  8
SIZE
  6
CONTINUOUS
 62
    30
 10
104.75
 20
629.50698328004364
 30
0.0
 40
6.0
  0
LINE
  8
SIZE
  6
CONTINUOUS
 62
    30
 10
104.75
 20
629.50698328004364
 30
0.0
 11
116.75
 21
629.50698328004364
 31
0.0
  0
CIRCLE
  8
SIZE
  6
CONTINUOUS
 62
    30
 10
184.64502599999989
 20
629.50698328004364
 30
0.0
 40
6.0
  0
LINE
  8
SIZE
  6
CONTINUOUS
 62
    30
 10
184.64502599999989
 20
629.50698328004364
 30
0.0
 11
172.64502599999989
 21
629.50698328004364
 31
0.0
  0
TEXT
  8
SIZE
  6
CONTINUOUS
 62
    30
 10
221.64502600000009
 20
654.50698328004364
 30
0.0
 40
64.0
  1
80
 41
0.9
 72
     1
 11
268.27359742857152
 21
654.50698328004364
 31
0.0
  0
POINT
  8
DEFPOINTS
  6
CONTINUOUS
 62
    30
 10
104.75
 20
0.0
 30
0.0
  0
POINT
  8
DEFPOINTS
  6
CONTINUOUS
 62
    30
 10
184.64502599999989
 20
157.37934399127329
 30
0.0
  0
POINT
  8
DEFPOINTS
  6
CONTINUOUS
 62
    30
 10
184.64502599999989
 20
629.50698328004364
 30
0.0
  0
LINE
  8
SIZE
  6
CONTINUOUS
 62
    30
 10
-102.0
 20
20.0
 30
0.0
 11
-102.0
 21
649.50698328004364
 31
0.0
  0
LINE
  8
SIZE
  6
CONTINUOUS
 62
    30
 10
-212.0043639999999
 20
175.1293439912732
 30
0.0
 11
-212.0043639999999
 21
649.50698328004364
 31
0.0
  0
LINE
  8
SIZE
  6
CONTINUOUS
 62
    30
 10
-114.0
 20
629.50698328004364
 30
0.0
 11
-200.0043639999999
 21
629.50698328004364
 31
0.0
  0
LINE
  8
SIZE
  6
CONTINUOUS
 62
    30
 10
-212.0043639999999
 20
629.50698328004364
 30
0.0
 11
-400.17579257142842
 21
629.50698328004364
 31
0.0
  0
CIRCLE
  8
SIZE
  6
CONTINUOUS
 62
    30
 10
-102.0
 20
629.50698328004364
 30
0.0
 40
6.0
  0
LINE
  8
SIZE
  6
CONTINUOUS
 62
    30
 10
-102.0
 20
629.50698328004364
 30
0.0
 11
-114.0
 21
629.50698328004364
 31
0.0
  0
CIRCLE
  8
SIZE
  6
CONTINUOUS
 62
    30
 10
-212.0043639999999
 20
629.50698328004364
 30
0.0
 40
6.0
  0
LINE
  8
SIZE
  6
CONTINUOUS
 62
    30
 10
-212.0043639999999
 20
629.50698328004364
 30
0.0
 11
-200.0043639999999
 21
629.50698328004364
 31
0.0
  0
TEXT
  8
SIZE
  6
CONTINUOUS
 62
    30
 10
-375.17579257142842
 20
654.50698328004364
 30
0.0
 40
64.0
  1
110
 41
0.9
 72
     1
 11
-312.09007828571413
 21
654.50698328004364
 31
0.0
  0
POINT
  8
DEFPOINTS
  6
CONTINUOUS
 62
    30
 10
-102.0
 20
0.0
 30
0.0
  0
POINT
  8
DEFPOINTS
  6
CONTINUOUS
 62
    30
 10
-212.0043639999999
 20
155.12934399127329
 30
0.0
  0
POINT
  8
DEFPOINTS
  6
CONTINUOUS
 62
    30
 10
-212.0043639999999
 20
629.50698328004364
 30
0.0
  0
LINE
  8
SIZE
  6
CONTINUOUS
 62
    30
 10
-171.65356800000009
 20
176.1528607245032
 30
0.0
 11
-171.65356800000009
 21
415.57355402525451
 31
0.0
  0
LINE
  8
SIZE
  6
CONTINUOUS
 62
    30
 10
-212.0043639999999
 20
175.1293439912732
 30
0.0
 11
-212.0043639999999
 21
415.57355402525451
 31
0.0
  0
LINE
  8
SIZE
  6
CONTINUOUS
 62
    30
 10
-159.65356800000009
 20
395.57355402525451
 30
0.0
 11
-147.65356800000009
 21
395.57355402525451
 31
0.0
  0
LINE
  8
SIZE
  6
CONTINUOUS
 62
    30
 10
-224.0043639999999
 20
395.57355402525451
 30
0.0
 11
-406.6572433571431
 21
395.57355402525451
 31
0.0
  0
LINE
  8
SIZE
  6
CONTINUOUS
 62
    30
 10
-171.65356800000009
 20
395.57355402525451
 30
0.0
 11
-212.0043639999999
 21
395.57355402525451
 31
0.0
  0
CIRCLE
  8
SIZE
  6
CONTINUOUS
 62
    30
 10
-171.65356800000009
 20
395.57355402525451
 30
0.0
 40
6.0
  0
LINE
  8
SIZE
  6
CONTINUOUS
 62
    30
 10
-171.65356800000009
 20
395.57355402525451
 30
0.0
 11
-159.65356800000009
 21
395.57355402525451
 31
0.0
  0
CIRCLE
  8
SIZE
  6
CONTINUOUS
 62
    30
 10
-212.0043639999999
 20
395.57355402525451
 30
0.0
 40
6.0
  0
LINE
  8
SIZE
  6
CONTINUOUS
 62
    30
 10
-212.0043639999999
 20
395.57355402525451
 30
0.0
 11
-224.0043639999999
 21
395.57355402525451
 31
0.0
  0
TEXT
  8
SIZE
  6
CONTINUOUS
 62
    30
 10
-381.65724335714322
 20
420.57355402525451
 30
0.0
 40
64.0
  1
40
 41
0.9
 72
     1
 11
-335.02867192857173
 21
420.57355402525451
 31
0.0
  0
POINT
  8
DEFPOINTS
  6
CONTINUOUS
 62
    30
 10
-171.65356800000009
 20
156.1528607245032
 30
0.0
  0
POINT
  8
DEFPOINTS
  6
CONTINUOUS
 62
    30
 10
-212.0043639999999
 20
155.12934399127329
 30
0.0
  0
POINT
  8
DEFPOINTS
  6
CONTINUOUS
 62
    30
 10
-212.0043639999999
 20
395.57355402525451
 30
0.0
  0
LINE
  8
SIZE
  6
CONTINUOUS
 62
    30
 10
-142.00436399999049
 20
179.7500000000002
 30
0.0
 11
-142.00436399999049
 21
530.97371364035007
 31
0.0
  0
LINE
  8
SIZE
  6
CONTINUOUS
 62
    30
 10
-212.0043639999999
 20
175.1293439912732
 30
0.0
 11
-212.0043639999999
 21
530.97371364035007
 31
0.0
  0
LINE
  8
SIZE
  6
CONTINUOUS
 62
    30
 10
-130.00436399999049
 20
510.97371364035013
 30
0.0
 11
-118.0043639999905
 21
510.97371364035013
 31
0.0
  0
LINE
  8
SIZE
  6
CONTINUOUS
 62
    30
 10
-224.0043639999999
 20
510.97371364035013
 30
0.0
 11
-406.6572433571431
 21
510.97371364035013
 31
0.0
  0
LINE
  8
SIZE
  6
CONTINUOUS
 62
    30
 10
-142.00436399999049
 20
510.97371364035013
 30
0.0
 11
-212.0043639999999
 21
510.97371364035013
 31
0.0
  0
CIRCLE
  8
SIZE
  6
CONTINUOUS
 62
    30
 10
-142.00436399999049
 20
510.97371364035013
 30
0.0
 40
6.0
  0
LINE
  8
SIZE
  6
CONTINUOUS
 62
    30
 10
-142.00436399999049
 20
510.97371364035013
 30
0.0
 11
-130.00436399999049
 21
510.97371364035013
 31
0.0
  0
CIRCLE
  8
SIZE
  6
CONTINUOUS
 62
    30
 10
-212.0043639999999
 20
510.97371364035013
 30
0.0
 40
6.0
  0
LINE
  8
SIZE
  6
CONTINUOUS
 62
    30
 10
-212.0043639999999
 20
510.97371364035013
 30
0.0
 11
-224.0043639999999
 21
510.97371364035013
 31
0.0
  0
TEXT
  8
SIZE
  6
CONTINUOUS
 62
    30
 10
-381.65724335714322
 20
535.97371364035007
 30
0.0
 40
64.0
  1
70
 41
0.9
 72
     1
 11
-335.02867192857173
 21
535.97371364035007
 31
0.0
  0
POINT
  8
DEFPOINTS
  6
CONTINUOUS
 62
    30
 10
-142.00436399999049
 20
159.7500000000002
 30
0.0
  0
POINT
  8
DEFPOINTS
  6
CONTINUOUS
 62
    30
 10
-212.0043639999999
 20
155.12934399127329
 30
0.0
  0
POINT
  8
DEFPOINTS
  6
CONTINUOUS
 62
    30
 10
-212.0043639999999
 20
510.97371364035013
 30
0.0
  0
LINE
  8
SIZE
  6
CONTINUOUS
 62
    30
 10
159.37712800000011
 20
178.09550899999999
 30
0.0
 11
159.37712800000011
 21
324.26553400795819
 31
0.0
  0
LINE
  8
SIZE
  6
CONTINUOUS
 62
    30
 10
184.64502599999989
 20
177.37934400000009
 30
0.0
 11
184.64502599999989
 21
324.26553400795819
 31
0.0
  0
LINE
  8
SIZE
  6
CONTINUOUS
 62
    30
 10
147.37712800000011
 20
304.26553400795819
 30
0.0
 11
135.37712800000011
 21
304.26553400795819
 31
0.0
  0
LINE
  8
SIZE
  6
CONTINUOUS
 62
    30
 10
196.64502599999989
 20
304.26553400795819
 30
0.0
 11
406.65705135714262
 21
304.26553400795819
 31
0.0
  0
LINE
  8
SIZE
  6
CONTINUOUS
 62
    30
 10
159.37712800000011
 20
304.26553400795819
 30
0.0
 11
184.64502599999989
 21
304.26553400795819
 31
0.0
  0
CIRCLE
  8
SIZE
  6
CONTINUOUS
 62
    30
 10
159.37712800000011
 20
304.26553400795819
 30
0.0
 40
6.0
  0
LINE
  8
SIZE
  6
CONTINUOUS
 62
    30
 10
159.37712800000011
 20
304.26553400795819
 30
0.0
 11
147.37712800000011
 21
304.26553400795819
 31
0.0
  0
CIRCLE
  8
SIZE
  6
CONTINUOUS
 62
    30
 10
184.64502599999989
 20
304.26553400795819
 30
0.0
 40
6.0
  0
LINE
  8
SIZE
  6
CONTINUOUS
 62
    30
 10
184.64502599999989
 20
304.26553400795819
 30
0.0
 11
196.64502599999989
 21
304.26553400795819
 31
0.0
  0
TEXT
  8
SIZE
  6
CONTINUOUS
 62
    30
 10
288.39990849999981
 20
329.26553400795819
 30
0.0
 40
64.0
  1
25
 41
0.9
 72
     1
 11
335.02847992857119
 21
329.26553400795819
 31
0.0
  0
POINT
  8
DEFPOINTS
  6
CONTINUOUS
 62
    30
 10
159.37712800000011
 20
158.09550899999991
 30
0.0
  0
POINT
  8
DEFPOINTS
  6
CONTINUOUS
 62
    30
 10
184.64502599999989
 20
157.37934400000009
 30
0.0
  0
POINT
  8
DEFPOINTS
  6
CONTINUOUS
 62
    30
 10
184.64502599999989
 20
304.26553400795819
 30
0.0
  0
LINE
  8
SIZE
  6
CONTINUOUS
 62
    30
 10
-231.50872726774909
 20
155.62932496153209
 30
0.0
 11
-586.20257334312464
 21
155.62932496153229
 31
0.0
  0
LINE
  8
SIZE
  6
CONTINUOUS
 62
    30
 10
-231.50872726774909
 20
57.870674038467882
 30
0.0
 11
-586.20257334312464
 21
57.870674038468003
 31
0.0
  0
LINE
  8
SIZE
  6
CONTINUOUS
 62
    30
 10
-566.20257334312464
 20
143.62932496153221
 30
0.0
 11
-566.20257334312464
 21
69.870674038467996
 31
0.0
  0
LINE
  8
SIZE
  6
CONTINUOUS
 62
    30
 10
-566.20257334312464
 20
57.870674038468003
 30
0.0
 11
-566.20257334312464
 21
-218.16883095421301
 31
0.0
  0
CIRCLE
  8
SIZE
  6
CONTINUOUS
 62
    30
 10
-566.20257334312464
 20
155.62932496153221
 30
0.0
 40
6.0
  0
LINE
  8
SIZE
  6
CONTINUOUS
 62
    30
 10
-566.20257334312464
 20
155.62932496153221
 30
0.0
 11
-566.20257334312464
 21
143.62932496153221
 31
0.0
  0
CIRCLE
  8
SIZE
  6
CONTINUOUS
 62
    30
 10
-566.20257334312464
 20
57.870674038468003
 30
0.0
 40
6.0
  0
LINE
  8
SIZE
  6
CONTINUOUS
 62
    30
 10
-566.20257334312464
 20
57.870674038468003
 30
0.0
 11
-566.20257334312464
 21
69.870674038467996
 31
0.0
  0
TEXT
  8
SIZE
  6
CONTINUOUS
 62
    30
 10
-601.86924000979127
 20
-203.31740238278451
 30
0.0
 40
64.0
  1
φ98
 50
90.0
 41
0.9
 72
     1
 11
-601.86924000979127
 21
-116.3688309542131
 31
0.0
  0
POINT
  8
DEFPOINTS
  6
CONTINUOUS
 62
    30
 10
-211.50872726774909
 20
155.62932496153209
 30
0.0
  0
POINT
  8
DEFPOINTS
  6
CONTINUOUS
 62
    30
 10
-211.50872726774909
 20
57.870674038467882
 30
0.0
  0
POINT
  8
DEFPOINTS
  6
CONTINUOUS
 62
    30
 10
-566.20257334312464
 20
57.870674038468003
 30
0.0
  0
LINE
  8
SIZE
  6
CONTINUOUS
 62
    30
 10
-163.0
 20
0.0
 30
0.0
 11
-896.03620747685181
 21
0.0000000000002274
 31
0.0
  0
LINE
  8
SIZE
  6
CONTINUOUS
 62
    30
 10
-155.89471600000019
 20
-15.0
 30
0.0
 11
-896.03620747685181
 21
-14.999999999999771
 31
0.0
  0
LINE
  8
SIZE
  6
CONTINUOUS
 62
    30
 10
-876.03620747685181
 20
12.000000000000229
 30
0.0
 11
-876.03620747685181
 21
24.000000000000231
 31
0.0
  0
LINE
  8
SIZE
  6
CONTINUOUS
 62
    30
 10
-876.03620747685181
 20
-26.999999999999769
 30
0.0
 11
-876.03620747685181
 21
-174.81188228571401
 31
0.0
  0
LINE
  8
SIZE
  6
CONTINUOUS
 62
    30
 10
-876.03620747685181
 20
0.0000000000002274
 30
0.0
 11
-876.03620747685181
 21
-14.999999999999771
 31
0.0
  0
CIRCLE
  8
SIZE
  6
CONTINUOUS
 62
    30
 10
-876.03620747685181
 20
0.0000000000002274
 30
0.0
 40
6.0
  0
LINE
  8
SIZE
  6
CONTINUOUS
 62
    30
 10
-876.03620747685181
 20
0.0000000000002274
 30
0.0
 11
-876.03620747685181
 21
12.000000000000229
 31
0.0
  0
CIRCLE
  8
SIZE
  6
CONTINUOUS
 62
    30
 10
-876.03620747685181
 20
-14.999999999999771
 30
0.0
 40
6.0
  0
LINE
  8
SIZE
  6
CONTINUOUS
 62
    30
 10
-876.03620747685181
 20
-14.999999999999771
 30
0.0
 11
-876.03620747685181
 21
-26.999999999999769
 31
0.0
  0
TEXT
  8
SIZE
  6
CONTINUOUS
 62
    30
 10
-901.03620747685181
 20
-149.81188228571409
 30
0.0
 40
64.0
  1
15
 50
90.0
 41
0.9
 72
     1
 11
-901.03620747685181
 21
-108.669025142857
 31
0.0
  0
POINT
  8
DEFPOINTS
  6
CONTINUOUS
 62
    30
 10
-143.0
 20
0.0
 30
0.0
  0
POINT
  8
DEFPOINTS
  6
CONTINUOUS
 62
    30
 10
-135.89471600000019
 20
-15.0
 30
0.0
  0
POINT
  8
DEFPOINTS
  6
CONTINUOUS
 62
    30
 10
-876.03620747685181
 20
-14.999999999999771
 30
0.0
  0
LINE
  8
SIZE
  6
CONTINUOUS
 62
    30
 10
-187.53247099999999
 20
159.304405
 30
0.0
 11
-721.94223190748164
 21
159.30440500000009
 31
0.0
  0
LINE
  8
SIZE
  6
CONTINUOUS
 62
    30
 10
-187.53247099999999
 20
54.195593999999907
 30
0.0
 11
-721.94223190748164
 21
54.195594000000028
 31
0.0
  0
LINE
  8
SIZE
  6
CONTINUOUS
 62
    30
 10
-701.94223190748198
 20
147.30440500000009
 30
0.0
 11
-701.94223190748198
 21
66.195594000000028
 31
0.0
  0
LINE
  8
SIZE
  6
CONTINUOUS
 62
    30
 10
-701.94223190748198
 20
54.195594000000028
 30
0.0
 11
-701.9422319074821
 21
-261.55740094080898
 31
0.0
  0
CIRCLE
  8
SIZE
  6
CONTINUOUS
 62
    30
 10
-701.94223190748198
 20
159.30440500000009
 30
0.0
 40
6.0
  0
LINE
  8
SIZE
  6
CONTINUOUS
 62
    30
 10
-701.94223190748198
 20
159.30440500000009
 30
0.0
 11
-701.94223190748198
 21
147.30440500000009
 31
0.0
  0
CIRCLE
  8
SIZE
  6
CONTINUOUS
 62
    30
 10
-701.94223190748198
 20
54.195594000000028
 30
0.0
 40
6.0
  0
LINE
  8
SIZE
  6
CONTINUOUS
 62
    30
 10
-701.94223190748198
 20
54.195594000000028
 30
0.0
 11
-701.94223190748198
 21
66.195594000000028
 31
0.0
  0
TEXT
  8
SIZE
  6
CONTINUOUS
 62
    30
 10
-737.60889857414861
 20
-246.7059723693805
 30
0.0
 40
64.0
  1
φ105
 50
90.0
 41
0.9
 72
     1
 11
-737.60889857414861
 21
-137.8145437979519
 31
0.0
  0
POINT
  8
DEFPOINTS
  6
CONTINUOUS
 62
    30
 10
-167.53247099999999
 20
159.304405
 30
0.0
  0
POINT
  8
DEFPOINTS
  6
CONTINUOUS
 62
    30
 10
-167.53247099999999
 20
54.195593999999907
 30
0.0
  0
POINT
  8
DEFPOINTS
  6
CONTINUOUS
 62
    30
 10
-701.94223190748198
 20
54.195594000000028
 30
0.0
  0
LINE
  8
SIZE
  6
CONTINUOUS
 62
    30
 10
204.14939000000001
 20
157.87932499999999
 30
0.0
 11
586.83129496033689
 21
157.87932499999991
 31
0.0
  0
LINE
  8
SIZE
  6
CONTINUOUS
 62
    30
 10
204.14939000000001
 20
60.120673999999887
 30
0.0
 11
586.83129496033689
 21
60.120673999999781
 31
0.0
  0
LINE
  8
SIZE
  6
CONTINUOUS
 62
    30
 10
566.83129496033689
 20
145.87932499999991
 30
0.0
 11
566.83129496033689
 21
72.120673999999781
 31
0.0
  0
LINE
  8
SIZE
  6
CONTINUOUS
 62
    30
 10
566.83129496033689
 20
60.120673999999781
 30
0.0
 11
566.83129496033689
 21
-178.61974615786491
 31
0.0
  0
CIRCLE
  8
SIZE
  6
CONTINUOUS
 62
    30
 10
566.83129496033689
 20
157.87932499999991
 30
0.0
 40
6.0
  0
LINE
  8
SIZE
  6
CONTINUOUS
 62
    30
 10
566.83129496033689
 20
157.87932499999991
 30
0.0
 11
566.83129496033689
 21
145.87932499999991
 31
0.0
  0
CIRCLE
  8
SIZE
  6
CONTINUOUS
 62
    30
 10
566.83129496033689
 20
60.120673999999781
 30
0.0
 40
6.0
  0
LINE
  8
SIZE
  6
CONTINUOUS
 62
    30
 10
566.83129496033689
 20
60.120673999999781
 30
0.0
 11
566.83129496033689
 21
72.120673999999781
 31
0.0
  0
TEXT
  8
SIZE
  6
CONTINUOUS
 62
    30
 10
531.16462829367038
 20
-163.76831758643621
 30
0.0
 40
64.0
  1
φ98
 50
90.0
 41
0.9
 72
     1
 11
531.16462829367038
 21
-76.819746157864756
 31
0.0
  0
POINT
  8
DEFPOINTS
  6
CONTINUOUS
 62
    30
 10
184.14939000000001
 20
157.87932499999999
 30
0.0
  0
POINT
  8
DEFPOINTS
  6
CONTINUOUS
 62
    30
 10
184.14939000000001
 20
60.120673999999887
 30
0.0
  0
POINT
  8
DEFPOINTS
  6
CONTINUOUS
 62
    30
 10
566.83129496033689
 20
60.120673999999781
 30
0.0
  0
LINE
  8
SIZE
  6
CONTINUOUS
 62
    30
 10
174.46009000000001
 20
161.5119549999998
 30
0.0
 11
733.42544810184063
 21
161.5119549999998
 31
0.0
  0
LINE
  8
SIZE
  6
CONTINUOUS
 62
    30
 10
174.46009000000001
 20
56.488044000000059
 30
0.0
 11
733.42544810184063
 21
56.488043999999952
 31
0.0
  0
LINE
  8
SIZE
  6
CONTINUOUS
 62
    30
 10
713.42544810184063
 20
149.5119549999998
 30
0.0
 11
713.42544810184063
 21
68.488043999999945
 31
0.0
  0
LINE
  8
SIZE
  6
CONTINUOUS
 62
    30
 10
713.42544810184063
 20
56.488043999999952
 30
0.0
 11
713.42544810184063
 21
-224.70610795150881
 31
0.0
  0
CIRCLE
  8
SIZE
  6
CONTINUOUS
 62
    30
 10
713.42544810184063
 20
161.5119549999998
 30
0.0
 40
6.0
  0
LINE
  8
SIZE
  6
CONTINUOUS
 62
    30
 10
713.42544810184063
 20
161.5119549999998
 30
0.0
 11
713.42544810184063
 21
149.5119549999998
 31
0.0
  0
CIRCLE
  8
SIZE
  6
CONTINUOUS
 62
    30
 10
713.42544810184063
 20
56.488043999999952
 30
0.0
 40
6.0
  0
LINE
  8
SIZE
  6
CONTINUOUS
 62
    30
 10
713.42544810184063
 20
56.488043999999952
 30
0.0
 11
713.42544810184063
 21
68.488043999999945
 31
0.0
  0
TEXT
  8
SIZE
  6
CONTINUOUS
 62
    30
 10
677.75878143517411
 20
-209.85467938008
 30
0.0
 40
64.0
  1
φ105
 50
90.0
 41
0.9
 72
     1
 11
677.75878143517411
 21
-100.9632508086514
 31
0.0
  0
POINT
  8
DEFPOINTS
  6
CONTINUOUS
 62
    30
 10
154.46009000000001
 20
161.5119549999998
 30
0.0
  0
POINT
  8
DEFPOINTS
  6
CONTINUOUS
 62
    30
 10
154.46009000000001
 20
56.488044000000059
 30
0.0
  0
POINT
  8
DEFPOINTS
  6
CONTINUOUS
 62
    30
 10
713.42544810184063
 20
56.488043999999952
 30
0.0
  0
LINE
  8
SIZE
  6
CONTINUOUS
 62
    30
 10
143.0
 20
-20.0
 30
0.0
 11
143.0
 21
-597.20629224472577
 31
0.0
  0
LINE
  8
SIZE
  6
CONTINUOUS
 62
    30
 10
-143.0
 20
-20.0
 30
0.0
 11
-143.0
 21
-597.20629224472577
 31
0.0
  0
LINE
  8
SIZE
  6
CONTINUOUS
 62
    30
 10
131.0
 20
-577.20629224472577
 30
0.0
 11
-131.0
 21
-577.20629224472577
 31
0.0
  0
CIRCLE
  8
SIZE
  6
CONTINUOUS
 62
    30
 10
143.0
 20
-577.20629224472577
 30
0.0
 40
6.0
  0
LINE
  8
SIZE
  6
CONTINUOUS
 62
    30
 10
143.0
 20
-577.20629224472577
 30
0.0
 11
131.0
 21
-577.20629224472577
 31
0.0
  0
CIRCLE
  8
SIZE
  6
CONTINUOUS
 62
    30
 10
-143.0
 20
-577.20629224472577
 30
0.0
 40
6.0
  0
LINE
  8
SIZE
  6
CONTINUOUS
 62
    30
 10
-143.0
 20
-577.20629224472577
 30
0.0
 11
-131.0
 21
-577.20629224472577
 31
0.0
  0
TEXT
  8
SIZE
  6
CONTINUOUS
 62
    30
 10
-109.1657142857143
 20
-552.20629224472577
 30
0.0
 40
64.0
  1
□286
 41
0.9
 72
     1
 11
0.0
 21
-552.20629224472577
 31
0.0
  0
POINT
  8
DEFPOINTS
  6
CONTINUOUS
 62
    30
 10
143.0
 20
0.0
 30
0.0
  0
POINT
  8
DEFPOINTS
  6
CONTINUOUS
 62
    30
 10
-143.0
 20
0.0
 30
0.0
  0
POINT
  8
DEFPOINTS
  6
CONTINUOUS
 62
    30
 10
-143.0
 20
-577.20629224472577
 30
0.0
  0
LINE
  8
SIZE
  6
CONTINUOUS
 62
    30
 10
65.0
 20
-25.12298799999996
 30
0.0
 11
65.0
 21
-336.02103414998328
 31
0.0
  0
LINE
  8
SIZE
  6
CONTINUOUS
 62
    30
 10
-65.0
 20
-25.12298799999996
 30
0.0
 11
-65.0
 21
-336.02103414998328
 31
0.0
  0
LINE
  8
SIZE
  6
CONTINUOUS
 62
    30
 10
53.0
 20
-316.02103414998328
 30
0.0
 11
-53.0
 21
-316.02103414998328
 31
0.0
  0
LINE
  8
SIZE
  6
CONTINUOUS
 62
    30
 10
-65.0
 20
-316.02103414998328
 30
0.0
 11
-337.72503342260018
 21
-316.02103414998328
 31
0.0
  0
CIRCLE
  8
SIZE
  6
CONTINUOUS
 62
    30
 10
65.0
 20
-316.02103414998328
 30
0.0
 40
6.0
  0
LINE
  8
SIZE
  6
CONTINUOUS
 62
    30
 10
65.0
 20
-316.02103414998328
 30
0.0
 11
53.0
 21
-316.02103414998328
 31
0.0
  0
CIRCLE
  8
SIZE
  6
CONTINUOUS
 62
    30
 10
-65.0
 20
-316.02103414998328
 30
0.0
 40
6.0
  0
LINE
  8
SIZE
  6
CONTINUOUS
 62
    30
 10
-65.0
 20
-316.02103414998328
 30
0.0
 11
-53.0
 21
-316.02103414998328
 31
0.0
  0
TEXT
  8
SIZE
  6
CONTINUOUS
 62
    30
 10
-312.72503342260018
 20
-291.02103414998328
 30
0.0
 40
64.0
  1
130
 41
0.9
 72
     1
 11
-244.15360485117159
 21
-291.02103414998328
 31
0.0
  0
POINT
  8
DEFPOINTS
  6
CONTINUOUS
 62
    30
 10
65.0
 20
-5.1229879999999639
 30
0.0
  0
POINT
  8
DEFPOINTS
  6
CONTINUOUS
 62
    30
 10
-65.0
 20
-5.1229879999999639
 30
0.0
  0
POINT
  8
DEFPOINTS
  6
CONTINUOUS
 62
    30
 10
-65.0
 20
-316.02103414998328
 30
0.0
  0
LINE
  8
SIZE
  6
CONTINUOUS
 62
    30
 10
117.5
 20
-25.12298799999996
 30
0.0
 11
117.5
 21
-475.55836660350809
 31
0.0
  0
LINE
  8
SIZE
  6
CONTINUOUS
 62
    30
 10
-117.5
 20
-25.12298799999996
 30
0.0
 11
-117.5
 21
-475.55836660350809
 31
0.0
  0
LINE
  8
SIZE
  6
CONTINUOUS
 62
    30
 10
105.5
 20
-455.55836660350809
 30
0.0
 11
-105.5
 21
-455.55836660350809
 31
0.0
  0
CIRCLE
  8
SIZE
  6
CONTINUOUS
 62
    30
 10
117.5
 20
-455.55836660350809
 30
0.0
 40
6.0
  0
LINE
  8
SIZE
  6
CONTINUOUS
 62
    30
 10
117.5
 20
-455.55836660350809
 30
0.0
 11
105.5
 21
-455.55836660350809
 31
0.0
  0
CIRCLE
  8
SIZE
  6
CONTINUOUS
 62
    30
 10
-117.5
 20
-455.55836660350809
 30
0.0
 40
6.0
  0
LINE
  8
SIZE
  6
CONTINUOUS
 62
    30
 10
-117.5
 20
-455.55836660350809
 30
0.0
 11
-105.5
 21
-455.55836660350809
 31
0.0
  0
TEXT
  8
SIZE
  6
CONTINUOUS
 62
    30
 10
-74.05714285714285
 20
-430.55836660350809
 30
0.0
 40
64.0
  1
235
 41
0.9
 72
     1
 11
0.0
 21
-430.55836660350809
 31
0.0
  0
POINT
  8
DEFPOINTS
  6
CONTINUOUS
 62
    30
 10
117.5
 20
-5.1229879999999639
 30
0.0
  0
POINT
  8
DEFPOINTS
  6
CONTINUOUS
 62
    30
 10
-117.5
 20
-5.1229879999999639
 30
0.0
  0
POINT
  8
DEFPOINTS
  6
CONTINUOUS
 62
    30
 10
-117.5
 20
-455.55836660350809
 30
0.0
  0
LINE
  8
SIZE
  6
CONTINUOUS
 62
    30
 10
-106.979562
 20
195.0
 30
0.0
 11
-896.03620747685181
 21
195.0000000000002
 31
0.0
  0
LINE
  8
SIZE
  6
CONTINUOUS
 62
    30
 10
-163.0
 20
0.0
 30
0.0
 11
-896.03620747685181
 21
0.0000000000002274
 31
0.0
  0
LINE
  8
SIZE
  6
CONTINUOUS
 62
    30
 10
-876.03620747685181
 20
183.0000000000002
 30
0.0
 11
-876.03620747685181
 21
12.000000000000229
 31
0.0
  0
CIRCLE
  8
SIZE
  6
CONTINUOUS
 62
    30
 10
-876.03620747685181
 20
195.0000000000002
 30
0.0
 40
6.0
  0
LINE
  8
SIZE
  6
CONTINUOUS
 62
    30
 10
-876.03620747685181
 20
195.0000000000002
 30
0.0
 11
-876.03620747685181
 21
183.0000000000002
 31
0.0
  0
CIRCLE
  8
SIZE
  6
CONTINUOUS
 62
    30
 10
-876.03620747685181
 20
0.0000000000002274
 30
0.0
 40
6.0
  0
LINE
  8
SIZE
  6
CONTINUOUS
 62
    30
 10
-876.03620747685181
 20
0.0000000000002274
 30
0.0
 11
-876.03620747685181
 21
12.000000000000229
 31
0.0
  0
TEXT
  8
SIZE
  6
CONTINUOUS
 62
    30
 10
-901.03620747685181
 20
28.928571428571431
 30
0.0
 40
64.0
  1
195
 50
90.0
 41
0.9
 72
     1
 11
-901.03620747685181
 21
97.5
 31
0.0
  0
POINT
  8
DEFPOINTS
  6
CONTINUOUS
 62
    30
 10
-86.979561999999987
 20
195.0
 30
0.0
  0
POINT
  8
DEFPOINTS
  6
CONTINUOUS
 62
    30
 10
-143.0
 20
0.0
 30
0.0
  0
POINT
  8
DEFPOINTS
  6
CONTINUOUS
 62
    30
 10
-876.03620747685181
 20
0.0000000000002274
 30
0.0
  0
LINE
  8
SIZE
  6
CONTINUOUS
 62
    30
 10
-121.131513
 20
49.755606999999827
 30
0.0
 11
-328.44795919245581
 21
49.755606999999941
 31
0.0
  0
LINE
  8
SIZE
  6
CONTINUOUS
 62
    30
 10
-163.0
 20
0.0
 30
0.0
 11
-328.44795919245581
 21
0.0
 31
0.0
  0
LINE
  8
SIZE
  6
CONTINUOUS
 62
    30
 10
-308.44795919245581
 20
61.755606999999941
 30
0.0
 11
-308.44795919245581
 21
73.755606999999941
 31
0.0
  0
LINE
  8
SIZE
  6
CONTINUOUS
 62
    30
 10
-308.44795919245581
 20
-12.0
 30
0.0
 11
-308.44795919245581
 21
-167.25714285714281
 31
0.0
  0
LINE
  8
SIZE
  6
CONTINUOUS
 62
    30
 10
-308.44795919245581
 20
49.755606999999941
 30
0.0
 11
-308.44795919245581
 21
0.0
 31
0.0
  0
CIRCLE
  8
SIZE
  6
CONTINUOUS
 62
    30
 10
-308.44795919245581
 20
49.755606999999941
 30
0.0
 40
6.0
  0
LINE
  8
SIZE
  6
CONTINUOUS
 62
    30
 10
-308.44795919245581
 20
49.755606999999941
 30
0.0
 11
-308.44795919245581
 21
61.755606999999941
 31
0.0
  0
CIRCLE
  8
SIZE
  6
CONTINUOUS
 62
    30
 10
-308.44795919245581
 20
0.0
 30
0.0
 40
6.0
  0
LINE
  8
SIZE
  6
CONTINUOUS
 62
    30
 10
-308.44795919245581
 20
0.0
 30
0.0
 11
-308.44795919245581
 21
-12.0
 31
0.0
  0
TEXT
  8
SIZE
  6
CONTINUOUS
 62
    30
 10
-333.44795919245581
 20
-142.2571428571429
 30
0.0
 40
64.0
  1
50
 50
90.0
 41
0.9
 72
     1
 11
-333.44795919245581
 21
-95.628571428571433
 31
0.0
  0
POINT
  8
DEFPOINTS
  6
CONTINUOUS
 62
    30
 10
-101.131513
 20
49.755606999999827
 30
0.0
  0
POINT
  8
DEFPOINTS
  6
CONTINUOUS
 62
    30
 10
-143.0
 20
0.0
 30
0.0
  0
POINT
  8
DEFPOINTS
  6
CONTINUOUS
 62
    30
 10
-308.44795919245581
 20
0.0
 30
0.0
  0
LINE
  8
SIZE
  6
CONTINUOUS
 62
    30
 10
125.04257199999979
 20
40.054651000000042
 30
0.0
 11
314.0428063106408
 21
40.054650999999922
 31
0.0
  0
LINE
  8
SIZE
  6
CONTINUOUS
 62
    30
 10
163.0
 20
0.0
 30
0.0
 11
314.0428063106408
 21
0.0
 31
0.0
  0
LINE
  8
SIZE
  6
CONTINUOUS
 62
    30
 10
294.0428063106408
 20
52.054650999999922
 30
0.0
 11
294.0428063106408
 21
64.054650999999922
 31
0.0
  0
LINE
  8
SIZE
  6
CONTINUOUS
 62
    30
 10
294.0428063106408
 20
-12.0
 30
0.0
 11
294.04280631064057
 21
-167.2571428571429
 31
0.0
  0
LINE
  8
SIZE
  6
CONTINUOUS
 62
    30
 10
294.0428063106408
 20
40.054650999999922
 30
0.0
 11
294.0428063106408
 21
0.0
 31
0.0
  0
CIRCLE
  8
SIZE
  6
CONTINUOUS
 62
    30
 10
294.0428063106408
 20
40.054650999999922
 30
0.0
 40
6.0
  0
LINE
  8
SIZE
  6
CONTINUOUS
 62
    30
 10
294.0428063106408
 20
40.054650999999922
 30
0.0
 11
294.0428063106408
 21
52.054650999999922
 31
0.0
  0
CIRCLE
  8
SIZE
  6
CONTINUOUS
 62
    30
 10
294.0428063106408
 20
0.0
 30
0.0
 40
6.0
  0
LINE
  8
SIZE
  6
CONTINUOUS
 62
    30
 10
294.0428063106408
 20
0.0
 30
0.0
 11
294.0428063106408
 21
-12.0
 31
0.0
  0
TEXT
  8
SIZE
  6
CONTINUOUS
 62
    30
 10
269.0428063106408
 20
-142.2571428571429
 30
0.0
 40
64.0
  1
40
 50
90.0
 41
0.9
 72
     1
 11
269.0428063106408
 21
-95.628571428571433
 31
0.0
  0
POINT
  8
DEFPOINTS
  6
CONTINUOUS
 62
    30
 10
105.04257199999979
 20
40.054651000000042
 30
0.0
  0
POINT
  8
DEFPOINTS
  6
CONTINUOUS
 62
    30
 10
143.0
 20
0.0
 30
0.0
  0
POINT
  8
DEFPOINTS
  6
CONTINUOUS
 62
    30
 10
294.0428063106408
 20
0.0
 30
0.0
  0
LINE
  8
SIZE
  6
CONTINUOUS
 62
    30
 10
163.0
 20
0.0
 30
0.0
 11
431.24531028583618
 21
-0.0000000000001137
 31
0.0
  0
LINE
  8
SIZE
  6
CONTINUOUS
 62
    30
 10
224.0093939999999
 20
110.3999020000001
 30
0.0
 11
431.24531028583618
 21
110.399902
 31
0.0
  0
LINE
  8
SIZE
  6
CONTINUOUS
 62
    30
 10
411.24531028583618
 20
98.399901999999997
 30
0.0
 11
411.24531028583618
 21
11.99999999999989
 31
0.0
  0
LINE
  8
SIZE
  6
CONTINUOUS
 62
    30
 10
411.24531028583618
 20
-0.0000000000001137
 30
0.0
 11
411.24531028583618
 21
-196.40000000000009
 31
0.0
  0
CIRCLE
  8
SIZE
  6
CONTINUOUS
 62
    30
 10
411.24531028583618
 20
110.3999020000001
 30
0.0
 40
6.0
  0
LINE
  8
SIZE
  6
CONTINUOUS
 62
    30
 10
411.24531028583618
 20
110.3999020000001
 30
0.0
 11
411.24531028583618
 21
98.399902000000111
 31
0.0
  0
CIRCLE
  8
SIZE
  6
CONTINUOUS
 62
    30
 10
411.24531028583618
 20
-0.0000000000001137
 30
0.0
 40
6.0
  0
LINE
  8
SIZE
  6
CONTINUOUS
 62
    30
 10
411.24531028583618
 20
-0.0000000000001137
 30
0.0
 11
411.24531028583618
 21
11.99999999999989
 31
0.0
  0
TEXT
  8
SIZE
  6
CONTINUOUS
 62
    30
 10
386.24531028583618
 20
-171.40000000000001
 30
0.0
 40
64.0
  1
109
 50
90.0
 41
0.9
 72
     1
 11
386.24531028583618
 21
-104.2
 31
0.0
  0
POINT
  8
DEFPOINTS
  6
CONTINUOUS
 62
    30
 10
143.0
 20
0.0
 30
0.0
  0
POINT
  8
DEFPOINTS
  6
CONTINUOUS
 62
    30
 10
204.0093939999999
 20
110.3999020000001
 30
0.0
  0
POINT
  8
DEFPOINTS
  6
CONTINUOUS
 62
    30
 10
411.24531028583618
 20
110.3999020000001
 30
0.0
  0
LINE
  8
NOTE
  6
CENTER
 62
     4
 10
-59.0
 20
158.14338200000009
 30
0.0
 11
-59.0
 21
128.27988400000001
 31
0.0
  0
LINE
  8
OUTLINE
  6
CONTINUOUS
 62
     3
 10
-102.0
 20
0.0
 30
0.0
 11
-143.0
 21
0.0
 31
0.0
  0
LINE
  8
OUTLINE
  6
CONTINUOUS
 62
     3
 10
-101.131513
 20
49.755606999999827
 30
0.0
 11
-102.0
 21
0.0
 31
0.0
  0
LINE
  8
OUTLINE
  6
CONTINUOUS
 62
     3
 10
-90.277778000000126
 20
182.49999999999989
 30
0.0
 11
-93.224364000000151
 21
182.49999999999989
 31
0.0
  0
LINE
  8
OUTLINE
  6
CONTINUOUS
 62
     3
 10
-25.450000000000049
 20
149.49999999999989
 30
0.0
 11
-71.90944300000001
 21
149.49999999999989
 31
0.0
  0
LINE
  8
OUTLINE
  6
CONTINUOUS
 62
     3
 10
74.099909000000025
 20
172.99999999999989
 30
0.0
 11
66.860615000000053
 21
172.99999999999989
 31
0.0
  0
LINE
  8
DETAIL
  6
CONTINUOUS
 62
     5
 10
-96.936331999999993
 20
177.49999600000001
 30
0.0
 11
-84.664617000000135
 21
177.49999600000001
 31
0.0
  0
LINE
  8
OUTLINE
  6
CONTINUOUS
 62
     3
 10
-96.936331999999993
 20
177.4999959999999
 30
0.0
 11
-94.104364000000032
 21
177.4999959999999
 31
0.0
  0
LINE
  8
NOTE
  6
CENTER
 62
     4
 10
-117.5
 20
6.0744600000000446
 30
0.0
 11
-117.5
 21
-5.1229879999999639
 31
0.0
  0
LINE
  8
NOTE
  6
CENTER
 62
     4
 10
117.5
 20
6.0744600000000446
 30
0.0
 11
117.5
 21
-5.1229879999999639
 31
0.0
  0
LINE
  8
NOTE
  6
CENTER
 62
     4
 10
-65.0
 20
6.0744600000000446
 30
0.0
 11
-65.0
 21
-5.1229879999999639
 31
0.0
  0
LINE
  8
NOTE
  6
CENTER
 62
     4
 10
65.0
 20
6.0744600000000446
 30
0.0
 11
65.0
 21
-5.1229879999999639
 31
0.0
  0
LINE
  8
NOTE
  6
CENTER
 62
     4
 10
-77.913189000000102
 20
107.0
 30
0.0
 11
-266.81748800000008
 21
107.0
 31
0.0
  0
LINE
  8
NOTE
  6
CENTER
 62
     4
 10
204.0093939999999
 20
109.0
 30
0.0
 11
85.056697999999869
 21
109.0
 31
0.0
  0
ARC
  8
DETAIL
  6
CONTINUOUS
 62
     5
 10
-19.950000000000049
 20
184.5
 30
0.0
 40
5.5
 50
90.0
 51
180.0
  0
ARC
  8
OUTLINE
  6
CONTINUOUS
 62
     3
 10
-19.950000000000049
 20
184.49999999999989
 30
0.0
 40
5.5
 50
90.0
 51
180.0
  0
ARC
  8
DETAIL
  6
CONTINUOUS
 62
     5
 10
31.949999999999822
 20
184.5
 30
0.0
 40
5.5
 50
0.0
 51
90.0
  0
ARC
  8
OUTLINE
  6
CONTINUOUS
 62
     3
 10
31.949999999999822
 20
184.49999999999989
 30
0.0
 40
5.5
 50
0.0
 51
90.0
  0
LINE
  8
DETAIL
  6
CONTINUOUS
 62
     5
 10
-19.94996400000014
 20
190.0
 30
0.0
 11
31.949865999999929
 21
190.0
 31
0.0
  0
LINE
  8
OUTLINE
  6
CONTINUOUS
 62
     3
 10
-19.94996400000014
 20
189.99999999999989
 30
0.0
 11
31.949865999999929
 21
189.99999999999989
 31
0.0
  0
LINE
  8
DETAIL
  6
CONTINUOUS
 62
     5
 10
-25.450000000000049
 20
184.5
 30
0.0
 11
-25.450000000000049
 21
149.5
 31
0.0
  0
LINE
  8
OUTLINE
  6
CONTINUOUS
 62
     3
 10
-25.450000000000049
 20
184.49999999999989
 30
0.0
 11
-25.450000000000049
 21
149.49999999999989
 31
0.0
  0
LINE
  8
DETAIL
  6
CONTINUOUS
 62
     5
 10
37.449999999999818
 20
184.5
 30
0.0
 11
37.449999999999818
 21
149.5
 31
0.0
  0
LINE
  8
OUTLINE
  6
CONTINUOUS
 62
     3
 10
37.449999999999818
 20
184.49999999999989
 30
0.0
 11
37.449999999999818
 21
149.49999999999989
 31
0.0
  0
LINE
  8
DETAIL
  6
CONTINUOUS
 62
     5
 10
-143.0
 20
0.0
 30
0.0
 11
0.0
 21
0.0
 31
0.0
  0
LINE
  8
DETAIL
  6
CONTINUOUS
 62
     5
 10
143.0
 20
0.0
 30
0.0
 11
0.0
 21
0.0
 31
0.0
  0
LINE
  8
DETAIL
  6
CONTINUOUS
 62
     5
 10
122.03392600000009
 20
167.0
 30
0.0
 11
77.860615000000053
 21
167.0
 31
0.0
  0
LINE
  8
OUTLINE
  6
CONTINUOUS
 62
     3
 10
122.03392600000009
 20
166.99999999999989
 30
0.0
 11
120.8606150000001
 21
166.99999999999989
 31
0.0
  0
LINE
  8
DETAIL
  6
CONTINUOUS
 62
     5
 10
75.860615000000053
 20
166.0
 30
0.0
 11
75.860615000000053
 21
168.0
 31
0.0
  0
LINE
  8
DETAIL
  6
CONTINUOUS
 62
     5
 10
96.110615000000053
 20
165.0
 30
0.0
 11
76.860615000000053
 21
165.0
 31
0.0
  0
ARC
  8
DETAIL
  6
CONTINUOUS
 62
     5
 10
76.860615000000053
 20
167.0
 30
0.0
 40
1.0
 50
0.0
 51
90.0
  0
ARC
  8
DETAIL
  6
CONTINUOUS
 62
     5
 10
76.860615000000053
 20
166.0
 30
0.0
 40
1.0
 50
180.0
 51
270.0
  0
LINE
  8
DETAIL
  6
CONTINUOUS
 62
     5
 10
65.860615000000053
 20
166.0
 30
0.0
 11
75.860615000000053
 21
166.0
 31
0.0
  0
LINE
  8
OUTLINE
  6
CONTINUOUS
 62
     3
 10
65.860615000000053
 20
165.99999999999989
 30
0.0
 11
73.487487999999985
 21
165.99999999999989
 31
0.0
  0
LINE
  8
DETAIL
  6
CONTINUOUS
 62
     5
 10
76.860615000000053
 20
168.0
 30
0.0
 11
65.860615000000053
 21
168.0
 31
0.0
  0
LINE
  8
DETAIL
  6
CONTINUOUS
 62
     5
 10
65.860615000000053
 20
172.0
 30
0.0
 11
65.860615000000053
 21
166.0
 31
0.0
  0
LINE
  8
OUTLINE
  6
CONTINUOUS
 62
     3
 10
65.860615000000053
 20
171.99999999999989
 30
0.0
 11
65.860615000000053
 21
165.99999999999989
 31
0.0
  0
ARC
  8
DETAIL
  6
CONTINUOUS
 62
     5
 10
66.860615000000053
 20
172.0
 30
0.0
 40
1.0
 50
90.0
 51
180.0
  0
ARC
  8
OUTLINE
  6
CONTINUOUS
 62
     3
 10
66.860615000000053
 20
171.99999999999989
 30
0.0
 40
1.0
 50
90.0
 51
180.0
  0
LINE
  8
DETAIL
  6
CONTINUOUS
 62
     5
 10
115.8606150000001
 20
173.0
 30
0.0
 11
66.860615000000053
 21
173.0
 31
0.0
  0
LINE
  8
OUTLINE
  6
CONTINUOUS
 62
     3
 10
115.8606150000001
 20
172.99999999999989
 30
0.0
 11
86.360359000000017
 21
172.99999999999989
 31
0.0
  0
LINE
  8
DETAIL
  6
CONTINUOUS
 62
     5
 10
155.14502599999989
 20
161.37822600000001
 30
0.0
 11
155.14502599999989
 21
56.621772999999962
 31
0.0
  0
ARC
  8
DETAIL
  6
CONTINUOUS
 62
     5
 10
106.04242000000001
 20
40.072103000000077
 30
0.0
 40
1.0
 50
128.29016299999611
 51
181.00000000000179
  0
ARC
  8
OUTLINE
  6
CONTINUOUS
 62
     3
 10
106.04242000000001
 20
40.07210299999997
 30
0.0
 40
1.0
 50
128.29016299999611
 51
181.00000000000179
  0
LINE
  8
DETAIL
  6
CONTINUOUS
 62
     5
 10
105.4227759999999
 20
40.856986000000013
 30
0.0
 11
123.27321499999989
 21
54.949437999999986
 31
0.0
  0
LINE
  8
OUTLINE
  6
CONTINUOUS
 62
     3
 10
105.4227759999999
 20
40.856985999999893
 30
0.0
 11
123.27321499999989
 21
54.949437999999873
 31
0.0
  0
LINE
  8
DETAIL
  6
CONTINUOUS
 62
     5
 10
105.74172899999991
 20
0.0
 30
0.0
 11
105.04257199999979
 21
40.054651000000042
 31
0.0
  0
LINE
  8
OUTLINE
  6
CONTINUOUS
 62
     3
 10
105.74172899999991
 20
0.0
 30
0.0
 11
105.04257199999979
 21
40.054650999999922
 31
0.0
  0
LINE
  8
DETAIL
  6
CONTINUOUS
 62
     5
 10
184.64502599999989
 20
60.620655000000063
 30
0.0
 11
184.64502599999989
 21
157.37934400000009
 31
0.0
  0
LINE
  8
OUTLINE
  6
CONTINUOUS
 62
     3
 10
184.64502599999989
 20
60.620654999999942
 30
0.0
 11
184.64502599999989
 21
157.3793439999998
 31
0.0
  0
LINE
  8
DETAIL
  6
CONTINUOUS
 62
     5
 10
159.37712799999991
 20
59.90449000000001
 30
0.0
 11
159.37712799999991
 21
158.09550899999999
 31
0.0
  0
LINE
  8
DETAIL
  6
CONTINUOUS
 62
     5
 10
155.6787939999999
 20
161.07061300000001
 30
0.0
 11
159.37712799999991
 21
158.09550899999999
 31
0.0
  0
LINE
  8
OUTLINE
  6
CONTINUOUS
 62
     3
 10
155.6787939999999
 20
161.0706129999999
 30
0.0
 11
159.37712799999991
 21
158.09550899999991
 31
0.0
  0
LINE
  8
DETAIL
  6
CONTINUOUS
 62
     5
 10
124.03392600000009
 20
56.519202999999948
 30
0.0
 11
124.03392600000009
 21
165.0
 31
0.0
  0
LINE
  8
OUTLINE
  6
CONTINUOUS
 62
     3
 10
124.03392600000009
 20
164.00843999999981
 30
0.0
 11
124.03392600000009
 21
164.99999999999989
 31
0.0
  0
LINE
  8
DETAIL
  6
CONTINUOUS
 62
     5
 10
120.8606150000001
 20
168.0
 30
0.0
 11
120.8606150000001
 21
167.0
 31
0.0
  0
LINE
  8
OUTLINE
  6
CONTINUOUS
 62
     3
 10
120.8606150000001
 20
167.99999999999989
 30
0.0
 11
120.8606150000001
 21
166.99999999999989
 31
0.0
  0
LINE
  8
DETAIL
  6
CONTINUOUS
 62
     5
 10
155.6787939999999
 20
56.929386000000022
 30
0.0
 11
159.37712799999991
 21
59.90449000000001
 31
0.0
  0
LINE
  8
OUTLINE
  6
CONTINUOUS
 62
     3
 10
155.6787939999999
 20
56.929385999999909
 30
0.0
 11
159.37712799999991
 21
59.904489999999903
 31
0.0
  0
LINE
  8
DETAIL
  6
CONTINUOUS
 62
     5
 10
124.07686199999991
 20
55.681161999999972
 30
0.0
 11
124.05202899999991
 21
55.647511000000009
 31
0.0
  0
LINE
  8
OUTLINE
  6
CONTINUOUS
 62
     3
 10
124.07686199999991
 20
55.681161999999858
 30
0.0
 11
124.05202899999991
 21
55.647510999999888
 31
0.0
  0
LINE
  8
DETAIL
  6
CONTINUOUS
 62
     5
 10
124.05202899999991
 20
55.647511000000009
 30
0.0
 11
124.02702099999991
 21
55.615050999999987
 31
0.0
  0
LINE
  8
OUTLINE
  6
CONTINUOUS
 62
     3
 10
124.05202899999991
 20
55.647510999999888
 30
0.0
 11
124.02702099999991
 21
55.615050999999987
 31
0.0
  0
LINE
  8
DETAIL
  6
CONTINUOUS
 62
     5
 10
124.02702099999991
 20
55.615050999999987
 30
0.0
 11
124.00190000000001
 21
55.58377900000005
 31
0.0
  0
LINE
  8
OUTLINE
  6
CONTINUOUS
 62
     3
 10
124.02702099999991
 20
55.615050999999987
 30
0.0
 11
124.00190000000001
 21
55.583778999999822
 31
0.0
  0
LINE
  8
DETAIL
  6
CONTINUOUS
 62
     5
 10
124.00190000000001
 20
55.58377900000005
 30
0.0
 11
123.97672900000001
 21
55.553684999999973
 31
0.0
  0
LINE
  8
OUTLINE
  6
CONTINUOUS
 62
     3
 10
124.00190000000001
 20
55.583778999999822
 30
0.0
 11
123.97672900000001
 21
55.553684999999859
 31
0.0
  0
LINE
  8
DETAIL
  6
CONTINUOUS
 62
     5
 10
123.97672900000001
 20
55.553684999999973
 30
0.0
 11
123.95157500000001
 21
55.52476999999999
 31
0.0
  0
LINE
  8
OUTLINE
  6
CONTINUOUS
 62
     3
 10
123.97672900000001
 20
55.553684999999859
 30
0.0
 11
123.95157500000001
 21
55.524769999999883
 31
0.0
  0
LINE
  8
DETAIL
  6
CONTINUOUS
 62
     5
 10
123.95157500000001
 20
55.52476999999999
 30
0.0
 11
123.9265189999999
 21
55.497046000000068
 31
0.0
  0
LINE
  8
OUTLINE
  6
CONTINUOUS
 62
     3
 10
123.95157500000001
 20
55.524769999999883
 30
0.0
 11
123.9265189999999
 21
55.497045999999948
 31
0.0
  0
LINE
  8
DETAIL
  6
CONTINUOUS
 62
     5
 10
123.9265189999999
 20
55.497046000000068
 30
0.0
 11
123.9015849999998
 21
55.470459000000012
 31
0.0
  0
LINE
  8
OUTLINE
  6
CONTINUOUS
 62
     3
 10
123.9265189999999
 20
55.497045999999948
 30
0.0
 11
123.9015849999998
 21
55.470458999999892
 31
0.0
  0
LINE
  8
DETAIL
  6
CONTINUOUS
 62
     5
 10
123.9015849999998
 20
55.470459000000012
 30
0.0
 11
123.8767719999998
 21
55.44493900000009
 31
0.0
  0
LINE
  8
OUTLINE
  6
CONTINUOUS
 62
     3
 10
123.9015849999998
 20
55.470458999999892
 30
0.0
 11
123.8767719999998
 21
55.444938999999977
 31
0.0
  0
LINE
  8
DETAIL
  6
CONTINUOUS
 62
     5
 10
123.8767719999998
 20
55.44493900000009
 30
0.0
 11
123.85221299999991
 21
55.420551000000053
 31
0.0
  0
LINE
  8
OUTLINE
  6
CONTINUOUS
 62
     3
 10
123.8767719999998
 20
55.444938999999977
 30
0.0
 11
123.85221299999991
 21
55.420550999999932
 31
0.0
  0
LINE
  8
DETAIL
  6
CONTINUOUS
 62
     5
 10
123.85221299999991
 20
55.420551000000053
 30
0.0
 11
123.82778499999991
 21
55.397109999999998
 31
0.0
  0
LINE
  8
OUTLINE
  6
CONTINUOUS
 62
     3
 10
123.85221299999991
 20
55.420550999999932
 30
0.0
 11
123.82778499999991
 21
55.397109999999877
 31
0.0
  0
LINE
  8
DETAIL
  6
CONTINUOUS
 62
     5
 10
124.14724699999989
 20
55.782089000000042
 30
0.0
 11
124.13154299999999
 21
55.760831000000053
 31
0.0
  0
LINE
  8
OUTLINE
  6
CONTINUOUS
 62
     3
 10
124.14724699999989
 20
55.782088999999928
 30
0.0
 11
124.13154299999999
 21
55.760830999999939
 31
0.0
  0
LINE
  8
DETAIL
  6
CONTINUOUS
 62
     5
 10
124.0906199999999
 20
55.699968000000013
 30
0.0
 11
124.0717199999999
 21
55.673619000000031
 31
0.0
  0
LINE
  8
OUTLINE
  6
CONTINUOUS
 62
     3
 10
124.0906199999999
 20
55.699967999999899
 30
0.0
 11
124.0717199999999
 21
55.673618999999917
 31
0.0
  0
LINE
  8
DETAIL
  6
CONTINUOUS
 62
     5
 10
124.12984999999981
 20
55.757714000000078
 30
0.0
 11
124.1244589999999
 21
55.75013100000001
 31
0.0
  0
LINE
  8
OUTLINE
  6
CONTINUOUS
 62
     3
 10
124.12984999999981
 20
55.757713999999851
 30
0.0
 11
124.1244589999999
 21
55.750130999999897
 31
0.0
  0
LINE
  8
DETAIL
  6
CONTINUOUS
 62
     5
 10
124.1092249999999
 20
55.726818999999978
 30
0.0
 11
124.0906199999999
 21
55.699968000000013
 31
0.0
  0
LINE
  8
OUTLINE
  6
CONTINUOUS
 62
     3
 10
124.1092249999999
 20
55.726818999999978
 30
0.0
 11
124.0906199999999
 21
55.699967999999899
 31
0.0
  0
LINE
  8
DETAIL
  6
CONTINUOUS
 62
     5
 10
124.133484
 20
55.763164999999958
 30
0.0
 11
124.13006
 21
55.758035000000064
 31
0.0
  0
LINE
  8
OUTLINE
  6
CONTINUOUS
 62
     3
 10
124.133484
 20
55.763164999999837
 30
0.0
 11
124.13006
 21
55.758034999999843
 31
0.0
  0
LINE
  8
DETAIL
  6
CONTINUOUS
 62
     5
 10
124.1290959999999
 20
55.757145000000037
 30
0.0
 11
124.125747
 21
55.752039999999973
 31
0.0
  0
LINE
  8
OUTLINE
  6
CONTINUOUS
 62
     3
 10
124.1290959999999
 20
55.757144999999809
 30
0.0
 11
124.125747
 21
55.752039999999852
 31
0.0
  0
LINE
  8
DETAIL
  6
CONTINUOUS
 62
     5
 10
124.125747
 20
55.752039999999973
 30
0.0
 11
124.1014559999999
 21
55.716005000000003
 31
0.0
  0
LINE
  8
OUTLINE
  6
CONTINUOUS
 62
     3
 10
124.125747
 20
55.752039999999852
 30
0.0
 11
124.1014559999999
 21
55.716005000000003
 31
0.0
  0
LINE
  8
DETAIL
  6
CONTINUOUS
 62
     5
 10
124.1014559999999
 20
55.716005000000003
 30
0.0
 11
124.07686199999991
 21
55.681161999999972
 31
0.0
  0
LINE
  8
OUTLINE
  6
CONTINUOUS
 62
     3
 10
124.1014559999999
 20
55.716005000000003
 30
0.0
 11
124.07686199999991
 21
55.681161999999858
 31
0.0
  0
LINE
  8
DETAIL
  6
CONTINUOUS
 62
     5
 10
123.804267
 20
55.375275999999992
 30
0.0
 11
123.782207
 21
55.355419999999981
 31
0.0
  0
LINE
  8
OUTLINE
  6
CONTINUOUS
 62
     3
 10
123.804267
 20
55.375275999999992
 30
0.0
 11
123.782207
 21
55.355419999999867
 31
0.0
  0
LINE
  8
DETAIL
  6
CONTINUOUS
 62
     5
 10
123.782207
 20
55.355419999999981
 30
0.0
 11
123.75955
 21
55.335575000000063
 31
0.0
  0
LINE
  8
OUTLINE
  6
CONTINUOUS
 62
     3
 10
123.782207
 20
55.355419999999867
 30
0.0
 11
123.75955
 21
55.335574999999949
 31
0.0
  0
LINE
  8
DETAIL
  6
CONTINUOUS
 62
     5
 10
123.812915
 20
55.383116000000093
 30
0.0
 11
123.7945569999999
 21
55.366374000000057
 31
0.0
  0
LINE
  8
OUTLINE
  6
CONTINUOUS
 62
     3
 10
123.812915
 20
55.383115999999859
 30
0.0
 11
123.7945569999999
 21
55.366373999999951
 31
0.0
  0
LINE
  8
DETAIL
  6
CONTINUOUS
 62
     5
 10
123.7945569999999
 20
55.366374000000057
 30
0.0
 11
123.77686300000001
 21
55.350626000000027
 31
0.0
  0
LINE
  8
OUTLINE
  6
CONTINUOUS
 62
     3
 10
123.7945569999999
 20
55.366373999999951
 30
0.0
 11
123.77686300000001
 21
55.35062599999992
 31
0.0
  0
LINE
  8
DETAIL
  6
CONTINUOUS
 62
     5
 10
123.8318179999999
 20
55.400799999999997
 30
0.0
 11
123.804267
 21
55.375275999999992
 31
0.0
  0
LINE
  8
OUTLINE
  6
CONTINUOUS
 62
     3
 10
123.8318179999999
 20
55.40079999999989
 30
0.0
 11
123.804267
 21
55.375275999999992
 31
0.0
  0
LINE
  8
DETAIL
  6
CONTINUOUS
 62
     5
 10
124.1707759999999
 20
55.80925400000001
 30
0.0
 11
124.1696589999999
 21
55.808069000000053
 31
0.0
  0
LINE
  8
OUTLINE
  6
CONTINUOUS
 62
     3
 10
124.1707759999999
 20
55.809253999999903
 30
0.0
 11
124.1696589999999
 21
55.808068999999932
 31
0.0
  0
LINE
  8
DETAIL
  6
CONTINUOUS
 62
     5
 10
124.1687299999999
 20
55.807077000000049
 30
0.0
 11
124.1679300000001
 21
55.806218000000058
 31
0.0
  0
LINE
  8
OUTLINE
  6
CONTINUOUS
 62
     3
 10
124.1687299999999
 20
55.807076999999943
 30
0.0
 11
124.1679300000001
 21
55.806217999999937
 31
0.0
  0
LINE
  8
DETAIL
  6
CONTINUOUS
 62
     5
 10
123.932636
 20
55.503479999999968
 30
0.0
 11
123.9120079999998
 21
55.481241999999952
 31
0.0
  0
LINE
  8
OUTLINE
  6
CONTINUOUS
 62
     3
 10
123.932636
 20
55.503479999999968
 30
0.0
 11
123.9120079999998
 21
55.481241999999952
 31
0.0
  0
LINE
  8
DETAIL
  6
CONTINUOUS
 62
     5
 10
123.9120079999998
 20
55.481241999999952
 30
0.0
 11
123.89147199999979
 21
55.459758999999963
 31
0.0
  0
LINE
  8
OUTLINE
  6
CONTINUOUS
 62
     3
 10
123.9120079999998
 20
55.481241999999952
 30
0.0
 11
123.89147199999979
 21
55.459758999999963
 31
0.0
  0
LINE
  8
DETAIL
  6
CONTINUOUS
 62
     5
 10
123.89147199999979
 20
55.459758999999963
 30
0.0
 11
123.87118199999991
 21
55.439146000000051
 31
0.0
  0
LINE
  8
OUTLINE
  6
CONTINUOUS
 62
     3
 10
123.89147199999979
 20
55.459758999999963
 30
0.0
 11
123.87118199999991
 21
55.439145999999937
 31
0.0
  0
LINE
  8
DETAIL
  6
CONTINUOUS
 62
     5
 10
124.1592289999999
 20
55.79663400000004
 30
0.0
 11
124.145884
 21
55.780652000000032
 31
0.0
  0
LINE
  8
OUTLINE
  6
CONTINUOUS
 62
     3
 10
124.1592289999999
 20
55.796633999999933
 30
0.0
 11
124.145884
 21
55.780651999999918
 31
0.0
  0
LINE
  8
DETAIL
  6
CONTINUOUS
 62
     5
 10
124.1592289999999
 20
55.79663400000004
 30
0.0
 11
124.14724699999989
 21
55.782089000000042
 31
0.0
  0
LINE
  8
OUTLINE
  6
CONTINUOUS
 62
     3
 10
124.1592289999999
 20
55.796633999999933
 30
0.0
 11
124.14724699999989
 21
55.782088999999928
 31
0.0
  0
LINE
  8
DETAIL
  6
CONTINUOUS
 62
     5
 10
124.0331590000001
 20
55.622508000000039
 30
0.0
 11
124.013535
 21
55.597751000000017
 31
0.0
  0
LINE
  8
OUTLINE
  6
CONTINUOUS
 62
     3
 10
124.0331590000001
 20
55.622507999999932
 30
0.0
 11
124.013535
 21
55.597751000000017
 31
0.0
  0
LINE
  8
DETAIL
  6
CONTINUOUS
 62
     5
 10
124.013535
 20
55.597751000000017
 30
0.0
 11
123.993708
 21
55.573530000000012
 31
0.0
  0
LINE
  8
OUTLINE
  6
CONTINUOUS
 62
     3
 10
124.013535
 20
55.597751000000017
 30
0.0
 11
123.993708
 21
55.573529999999892
 31
0.0
  0
LINE
  8
DETAIL
  6
CONTINUOUS
 62
     5
 10
123.993708
 20
55.573530000000012
 30
0.0
 11
123.9736349999998
 21
55.549775000000068
 31
0.0
  0
LINE
  8
OUTLINE
  6
CONTINUOUS
 62
     3
 10
123.993708
 20
55.573529999999892
 30
0.0
 11
123.9736349999998
 21
55.549774999999947
 31
0.0
  0
LINE
  8
DETAIL
  6
CONTINUOUS
 62
     5
 10
123.69714
 20
55.284099999999967
 30
0.0
 11
123.2753079999998
 21
54.951090000000022
 31
0.0
  0
LINE
  8
OUTLINE
  6
CONTINUOUS
 62
     3
 10
123.69714
 20
55.284099999999967
 30
0.0
 11
123.2753079999998
 21
54.951089999999908
 31
0.0
  0
LINE
  8
DETAIL
  6
CONTINUOUS
 62
     5
 10
123.3589019999999
 20
55.01709500000004
 30
0.0
 11
123.35782500000001
 21
55.016244000000029
 31
0.0
  0
LINE
  8
OUTLINE
  6
CONTINUOUS
 62
     3
 10
123.3589019999999
 20
55.017094999999927
 30
0.0
 11
123.35782500000001
 21
55.016243999999922
 31
0.0
  0
LINE
  8
DETAIL
  6
CONTINUOUS
 62
     5
 10
123.7084169999998
 20
55.293090999999997
 30
0.0
 11
123.69830399999999
 21
55.285025000000019
 31
0.0
  0
LINE
  8
OUTLINE
  6
CONTINUOUS
 62
     3
 10
123.7084169999998
 20
55.29309099999989
 30
0.0
 11
123.69830399999999
 21
55.285024999999912
 31
0.0
  0
LINE
  8
DETAIL
  6
CONTINUOUS
 62
     5
 10
123.7438499999998
 20
55.322224000000013
 30
0.0
 11
123.73105799999981
 21
55.311548000000023
 31
0.0
  0
LINE
  8
OUTLINE
  6
CONTINUOUS
 62
     3
 10
123.7438499999998
 20
55.322223999999892
 30
0.0
 11
123.73105799999981
 21
55.311547999999902
 31
0.0
  0
LINE
  8
DETAIL
  6
CONTINUOUS
 62
     5
 10
123.73105799999981
 20
55.311548000000023
 30
0.0
 11
123.72084700000001
 21
55.303156000000058
 31
0.0
  0
LINE
  8
OUTLINE
  6
CONTINUOUS
 62
     3
 10
123.73105799999981
 20
55.311547999999902
 30
0.0
 11
123.72084700000001
 21
55.303155999999937
 31
0.0
  0
LINE
  8
DETAIL
  6
CONTINUOUS
 62
     5
 10
123.72084700000001
 20
55.303156000000058
 30
0.0
 11
123.713622
 21
55.297286000000099
 31
0.0
  0
LINE
  8
OUTLINE
  6
CONTINUOUS
 62
     3
 10
123.72084700000001
 20
55.303155999999937
 30
0.0
 11
123.713622
 21
55.297285999999872
 31
0.0
  0
LINE
  8
DETAIL
  6
CONTINUOUS
 62
     5
 10
123.713622
 20
55.297286000000099
 30
0.0
 11
123.7062169999999
 21
55.291336000000001
 31
0.0
  0
LINE
  8
OUTLINE
  6
CONTINUOUS
 62
     3
 10
123.713622
 20
55.297285999999872
 30
0.0
 11
123.7062169999999
 21
55.291335999999887
 31
0.0
  0
LINE
  8
DETAIL
  6
CONTINUOUS
 62
     5
 10
123.762336
 20
55.338031999999998
 30
0.0
 11
123.7455759999998
 21
55.323721999999982
 31
0.0
  0
LINE
  8
OUTLINE
  6
CONTINUOUS
 62
     3
 10
123.762336
 20
55.338031999999878
 30
0.0
 11
123.7455759999998
 21
55.323721999999862
 31
0.0
  0
LINE
  8
DETAIL
  6
CONTINUOUS
 62
     5
 10
159.37712799999991
 20
59.90449000000001
 30
0.0
 11
184.14939000000001
 21
60.120674000000008
 31
0.0
  0
LINE
  8
OUTLINE
  6
CONTINUOUS
 62
     3
 10
159.37712799999991
 20
59.904489999999903
 30
0.0
 11
184.14939000000001
 21
60.120673999999887
 31
0.0
  0
LINE
  8
DETAIL
  6
CONTINUOUS
 62
     5
 10
124.5277249999999
 20
55.965573000000063
 30
0.0
 11
154.46009000000001
 21
56.488044000000059
 31
0.0
  0
LINE
  8
OUTLINE
  6
CONTINUOUS
 62
     3
 10
124.5277249999999
 20
55.965572999999949
 30
0.0
 11
154.46009000000001
 21
56.488043999999952
 31
0.0
  0
LINE
  8
DETAIL
  6
CONTINUOUS
 62
     5
 10
124.5252539999999
 20
55.965530000000058
 30
0.0
 11
124.51898899999991
 21
55.965381000000093
 31
0.0
  0
LINE
  8
OUTLINE
  6
CONTINUOUS
 62
     3
 10
124.5252539999999
 20
55.965529999999937
 30
0.0
 11
124.51898899999991
 21
55.965380999999979
 31
0.0
  0
LINE
  8
DETAIL
  6
CONTINUOUS
 62
     5
 10
124.51898899999991
 20
55.965381000000093
 30
0.0
 11
124.4930669999999
 21
55.963929000000007
 31
0.0
  0
LINE
  8
OUTLINE
  6
CONTINUOUS
 62
     3
 10
124.51898899999991
 20
55.965380999999979
 30
0.0
 11
124.4930669999999
 21
55.963928999999887
 31
0.0
  0
LINE
  8
DETAIL
  6
CONTINUOUS
 62
     5
 10
124.4930669999999
 20
55.963929000000007
 30
0.0
 11
124.467631
 21
55.961184000000003
 31
0.0
  0
LINE
  8
OUTLINE
  6
CONTINUOUS
 62
     3
 10
124.4930669999999
 20
55.963928999999887
 30
0.0
 11
124.467631
 21
55.961184000000003
 31
0.0
  0
LINE
  8
DETAIL
  6
CONTINUOUS
 62
     5
 10
124.467631
 20
55.961184000000003
 30
0.0
 11
124.44273800000001
 21
55.957211000000029
 31
0.0
  0
LINE
  8
OUTLINE
  6
CONTINUOUS
 62
     3
 10
124.467631
 20
55.961184000000003
 30
0.0
 11
124.44273800000001
 21
55.957210999999923
 31
0.0
  0
LINE
  8
DETAIL
  6
CONTINUOUS
 62
     5
 10
124.44273800000001
 20
55.957211000000029
 30
0.0
 11
124.4184359999999
 21
55.952074000000039
 31
0.0
  0
LINE
  8
OUTLINE
  6
CONTINUOUS
 62
     3
 10
124.44273800000001
 20
55.957210999999923
 30
0.0
 11
124.4184359999999
 21
55.952073999999811
 31
0.0
  0
LINE
  8
DETAIL
  6
CONTINUOUS
 62
     5
 10
124.4184359999999
 20
55.952074000000039
 30
0.0
 11
124.39479200000009
 21
55.945843999999973
 31
0.0
  0
LINE
  8
OUTLINE
  6
CONTINUOUS
 62
     3
 10
124.4184359999999
 20
55.952073999999811
 30
0.0
 11
124.39479200000009
 21
55.945843999999852
 31
0.0
  0
LINE
  8
DETAIL
  6
CONTINUOUS
 62
     5
 10
124.39479200000009
 20
55.945843999999973
 30
0.0
 11
124.371852
 21
55.938593000000083
 31
0.0
  0
LINE
  8
OUTLINE
  6
CONTINUOUS
 62
     3
 10
124.39479200000009
 20
55.945843999999852
 30
0.0
 11
124.371852
 21
55.938592999999862
 31
0.0
  0
LINE
  8
DETAIL
  6
CONTINUOUS
 62
     5
 10
124.371852
 20
55.938593000000083
 30
0.0
 11
124.34968499999989
 21
55.930406000000062
 31
0.0
  0
LINE
  8
OUTLINE
  6
CONTINUOUS
 62
     3
 10
124.371852
 20
55.938592999999862
 30
0.0
 11
124.34968499999989
 21
55.930405999999948
 31
0.0
  0
LINE
  8
DETAIL
  6
CONTINUOUS
 62
     5
 10
124.34968499999989
 20
55.930406000000062
 30
0.0
 11
124.3283509999999
 21
55.921370000000017
 31
0.0
  0
LINE
  8
OUTLINE
  6
CONTINUOUS
 62
     3
 10
124.34968499999989
 20
55.930405999999948
 30
0.0
 11
124.3283509999999
 21
55.921369999999911
 31
0.0
  0
LINE
  8
DETAIL
  6
CONTINUOUS
 62
     5
 10
124.3283509999999
 20
55.921370000000017
 30
0.0
 11
124.3078829999999
 21
55.911570999999981
 31
0.0
  0
LINE
  8
OUTLINE
  6
CONTINUOUS
 62
     3
 10
124.3283509999999
 20
55.921369999999911
 30
0.0
 11
124.3078829999999
 21
55.911570999999981
 31
0.0
  0
LINE
  8
DETAIL
  6
CONTINUOUS
 62
     5
 10
124.3078829999999
 20
55.911570999999981
 30
0.0
 11
124.28831099999979
 21
55.901098000000047
 31
0.0
  0
LINE
  8
OUTLINE
  6
CONTINUOUS
 62
     3
 10
124.3078829999999
 20
55.911570999999981
 30
0.0
 11
124.28831099999979
 21
55.901097999999926
 31
0.0
  0
LINE
  8
DETAIL
  6
CONTINUOUS
 62
     5
 10
124.28831099999979
 20
55.901098000000047
 30
0.0
 11
124.26966399999991
 21
55.890039999999999
 31
0.0
  0
LINE
  8
OUTLINE
  6
CONTINUOUS
 62
     3
 10
124.28831099999979
 20
55.901097999999926
 30
0.0
 11
124.26966399999991
 21
55.890039999999892
 31
0.0
  0
LINE
  8
DETAIL
  6
CONTINUOUS
 62
     5
 10
124.26966399999991
 20
55.890039999999999
 30
0.0
 11
124.251847
 21
55.878413000000023
 31
0.0
  0
LINE
  8
OUTLINE
  6
CONTINUOUS
 62
     3
 10
124.26966399999991
 20
55.890039999999892
 30
0.0
 11
124.251847
 21
55.87841299999991
 31
0.0
  0
LINE
  8
DETAIL
  6
CONTINUOUS
 62
     5
 10
124.251847
 20
55.878413000000023
 30
0.0
 11
124.2352149999999
 21
55.866540999999977
 31
0.0
  0
LINE
  8
OUTLINE
  6
CONTINUOUS
 62
     3
 10
124.251847
 20
55.87841299999991
 30
0.0
 11
124.2352149999999
 21
55.86654099999987
 31
0.0
  0
LINE
  8
DETAIL
  6
CONTINUOUS
 62
     5
 10
124.2352149999999
 20
55.866540999999977
 30
0.0
 11
124.2197309999999
 21
55.854525000000081
 31
0.0
  0
LINE
  8
OUTLINE
  6
CONTINUOUS
 62
     3
 10
124.2352149999999
 20
55.86654099999987
 30
0.0
 11
124.2197309999999
 21
55.854524999999967
 31
0.0
  0
LINE
  8
DETAIL
  6
CONTINUOUS
 62
     5
 10
124.2197309999999
 20
55.854525000000081
 30
0.0
 11
124.2062779999999
 21
55.843259999999987
 31
0.0
  0
LINE
  8
OUTLINE
  6
CONTINUOUS
 62
     3
 10
124.2197309999999
 20
55.854524999999967
 30
0.0
 11
124.2062779999999
 21
55.843259999999873
 31
0.0
  0
LINE
  8
DETAIL
  6
CONTINUOUS
 62
     5
 10
124.2062779999999
 20
55.843259999999987
 30
0.0
 11
124.195712
 21
55.833827000000042
 31
0.0
  0
LINE
  8
OUTLINE
  6
CONTINUOUS
 62
     3
 10
124.2062779999999
 20
55.843259999999873
 30
0.0
 11
124.195712
 21
55.833826999999928
 31
0.0
  0
LINE
  8
DETAIL
  6
CONTINUOUS
 62
     5
 10
124.195712
 20
55.833827000000042
 30
0.0
 11
124.18760499999981
 21
55.826212000000062
 31
0.0
  0
LINE
  8
OUTLINE
  6
CONTINUOUS
 62
     3
 10
124.195712
 20
55.833826999999928
 30
0.0
 11
124.18760499999981
 21
55.826211999999941
 31
0.0
  0
LINE
  8
DETAIL
  6
CONTINUOUS
 62
     5
 10
124.18760499999981
 20
55.826212000000062
 30
0.0
 11
124.18218899999989
 21
55.820929999999983
 31
0.0
  0
LINE
  8
OUTLINE
  6
CONTINUOUS
 62
     3
 10
124.18760499999981
 20
55.826211999999941
 30
0.0
 11
124.18218899999989
 21
55.820929999999862
 31
0.0
  0
LINE
  8
DETAIL
  6
CONTINUOUS
 62
     5
 10
124.18218899999989
 20
55.820929999999983
 30
0.0
 11
124.17847499999991
 21
55.817215000000033
 31
0.0
  0
LINE
  8
OUTLINE
  6
CONTINUOUS
 62
     3
 10
124.18218899999989
 20
55.820929999999862
 30
0.0
 11
124.17847499999991
 21
55.817214999999919
 31
0.0
  0
LINE
  8
DETAIL
  6
CONTINUOUS
 62
     5
 10
124.17847499999991
 20
55.817215000000033
 30
0.0
 11
124.1757239999999
 21
55.814411000000057
 31
0.0
  0
LINE
  8
OUTLINE
  6
CONTINUOUS
 62
     3
 10
124.17847499999991
 20
55.817214999999919
 30
0.0
 11
124.1757239999999
 21
55.814410999999843
 31
0.0
  0
LINE
  8
DETAIL
  6
CONTINUOUS
 62
     5
 10
124.1757239999999
 20
55.814411000000057
 30
0.0
 11
124.1737329999999
 21
55.812354000000028
 31
0.0
  0
LINE
  8
OUTLINE
  6
CONTINUOUS
 62
     3
 10
124.1757239999999
 20
55.814410999999843
 30
0.0
 11
124.1737329999999
 21
55.812353999999907
 31
0.0
  0
LINE
  8
DETAIL
  6
CONTINUOUS
 62
     5
 10
124.1737329999999
 20
55.812354000000028
 30
0.0
 11
124.17208699999991
 21
55.810635000000048
 31
0.0
  0
LINE
  8
OUTLINE
  6
CONTINUOUS
 62
     3
 10
124.1737329999999
 20
55.812353999999907
 30
0.0
 11
124.17208699999991
 21
55.810634999999927
 31
0.0
  0
LINE
  8
DETAIL
  6
CONTINUOUS
 62
     5
 10
125.9990210000001
 20
162.008745
 30
0.0
 11
154.46009000000001
 21
161.5119550000002
 31
0.0
  0
LINE
  8
OUTLINE
  6
CONTINUOUS
 62
     3
 10
125.9990210000001
 20
162.00874499999989
 30
0.0
 11
154.46009000000001
 21
161.5119549999998
 31
0.0
  0
LINE
  8
DETAIL
  6
CONTINUOUS
 62
     5
 10
159.37712799999991
 20
158.09550899999999
 30
0.0
 11
184.14939000000001
 21
157.87932499999999
 31
0.0
  0
LINE
  8
OUTLINE
  6
CONTINUOUS
 62
     3
 10
159.37712799999991
 20
158.09550899999991
 30
0.0
 11
184.14939000000001
 21
157.87932499999991
 31
0.0
  0
ARC
  8
DETAIL
  6
CONTINUOUS
 62
     5
 10
154.4251849999998
 20
58.487739000000033
 30
0.0
 40
2.0
 50
271.00000000000182
 51
308.81474499999848
  0
ARC
  8
OUTLINE
  6
CONTINUOUS
 62
     3
 10
154.4251849999998
 20
58.48773899999992
 30
0.0
 40
2.0
 50
271.00000000000182
 51
308.81474499999848
  0
ARC
  8
DETAIL
  6
CONTINUOUS
 62
     5
 10
122.03392600000009
 20
56.519202999999948
 30
0.0
 40
2.0
 50
308.29016299999608
 51
0.0
  0
ARC
  8
DETAIL
  6
CONTINUOUS
 62
     5
 10
184.14502599999989
 20
60.620655000000063
 30
0.0
 40
0.5
 50
270.50000000000449
 51
0.0000010000014034
  0
ARC
  8
OUTLINE
  6
CONTINUOUS
 62
     3
 10
184.14502599999989
 20
60.620654999999942
 30
0.0
 40
0.5
 50
270.50000000000449
 51
0.0000010000014034
  0
ARC
  8
DETAIL
  6
CONTINUOUS
 62
     5
 10
154.4251849999998
 20
159.5122600000002
 30
0.0
 40
2.0
 50
51.185255000001497
 51
88.999999999998238
  0
ARC
  8
OUTLINE
  6
CONTINUOUS
 62
     3
 10
154.4251849999998
 20
159.51226
 30
0.0
 40
2.0
 50
51.185255000001497
 51
88.999999999998238
  0
ARC
  8
DETAIL
  6
CONTINUOUS
 62
     5
 10
184.14502599999989
 20
157.37934400000009
 30
0.0
 40
0.5
 50
359.99999899999858
 51
89.499999999995424
  0
ARC
  8
OUTLINE
  6
CONTINUOUS
 62
     3
 10
184.14502599999989
 20
157.3793439999998
 30
0.0
 40
0.5
 50
359.99999899999858
 51
89.499999999995424
  0
ARC
  8
DETAIL
  6
CONTINUOUS
 62
     5
 10
115.8606150000001
 20
168.0
 30
0.0
 40
5.0
 50
0.0
 51
90.0
  0
ARC
  8
OUTLINE
  6
CONTINUOUS
 62
     3
 10
115.8606150000001
 20
167.99999999999989
 30
0.0
 40
5.0
 50
0.0
 51
90.0
  0
ARC
  8
DETAIL
  6
CONTINUOUS
 62
     5
 10
126.03392600000009
 20
164.00844000000009
 30
0.0
 40
2.0
 50
180.0
 51
268.99999999999818
  0
ARC
  8
OUTLINE
  6
CONTINUOUS
 62
     3
 10
126.03392600000009
 20
164.00843999999981
 30
0.0
 40
2.0
 50
180.0
 51
268.99999999999818
  0
ARC
  8
DETAIL
  6
CONTINUOUS
 62
     5
 10
122.03392600000009
 20
165.0
 30
0.0
 40
2.0
 50
0.0
 51
90.0
  0
ARC
  8
OUTLINE
  6
CONTINUOUS
 62
     3
 10
122.03392600000009
 20
164.99999999999989
 30
0.0
 40
2.0
 50
0.0
 51
90.0
  0
LINE
  8
DETAIL
  6
CONTINUOUS
 62
     5
 10
-172.47175800000011
 20
57.530004000000083
 30
0.0
 11
-211.50872799999999
 21
57.870674000000008
 31
0.0
  0
LINE
  8
OUTLINE
  6
CONTINUOUS
 62
     3
 10
-172.47175800000011
 20
57.530003999999849
 30
0.0
 11
-211.50872799999999
 21
57.870673999999887
 31
0.0
  0
LINE
  8
DETAIL
  6
CONTINUOUS
 62
     5
 10
-142.00436300000001
 20
53.75
 30
0.0
 11
-167.53247099999999
 21
54.195594000000028
 31
0.0
  0
LINE
  8
OUTLINE
  6
CONTINUOUS
 62
     3
 10
-142.00436300000001
 20
53.75
 30
0.0
 11
-167.53247099999999
 21
54.195593999999907
 31
0.0
  0
LINE
  8
DETAIL
  6
CONTINUOUS
 62
     5
 10
-142.0043639999999
 20
159.75
 30
0.0
 11
-167.53247099999999
 21
159.304405
 31
0.0
  0
LINE
  8
OUTLINE
  6
CONTINUOUS
 62
     3
 10
-142.0043639999999
 20
159.74999999999989
 30
0.0
 11
-167.53247099999999
 21
159.30440499999989
 31
0.0
  0
LINE
  8
DETAIL
  6
CONTINUOUS
 62
     5
 10
-172.47175800000011
 20
155.96999500000001
 30
0.0
 11
-211.50872799999999
 21
155.62932499999999
 31
0.0
  0
LINE
  8
OUTLINE
  6
CONTINUOUS
 62
     3
 10
-172.47175800000011
 20
155.9699949999999
 30
0.0
 11
-211.50872799999999
 21
155.62932499999991
 31
0.0
  0
ARC
  8
DETAIL
  6
CONTINUOUS
 62
     5
 10
-211.5043639999999
 20
155.12934400000009
 30
0.0
 40
0.5
 50
90.500000000004576
 51
180.00000100000139
  0
ARC
  8
OUTLINE
  6
CONTINUOUS
 62
     3
 10
-211.5043639999999
 20
155.1293439999998
 30
0.0
 40
0.5
 50
90.500000000004576
 51
180.00000100000139
  0
ARC
  8
DETAIL
  6
CONTINUOUS
 62
     5
 10
-167.49756600000001
 20
157.304709
 30
0.0
 40
2.0
 50
91.000000000001776
 51
134.99999499999021
  0
ARC
  8
OUTLINE
  6
CONTINUOUS
 62
     3
 10
-167.49756600000001
 20
157.30470899999989
 30
0.0
 40
2.0
 50
91.000000000001776
 51
134.99999499999021
  0
ARC
  8
DETAIL
  6
CONTINUOUS
 62
     5
 10
-172.4892110000001
 20
157.969919
 30
0.0
 40
2.0
 50
270.50000000000449
 51
314.99999499999018
  0
ARC
  8
OUTLINE
  6
CONTINUOUS
 62
     3
 10
-172.4892110000001
 20
157.96991899999989
 30
0.0
 40
2.0
 50
270.50000000000449
 51
314.99999499999018
  0
ARC
  8
DETAIL
  6
CONTINUOUS
 62
     5
 10
-211.5043639999999
 20
58.370655000000063
 30
0.0
 40
0.5
 50
179.99999899999861
 51
269.49999999999551
  0
ARC
  8
OUTLINE
  6
CONTINUOUS
 62
     3
 10
-211.5043639999999
 20
58.370654999999942
 30
0.0
 40
0.5
 50
179.99999899999861
 51
269.49999999999551
  0
ARC
  8
DETAIL
  6
CONTINUOUS
 62
     5
 10
-167.49756600000001
 20
56.19529
 30
0.0
 40
2.0
 50
225.00000500000979
 51
268.99999999999818
  0
ARC
  8
OUTLINE
  6
CONTINUOUS
 62
     3
 10
-167.49756600000001
 20
56.195289999999893
 30
0.0
 40
2.0
 50
225.00000500000979
 51
268.99999999999818
  0
ARC
  8
DETAIL
  6
CONTINUOUS
 62
     5
 10
-172.4892110000001
 20
55.530079999999998
 30
0.0
 40
2.0
 50
45.000005000009779
 51
89.499999999995424
  0
ARC
  8
OUTLINE
  6
CONTINUOUS
 62
     3
 10
-172.4892110000001
 20
55.530079999999998
 30
0.0
 40
2.0
 50
45.000005000009779
 51
89.499999999995424
  0
LINE
  8
DETAIL
  6
CONTINUOUS
 62
     5
 10
-212.0043639999999
 20
155.12934400000009
 30
0.0
 11
-212.0043639999999
 21
58.370655000000063
 31
0.0
  0
LINE
  8
OUTLINE
  6
CONTINUOUS
 62
     3
 10
-212.0043639999999
 20
155.1293439999998
 30
0.0
 11
-212.0043639999999
 21
58.370654999999942
 31
0.0
  0
LINE
  8
DETAIL
  6
CONTINUOUS
 62
     5
 10
-171.07499800000019
 20
156.55570599999999
 30
0.0
 11
-168.91178000000011
 21
158.71892299999999
 31
0.0
  0
LINE
  8
OUTLINE
  6
CONTINUOUS
 62
     3
 10
-171.07499800000019
 20
156.5557059999999
 30
0.0
 11
-168.91178000000011
 21
158.7189229999999
 31
0.0
  0
LINE
  8
DETAIL
  6
CONTINUOUS
 62
     5
 10
-171.07499800000019
 20
56.944294000000014
 30
0.0
 11
-168.91178000000011
 21
54.781075999999977
 31
0.0
  0
LINE
  8
OUTLINE
  6
CONTINUOUS
 62
     3
 10
-171.07499800000019
 20
56.9442939999999
 30
0.0
 11
-168.91178000000011
 21
54.781075999999977
 31
0.0
  0
LINE
  8
DETAIL
  6
CONTINUOUS
 62
     5
 10
-142.00170900000009
 20
55.865046000000007
 30
0.0
 11
-142.0043639999999
 21
159.75
 31
0.0
  0
LINE
  8
DETAIL
  6
CONTINUOUS
 62
     5
 10
-142.00435400000009
 20
54.704363000000058
 30
0.0
 11
-142.00170900000009
 21
55.865046000000007
 31
0.0
  0
LINE
  8
DETAIL
  6
CONTINUOUS
 62
     5
 10
-141.9997750000002
 20
53.990884000000051
 30
0.0
 11
-142.00435400000009
 21
54.704363000000058
 31
0.0
  0
LINE
  8
DETAIL
  6
CONTINUOUS
 62
     5
 10
-142.00207
 20
53.81031100000007
 30
0.0
 11
-141.9997750000002
 21
53.990884000000051
 31
0.0
  0
LINE
  8
DETAIL
  6
CONTINUOUS
 62
     5
 10
-142.0043639999999
 20
53.75
 30
0.0
 11
-142.00207
 21
53.81031100000007
 31
0.0
  0
LINE
  8
DETAIL
  6
CONTINUOUS
 62
     5
 10
-142.0043639999999
 20
159.75
 30
0.0
 11
-100.14313800000011
 21
160.98680899999999
 31
0.0
  0
LINE
  8
OUTLINE
  6
CONTINUOUS
 62
     3
 10
-142.0043639999999
 20
159.74999999999989
 30
0.0
 11
-100.14313800000011
 21
160.98680899999991
 31
0.0
  0
LINE
  8
DETAIL
  6
CONTINUOUS
 62
     5
 10
-99.179290000000037
 20
161.871486
 30
0.0
 11
-99.172821999999996
 21
161.96891400000001
 31
0.0
  0
LINE
  8
OUTLINE
  6
CONTINUOUS
 62
     3
 10
-99.179290000000037
 20
161.87148599999989
 30
0.0
 11
-99.172821999999996
 21
161.9689139999999
 31
0.0
  0
LINE
  8
DETAIL
  6
CONTINUOUS
 62
     5
 10
-99.196464999999989
 20
161.76951800000009
 30
0.0
 11
-99.179290000000037
 21
161.871486
 31
0.0
  0
LINE
  8
OUTLINE
  6
CONTINUOUS
 62
     3
 10
-99.196464999999989
 20
161.76951799999981
 30
0.0
 11
-99.179290000000037
 21
161.87148599999989
 31
0.0
  0
LINE
  8
DETAIL
  6
CONTINUOUS
 62
     5
 10
-99.224099000000024
 20
161.66980100000009
 30
0.0
 11
-99.196464999999989
 21
161.76951800000009
 31
0.0
  0
LINE
  8
OUTLINE
  6
CONTINUOUS
 62
     3
 10
-99.224099000000024
 20
161.66980100000001
 30
0.0
 11
-99.196464999999989
 21
161.76951799999981
 31
0.0
  0
LINE
  8
DETAIL
  6
CONTINUOUS
 62
     5
 10
-99.26190500000007
 20
161.57344100000009
 30
0.0
 11
-99.224099000000024
 21
161.66980100000009
 31
0.0
  0
LINE
  8
OUTLINE
  6
CONTINUOUS
 62
     3
 10
-99.26190500000007
 20
161.573441
 30
0.0
 11
-99.224099000000024
 21
161.66980100000001
 31
0.0
  0
LINE
  8
DETAIL
  6
CONTINUOUS
 62
     5
 10
-99.309469000000036
 20
161.481506
 30
0.0
 11
-99.26190500000007
 21
161.57344100000009
 31
0.0
  0
LINE
  8
OUTLINE
  6
CONTINUOUS
 62
     3
 10
-99.309469000000036
 20
161.48150599999991
 30
0.0
 11
-99.26190500000007
 21
161.573441
 31
0.0
  0
LINE
  8
DETAIL
  6
CONTINUOUS
 62
     5
 10
-99.366293999999925
 20
161.3949630000001
 30
0.0
 11
-99.309469000000036
 21
161.481506
 31
0.0
  0
LINE
  8
OUTLINE
  6
CONTINUOUS
 62
     3
 10
-99.366293999999925
 20
161.39496299999999
 30
0.0
 11
-99.309469000000036
 21
161.48150599999991
 31
0.0
  0
LINE
  8
DETAIL
  6
CONTINUOUS
 62
     5
 10
-99.431785000000218
 20
161.31473500000001
 30
0.0
 11
-99.366293999999925
 21
161.3949630000001
 31
0.0
  0
LINE
  8
OUTLINE
  6
CONTINUOUS
 62
     3
 10
-99.431785000000218
 20
161.3147349999999
 30
0.0
 11
-99.366293999999925
 21
161.39496299999999
 31
0.0
  0
LINE
  8
DETAIL
  6
CONTINUOUS
 62
     5
 10
-99.505243999999948
 20
161.24168999999981
 30
0.0
 11
-99.431785000000218
 21
161.31473500000001
 31
0.0
  0
LINE
  8
OUTLINE
  6
CONTINUOUS
 62
     3
 10
-99.505243999999948
 20
161.24168999999981
 30
0.0
 11
-99.431785000000218
 21
161.3147349999999
 31
0.0
  0
LINE
  8
DETAIL
  6
CONTINUOUS
 62
     5
 10
-99.585890000000063
 20
161.1766200000001
 30
0.0
 11
-99.505243999999948
 21
161.24168999999981
 31
0.0
  0
LINE
  8
OUTLINE
  6
CONTINUOUS
 62
     3
 10
-99.585890000000063
 20
161.17662000000001
 30
0.0
 11
-99.505243999999948
 21
161.24168999999981
 31
0.0
  0
LINE
  8
DETAIL
  6
CONTINUOUS
 62
     5
 10
-99.672862000000123
 20
161.12022999999999
 30
0.0
 11
-99.585890000000063
 21
161.1766200000001
 31
0.0
  0
LINE
  8
OUTLINE
  6
CONTINUOUS
 62
     3
 10
-99.672862000000123
 20
161.12022999999991
 30
0.0
 11
-99.585890000000063
 21
161.17662000000001
 31
0.0
  0
LINE
  8
DETAIL
  6
CONTINUOUS
 62
     5
 10
-99.76522900000009
 20
161.0731340000001
 30
0.0
 11
-99.672862000000123
 21
161.12022999999999
 31
0.0
  0
LINE
  8
OUTLINE
  6
CONTINUOUS
 62
     3
 10
-99.76522900000009
 20
161.07313400000001
 30
0.0
 11
-99.672862000000123
 21
161.12022999999991
 31
0.0
  0
LINE
  8
DETAIL
  6
CONTINUOUS
 62
     5
 10
-99.862003000000186
 20
161.03584699999999
 30
0.0
 11
-99.76522900000009
 21
161.0731340000001
 31
0.0
  0
LINE
  8
OUTLINE
  6
CONTINUOUS
 62
     3
 10
-99.862003000000186
 20
161.0358469999999
 30
0.0
 11
-99.76522900000009
 21
161.07313400000001
 31
0.0
  0
LINE
  8
DETAIL
  6
CONTINUOUS
 62
     5
 10
-99.962146000000075
 20
161.00877700000001
 30
0.0
 11
-99.862003000000186
 21
161.03584699999999
 31
0.0
  0
LINE
  8
OUTLINE
  6
CONTINUOUS
 62
     3
 10
-99.962146000000075
 20
161.0087769999999
 30
0.0
 11
-99.862003000000186
 21
161.0358469999999
 31
0.0
  0
LINE
  8
DETAIL
  6
CONTINUOUS
 62
     5
 10
-100.064582
 20
160.9922250000001
 30
0.0
 11
-99.962146000000075
 21
161.00877700000001
 31
0.0
  0
LINE
  8
OUTLINE
  6
CONTINUOUS
 62
     3
 10
-100.064582
 20
160.99222499999999
 30
0.0
 11
-99.962146000000075
 21
161.0087769999999
 31
0.0
  0
LINE
  8
DETAIL
  6
CONTINUOUS
 62
     5
 10
-100.14313800000011
 20
160.98680200000001
 30
0.0
 11
-100.064582
 21
160.9922250000001
 31
0.0
  0
LINE
  8
OUTLINE
  6
CONTINUOUS
 62
     3
 10
-100.14313800000011
 20
160.9868019999999
 30
0.0
 11
-100.064582
 21
160.99222499999999
 31
0.0
  0
LINE
  8
DETAIL
  6
CONTINUOUS
 62
     5
 10
-168.34039999999999
 20
159.1184430000001
 30
0.0
 11
-168.34039999999999
 21
54.381556000000053
 31
0.0
  0
LINE
  8
DETAIL
  6
CONTINUOUS
 62
     5
 10
-171.65356800000021
 20
57.347137999999973
 30
0.0
 11
-171.65356800000021
 21
156.152861
 31
0.0
  0
ARC
  8
DETAIL
  6
CONTINUOUS
 62
     5
 10
-93.224364000000151
 20
181.62
 30
0.0
 40
0.88
 50
90.0
 51
180.0
  0
ARC
  8
OUTLINE
  6
CONTINUOUS
 62
     3
 10
-93.224364000000151
 20
181.61999999999989
 30
0.0
 40
0.88
 50
90.0
 51
180.0
  0
LINE
  8
DETAIL
  6
CONTINUOUS
 62
     5
 10
-94.104364000000032
 20
177.5
 30
0.0
 11
-94.104364000000032
 21
181.62
 31
0.0
  0
LINE
  8
OUTLINE
  6
CONTINUOUS
 62
     3
 10
-94.104364000000032
 20
177.49999999999989
 30
0.0
 11
-94.104364000000032
 21
181.61999999999989
 31
0.0
  0
ARC
  8
DETAIL
  6
CONTINUOUS
 62
     5
 10
-96.936331999999993
 20
175.49999600000001
 30
0.0
 40
2.0
 50
90.0
 51
178.99991100000241
  0
ARC
  8
OUTLINE
  6
CONTINUOUS
 62
     3
 10
-96.936331999999993
 20
175.4999959999999
 30
0.0
 40
2.0
 50
90.0
 51
178.99991100000241
  0
ARC
  8
DETAIL
  6
CONTINUOUS
 62
     5
 10
-84.667011000000002
 20
176.499999
 30
0.0
 40
1.0
 50
36.713696000000063
 51
90.0
  0
LINE
  8
DETAIL
  6
CONTINUOUS
 62
     5
 10
-83.857479000000239
 20
177.08709600000009
 30
0.0
 11
-83.86537700000008
 21
177.09781699999999
 31
0.0
  0
LINE
  8
DETAIL
  6
CONTINUOUS
 62
     5
 10
-83.81555400000002
 20
177.02438599999991
 30
0.0
 11
-83.857479000000239
 21
177.08709600000009
 31
0.0
  0
LINE
  8
DETAIL
  6
CONTINUOUS
 62
     5
 10
-83.776202999999896
 20
176.95428100000001
 30
0.0
 11
-83.81555400000002
 21
177.02438599999991
 31
0.0
  0
LINE
  8
DETAIL
  6
CONTINUOUS
 62
     5
 10
-83.740775000000212
 20
176.87669199999991
 30
0.0
 11
-83.776202999999896
 21
176.95428100000001
 31
0.0
  0
LINE
  8
DETAIL
  6
CONTINUOUS
 62
     5
 10
-83.710505000000012
 20
176.7912700000002
 30
0.0
 11
-83.740775000000212
 21
176.87669199999991
 31
0.0
  0
LINE
  8
DETAIL
  6
CONTINUOUS
 62
     5
 10
-83.68716500000005
 20
176.699198
 30
0.0
 11
-83.710505000000012
 21
176.7912700000002
 31
0.0
  0
LINE
  8
DETAIL
  6
CONTINUOUS
 62
     5
 10
-83.672444000000041
 20
176.60194899999999
 30
0.0
 11
-83.68716500000005
 21
176.699198
 31
0.0
  0
LINE
  8
DETAIL
  6
CONTINUOUS
 62
     5
 10
-83.667022999999972
 20
176.5
 30
0.0
 11
-83.672444000000041
 21
176.60194899999999
 31
0.0
  0
LINE
  8
DETAIL
  6
CONTINUOUS
 62
     5
 10
-83.667175000000043
 20
176.48187899999991
 30
0.0
 11
-83.667022999999972
 21
176.5
 31
0.0
  0
LINE
  8
DETAIL
  6
CONTINUOUS
 62
     5
 10
-69.104364000000032
 20
175.5
 30
0.0
 11
-69.104364000000032
 21
181.62
 31
0.0
  0
LINE
  8
OUTLINE
  6
CONTINUOUS
 62
     3
 10
-69.104364000000032
 20
175.49999999999989
 30
0.0
 11
-69.104364000000032
 21
181.61999999999989
 31
0.0
  0
LINE
  8
DETAIL
  6
CONTINUOUS
 62
     5
 10
-69.984364000000141
 20
182.5
 30
0.0
 11
-93.224364000000151
 21
182.5
 31
0.0
  0
LINE
  8
OUTLINE
  6
CONTINUOUS
 62
     3
 10
-69.984364000000141
 20
182.49999999999989
 30
0.0
 11
-77.222222999999985
 21
182.49999999999989
 31
0.0
  0
ARC
  8
DETAIL
  6
CONTINUOUS
 62
     5
 10
-69.984364000000141
 20
181.62
 30
0.0
 40
0.88
 50
0.0
 51
90.0
  0
ARC
  8
OUTLINE
  6
CONTINUOUS
 62
     3
 10
-69.984364000000141
 20
181.61999999999989
 30
0.0
 40
0.88
 50
0.0
 51
90.0
  0
LINE
  8
DETAIL
  6
CONTINUOUS
 62
     5
 10
-83.684314000000086
 20
175.5
 30
0.0
 11
-69.104364000000032
 21
175.5
 31
0.0
  0
LINE
  8
OUTLINE
  6
CONTINUOUS
 62
     3
 10
-76.558727999999974
 20
175.49999999999989
 30
0.0
 11
-69.104364000000032
 21
175.49999999999989
 31
0.0
  0
LINE
  8
DETAIL
  6
CONTINUOUS
 62
     5
 10
-98.936027000000195
 20
175.53490400000001
 30
0.0
 11
-102.0
 21
0.0
 31
0.0
  0
LINE
  8
OUTLINE
  6
CONTINUOUS
 62
     3
 10
-98.936027000000195
 20
175.5349039999999
 30
0.0
 11
-99.176856000000043
 21
161.7378299999998
 31
0.0
  0
LINE
  8
DETAIL
  6
CONTINUOUS
 62
     5
 10
-101.131513
 20
49.755607000000047
 30
0.0
 11
-142.0043639999999
 21
53.75
 31
0.0
  0
LINE
  8
OUTLINE
  6
CONTINUOUS
 62
     3
 10
-101.131513
 20
49.755606999999827
 30
0.0
 11
-142.0043639999999
 21
53.75
 31
0.0
  0
LINE
  8
DETAIL
  6
CONTINUOUS
 62
     5
 10
-83.667175000000043
 20
176.48187899999991
 30
0.0
 11
-86.747677000000067
 21
0.0
 31
0.0
  0
ARC
  8
DETAIL
  6
CONTINUOUS
 62
     5
 10
142.23457399999981
 20
-8.8729989999999361
 30
0.0
 40
0.3
 50
313.49999999999392
 51
357.00000000000091
  0
ARC
  8
OUTLINE
  6
CONTINUOUS
 62
     3
 10
142.23457399999981
 20
-8.8729990000000498
 30
0.0
 40
0.3
 50
313.49999999999392
 51
357.00000000000091
  0
LINE
  8
OUTLINE
  6
CONTINUOUS
 62
     3
 10
143.0
 20
0.0
 30
0.0
 11
105.74172899999991
 21
0.0
 31
0.0
  0
LINE
  8
DETAIL
  6
CONTINUOUS
 62
     5
 10
143.0
 20
0.0
 30
0.0
 11
142.53416299999981
 21
-8.8886989999999741
 31
0.0
  0
LINE
  8
OUTLINE
  6
CONTINUOUS
 62
     3
 10
143.0
 20
0.0
 30
0.0
 11
142.53416299999981
 21
-8.8886990000000878
 31
0.0
  0
LINE
  8
DETAIL
  6
CONTINUOUS
 62
     5
 10
142.50236899999979
 20
-9.0082229999999299
 30
0.0
 11
-142.50237000000021
 21
-9.0082229999999299
 31
0.0
  0
LINE
  8
DETAIL
  6
CONTINUOUS
 62
     5
 10
136.44539900000001
 20
-14.780300000000009
 30
0.0
 11
142.44108000000011
 21
-9.0906109999999671
 31
0.0
  0
LINE
  8
OUTLINE
  6
CONTINUOUS
 62
     3
 10
136.44539900000001
 20
-14.780300000000009
 30
0.0
 11
142.44108000000011
 21
-9.0906110000000808
 31
0.0
  0
LINE
  8
DETAIL
  6
CONTINUOUS
 62
     5
 10
135.89471499999991
 20
-15.0
 30
0.0
 11
-135.89471600000019
 21
-15.0
 31
0.0
  0
LINE
  8
OUTLINE
  6
CONTINUOUS
 62
     3
 10
135.89471499999991
 20
-15.0
 30
0.0
 11
-135.89471600000019
 21
-15.0
 31
0.0
  0
ARC
  8
DETAIL
  6
CONTINUOUS
 62
     5
 10
135.89471499999991
 20
-14.19999999999993
 30
0.0
 40
0.8
 50
270.0
 51
313.49999999999392
  0
ARC
  8
OUTLINE
  6
CONTINUOUS
 62
     3
 10
135.89471499999991
 20
-14.200000000000051
 30
0.0
 40
0.8
 50
270.0
 51
313.49999999999392
  0
LINE
  8
DETAIL
  6
CONTINUOUS
 62
     5
 10
-136.44540000000009
 20
-14.780300000000009
 30
0.0
 11
-142.44108099999991
 21
-9.0906109999999671
 31
0.0
  0
LINE
  8
OUTLINE
  6
CONTINUOUS
 62
     3
 10
-136.44540000000009
 20
-14.780300000000009
 30
0.0
 11
-142.44108099999991
 21
-9.0906110000000808
 31
0.0
  0
ARC
  8
DETAIL
  6
CONTINUOUS
 62
     5
 10
-135.89471600000019
 20
-14.19999999999993
 30
0.0
 40
0.8
 50
226.50000000000611
 51
270.0
  0
ARC
  8
OUTLINE
  6
CONTINUOUS
 62
     3
 10
-135.89471600000019
 20
-14.200000000000051
 30
0.0
 40
0.8
 50
226.50000000000611
 51
270.0
  0
ARC
  8
DETAIL
  6
CONTINUOUS
 62
     5
 10
-142.23457499999981
 20
-8.8729989999999361
 30
0.0
 40
0.3
 50
182.99999999999909
 51
226.50000000000611
  0
ARC
  8
OUTLINE
  6
CONTINUOUS
 62
     3
 10
-142.23457499999981
 20
-8.8729990000000498
 30
0.0
 40
0.3
 50
182.99999999999909
 51
226.50000000000611
  0
LINE
  8
DETAIL
  6
CONTINUOUS
 62
     5
 10
-143.0
 20
0.0
 30
0.0
 11
-142.53416400000009
 21
-8.8886989999999741
 31
0.0
  0
LINE
  8
OUTLINE
  6
CONTINUOUS
 62
     3
 10
-143.0
 20
0.0
 30
0.0
 11
-142.53416400000009
 21
-8.8886990000000878
 31
0.0
  0
ARC
  8
DETAIL
  6
CONTINUOUS
 62
     5
 10
-86.979561999999987
 20
193.0
 30
0.0
 40
2.0
 50
90.0
 51
173.0317430000008
  0
ARC
  8
OUTLINE
  6
CONTINUOUS
 62
     3
 10
-86.979561999999987
 20
192.99999999999989
 30
0.0
 40
2.0
 50
90.0
 51
173.0317430000008
  0
ARC
  8
DETAIL
  6
CONTINUOUS
 62
     5
 10
-80.520439000000124
 20
193.0
 30
0.0
 40
2.0
 50
6.9682569999992081
 51
90.0
  0
ARC
  8
OUTLINE
  6
CONTINUOUS
 62
     3
 10
-80.520439000000124
 20
192.99999999999989
 30
0.0
 40
2.0
 50
6.9682569999992081
 51
90.0
  0
LINE
  8
DETAIL
  6
CONTINUOUS
 62
     5
 10
-80.520439000000124
 20
195.0
 30
0.0
 11
-86.979561999999987
 21
195.0
 31
0.0
  0
LINE
  8
OUTLINE
  6
CONTINUOUS
 62
     3
 10
-80.520439000000124
 20
194.99999999999989
 30
0.0
 11
-86.979561999999987
 21
194.99999999999989
 31
0.0
  0
LINE
  8
DETAIL
  6
CONTINUOUS
 62
     5
 10
-88.96478900000011
 20
193.24263800000011
 30
0.0
 11
-90.277778000000126
 21
182.5
 31
0.0
  0
LINE
  8
OUTLINE
  6
CONTINUOUS
 62
     3
 10
-88.96478900000011
 20
193.24263799999991
 30
0.0
 11
-90.277778000000126
 21
182.49999999999989
 31
0.0
  0
LINE
  8
DETAIL
  6
CONTINUOUS
 62
     5
 10
-77.222222999999985
 20
182.5
 30
0.0
 11
-78.535212000000229
 21
193.24263800000011
 31
0.0
  0
LINE
  8
OUTLINE
  6
CONTINUOUS
 62
     3
 10
-77.222222999999985
 20
182.49999999999989
 30
0.0
 11
-78.535212000000229
 21
193.24263799999991
 31
0.0
  0
ARC
  8
DETAIL
  6
CONTINUOUS
 62
     5
 10
75.84479999999985
 20
181.47048699999999
 30
0.0
 40
1.0
 50
152.02052599999899
 51
174.99876799999771
  0
ARC
  8
OUTLINE
  6
CONTINUOUS
 62
     3
 10
75.84479999999985
 20
181.47048699999991
 30
0.0
 40
1.0
 50
152.02052599999899
 51
174.99876799999771
  0
ARC
  8
DETAIL
  6
CONTINUOUS
 62
     5
 10
83.028256000000056
 20
192.0
 30
0.0
 40
3.0
 50
1.0000000000017619
 51
83.539954999994009
  0
ARC
  8
OUTLINE
  6
CONTINUOUS
 62
     3
 10
83.028256000000056
 20
191.99999999999989
 30
0.0
 40
3.0
 50
1.0000000000017619
 51
83.539954999994009
  0
ARC
  8
DETAIL
  6
CONTINUOUS
 62
     5
 10
83.70331299999998
 20
192.0
 30
0.0
 40
3.0
 50
96.459949999996795
 51
152.01995600000561
  0
ARC
  8
OUTLINE
  6
CONTINUOUS
 62
     3
 10
83.70331299999998
 20
191.99999999999989
 30
0.0
 40
3.0
 50
96.459949999996795
 51
152.01995599999989
  0
LINE
  8
DETAIL
  6
CONTINUOUS
 62
     5
 10
74.961684999999989
 20
181.93964199999991
 30
0.0
 11
81.053965999999946
 21
193.407465
 31
0.0
  0
LINE
  8
OUTLINE
  6
CONTINUOUS
 62
     3
 10
74.961684999999989
 20
181.93964199999971
 30
0.0
 11
81.053965999999946
 21
193.40746499999989
 31
0.0
  0
LINE
  8
DETAIL
  6
CONTINUOUS
 62
     5
 10
74.099909000000025
 20
173.0
 30
0.0
 11
74.848606999999902
 21
181.5576639999999
 31
0.0
  0
LINE
  8
OUTLINE
  6
CONTINUOUS
 62
     3
 10
74.099909000000025
 20
172.99999999999989
 30
0.0
 11
74.848606999999902
 21
181.5576639999999
 31
0.0
  0
LINE
  8
DETAIL
  6
CONTINUOUS
 62
     5
 10
86.027798999999959
 20
192.052357
 30
0.0
 11
86.360359000000017
 21
173.0
 31
0.0
  0
LINE
  8
OUTLINE
  6
CONTINUOUS
 62
     3
 10
86.027798999999959
 20
192.05235699999989
 30
0.0
 11
86.360359000000017
 21
172.99999999999989
 31
0.0
  0
LINE
  8
DETAIL
  6
CONTINUOUS
 62
     5
 10
66.899999999999864
 20
141.0
 30
0.0
 11
73.376782999999932
 21
164.91427800000019
 31
0.0
  0
LINE
  8
OUTLINE
  6
CONTINUOUS
 62
     3
 10
69.202082999999902
 20
149.49999999999989
 30
0.0
 11
73.376782999999932
 21
164.914278
 31
0.0
  0
ARC
  8
DETAIL
  6
CONTINUOUS
 62
     5
 10
72.411548000000039
 20
165.17566099999999
 30
0.0
 40
1.0
 50
344.84787200000193
 51
354.99931699999757
  0
ARC
  8
OUTLINE
  6
CONTINUOUS
 62
     3
 10
72.411548000000039
 20
165.17566099999991
 30
0.0
 40
1.0
 50
344.84787200000193
 51
354.99931699999757
  0
LINE
  8
DETAIL
  6
CONTINUOUS
 62
     5
 10
73.407741999999871
 20
165.0884930000002
 30
0.0
 11
73.487487999999985
 21
166.0
 31
0.0
  0
LINE
  8
OUTLINE
  6
CONTINUOUS
 62
     3
 10
73.407741999999871
 20
165.088493
 30
0.0
 11
73.487487999999985
 21
165.99999999999989
 31
0.0
  0
LINE
  8
DETAIL
  6
CONTINUOUS
 62
     5
 10
104.75
 20
0.0
 30
0.0
 11
101.86991399999989
 21
165.0
 31
0.0
  0
LINE
  8
DETAIL
  6
CONTINUOUS
 62
     5
 10
100.48328100000001
 20
140.99283500000001
 30
0.0
 11
100.31342099999981
 21
141.0
 31
0.0
  0
LINE
  8
DETAIL
  6
CONTINUOUS
 62
     5
 10
100.6514619999998
 20
140.971101
 30
0.0
 11
100.48328100000001
 21
140.99283500000001
 31
0.0
  0
LINE
  8
DETAIL
  6
CONTINUOUS
 62
     5
 10
100.818896
 20
140.93459599999991
 30
0.0
 11
100.6514619999998
 21
140.971101
 31
0.0
  0
LINE
  8
DETAIL
  6
CONTINUOUS
 62
     5
 10
100.98278499999989
 20
140.883925
 30
0.0
 11
100.818896
 21
140.93459599999991
 31
0.0
  0
LINE
  8
DETAIL
  6
CONTINUOUS
 62
     5
 10
101.1407669999999
 20
140.8194910000002
 30
0.0
 11
100.98278499999989
 21
140.883925
 31
0.0
  0
LINE
  8
DETAIL
  6
CONTINUOUS
 62
     5
 10
101.2924639999999
 20
140.74169599999999
 30
0.0
 11
101.1407669999999
 21
140.8194910000002
 31
0.0
  0
LINE
  8
DETAIL
  6
CONTINUOUS
 62
     5
 10
101.4369939999999
 20
140.65095299999999
 30
0.0
 11
101.2924639999999
 21
140.74169599999999
 31
0.0
  0
LINE
  8
DETAIL
  6
CONTINUOUS
 62
     5
 10
101.573502
 20
140.54763
 30
0.0
 11
101.4369939999999
 21
140.65095299999999
 31
0.0
  0
LINE
  8
DETAIL
  6
CONTINUOUS
 62
     5
 10
101.7014599999998
 20
140.43159299999999
 30
0.0
 11
101.573502
 21
140.54763
 31
0.0
  0
LINE
  8
DETAIL
  6
CONTINUOUS
 62
     5
 10
101.8190129999998
 20
140.304765
 30
0.0
 11
101.7014599999998
 21
140.43159299999999
 31
0.0
  0
LINE
  8
DETAIL
  6
CONTINUOUS
 62
     5
 10
101.9241480000001
 20
140.168813
 30
0.0
 11
101.8190129999998
 21
140.304765
 31
0.0
  0
LINE
  8
DETAIL
  6
CONTINUOUS
 62
     5
 10
102.016807
 20
140.024372
 30
0.0
 11
101.9241480000001
 21
140.168813
 31
0.0
  0
LINE
  8
DETAIL
  6
CONTINUOUS
 62
     5
 10
102.0964079999999
 20
139.87239
 30
0.0
 11
102.016807
 21
140.024372
 31
0.0
  0
LINE
  8
DETAIL
  6
CONTINUOUS
 62
     5
 10
102.162509
 20
139.7135950000002
 30
0.0
 11
102.0964079999999
 21
139.87239
 31
0.0
  0
LINE
  8
DETAIL
  6
CONTINUOUS
 62
     5
 10
102.2146599999999
 20
139.54820699999991
 30
0.0
 11
102.162509
 21
139.7135950000002
 31
0.0
  0
LINE
  8
DETAIL
  6
CONTINUOUS
 62
     5
 10
102.252303
 20
139.378692
 30
0.0
 11
102.2146599999999
 21
139.54820699999991
 31
0.0
  0
LINE
  8
DETAIL
  6
CONTINUOUS
 62
     5
 10
102.2746379999999
 20
139.20790900000009
 30
0.0
 11
102.252303
 21
139.378692
 31
0.0
  0
LINE
  8
DETAIL
  6
CONTINUOUS
 62
     5
 10
102.281931
 20
139.03490400000001
 30
0.0
 11
102.2746379999999
 21
139.20790900000009
 31
0.0
  0
LINE
  8
DETAIL
  6
CONTINUOUS
 62
     5
 10
101.86991399999989
 20
165.0
 30
0.0
 11
86.5
 21
165.0
 31
0.0
  0
LINE
  8
DETAIL
  6
CONTINUOUS
 62
     5
 10
100.31342099999981
 20
141.0
 30
0.0
 11
-71.582906000000094
 21
141.0
 31
0.0
  0
LINE
  8
DETAIL
  6
CONTINUOUS
 62
     5
 10
69.202082999999902
 20
149.5
 30
0.0
 11
-71.90944300000001
 21
149.5
 31
0.0
  0
LINE
  8
OUTLINE
  6
CONTINUOUS
 62
     3
 10
69.202082999999902
 20
149.49999999999989
 30
0.0
 11
37.449999999999818
 21
149.49999999999989
 31
0.0
  0
LINE
  8
DETAIL
  6
CONTINUOUS
 62
     5
 10
-72.680714999999964
 20
169.576775
 30
0.0
 11
-71.582906000000094
 21
141.0
 31
0.0
  0
LINE
  8
OUTLINE
  6
CONTINUOUS
 62
     3
 10
-72.680714999999964
 20
169.57677499999991
 30
0.0
 11
-71.90944300000001
 21
149.49999999999989
 31
0.0
  0
LINE
  8
DETAIL
  6
CONTINUOUS
 62
     5
 10
-76.488908000000038
 20
171.5
 30
0.0
 11
-76.558727999999974
 21
175.5
 31
0.0
  0
LINE
  8
OUTLINE
  6
CONTINUOUS
 62
     3
 10
-76.488908000000038
 20
171.49999999999989
 30
0.0
 11
-76.558727999999974
 21
175.49999999999989
 31
0.0
  0
ARC
  8
DETAIL
  6
CONTINUOUS
 62
     5
 10
-74.679241000000047
 20
169.5
 30
0.0
 40
2.0
 50
2.200000000002734
 51
90.0
  0
ARC
  8
OUTLINE
  6
CONTINUOUS
 62
     3
 10
-74.679241000000047
 20
169.49999999999989
 30
0.0
 40
2.0
 50
2.200000000002734
 51
90.0
  0
LINE
  8
DETAIL
  6
CONTINUOUS
 62
     5
 10
-74.679241000000047
 20
171.5
 30
0.0
 11
-83.754134000000022
 21
171.5
 31
0.0
  0
LINE
  8
OUTLINE
  6
CONTINUOUS
 62
     3
 10
-74.679241000000047
 20
171.49999999999989
 30
0.0
 11
-76.488908000000038
 21
171.49999999999989
 31
0.0
  0
LINE
  8
SIZE
  6
CONTINUOUS
 62
    30
 10
-163.0
 20
0.0
 30
0.0
 11
-458.00401400447481
 21
0.0000000000001137
 31
0.0
  0
LINE
  8
SIZE
  6
CONTINUOUS
 62
    30
 10
-286.81748800000008
 20
107.0
 30
0.0
 11
-458.00401400447481
 21
107.0000000000001
 31
0.0
  0
LINE
  8
SIZE
  6
CONTINUOUS
 62
    30
 10
-438.00401400447481
 20
95.0
 30
0.0
 11
-438.00401400447481
 21
12.00000000000011
 31
0.0
  0
LINE
  8
SIZE
  6
CONTINUOUS
 62
    30
 10
-438.00401400447481
 20
0.0000000000001137
 30
0.0
 11
-438.00401400447481
 21
-199.14285714285711
 31
0.0
  0
CIRCLE
  8
SIZE
  6
CONTINUOUS
 62
    30
 10
-438.00401400447481
 20
107.0000000000001
 30
0.0
 40
6.0
  0
LINE
  8
SIZE
  6
CONTINUOUS
 62
    30
 10
-438.00401400447481
 20
107.0000000000001
 30
0.0
 11
-438.00401400447481
 21
95.000000000000114
 31
0.0
  0
CIRCLE
  8
SIZE
  6
CONTINUOUS
 62
    30
 10
-438.00401400447481
 20
0.0000000000001137
 30
0.0
 40
6.0
  0
LINE
  8
SIZE
  6
CONTINUOUS
 62
    30
 10
-438.00401400447481
 20
0.0000000000001137
 30
0.0
 11
-438.00401400447481
 21
12.00000000000011
 31
0.0
  0
TEXT
  8
SIZE
  6
CONTINUOUS
 62
    30
 10
-463.00401400447481
 20
-174.14285714285711
 30
0.0
 40
64.0
  1
107
 50
90.0
 41
0.9
 72
     1
 11
-463.00401400447481
 21
-105.5714285714286
 31
0.0
  0
POINT
  8
DEFPOINTS
  6
CONTINUOUS
 62
    30
 10
-143.0
 20
0.0
 30
0.0
  0
POINT
  8
DEFPOINTS
  6
CONTINUOUS
 62
    30
 10
-266.81748800000008
 20
107.0
 30
0.0
  0
POINT
  8
DEFPOINTS
  6
CONTINUOUS
 62
    30
 10
-438.00401400447481
 20
107.0000000000001
 30
0.0
  0
TEXT
  8
ETC
  6
CONTINUOUS
 62
    61
 10
593.66403422783424
 20
679.30303804812161
 30
0.0
 40
64.0
  1
VD-10ZFVC6_4
 41
0.9
  0
TEXT
  8
ETC
  6
CONTINUOUS
 62
    61
 10
589.47804022783384
 20
561.34772803329042
 30
0.0
 40
64.0
  1
換気扇
 41
0.9
  0
TEXT
  8
ETC
  6
CONTINUOUS
 62
    61
 10
640.17943847638981
 20
453.19895514706508
 30
0.0
 40
40.0
  1
VD-10ZFVC6
 41
0.9
  0
TEXT
  8
ETC
  6
CONTINUOUS
 62
    61
 10
640.17943847638981
 20
387.19895514706502
 30
0.0
 40
40.0
  1
VD-10ZFLC13
 41
0.9
  0
TEXT
  8
NOTE
  6
CONTINUOUS
 62
     4
 10
-605.9400470774126
 20
298.12099166412702
 30
0.0
 40
63.999999999999993
  1
8-φ5
 50
359.85073780173718
 41
0.9
  0
LINE
  8
NOTE
  6
CONTINUOUS
 62
     4
 10
-352.78356798458663
 20
264.8116364789787
 30
0.0
 11
-634.36576009572161
 21
264.8116729579574
 31
0.0
  0
ENDSEC
  0
EOF
