  0
SECTION
  2
HEADER
  9
$ACADVER
  1
AC1009
  9
$DWGCODEPAGE
  3
dos932
  9
$INSBASE
 10
0.0
 20
0.0
 30
0.0
  9
$EXTMIN
 10
-659.38566463229472
 20
-823.83726900890179
 30
-0.0015258207003583
  9
$EXTMAX
 10
1027.825939303526
 20
703.03345541822819
 30
0.0000000349246037
  9
$LIMMIN
 10
-2970.0
 20
-2100.0
  9
$LIMMAX
 10
2970.0
 20
2100.0
  9
$ORTHOMODE
 70
     1
  9
$REGENMODE
 70
     1
  9
$FILLMODE
 70
     1
  9
$QTEXTMODE
 70
     0
  9
$MIRRTEXT
 70
     0
  9
$LTSCALE
 40
20.0
  9
$ATTMODE
 70
     1
  9
$TEXTSIZE
 40
64.0
  9
$TRACEWID
 40
0.05
  9
$TEXTSTYLE
  7
STANDARD
  9
$CLAYER
  8
SIZE
  9
$CELTYPE
  6
CONTINUOUS
  9
$CECOLOR
 62
     7
  9
$DIMSCALE
 40
1.0
  9
$DIMASZ
 40
12.0
  9
$DIMEXO
 40
20.0
  9
$DIMDLI
 40
200.0
  9
$DIMRND
 40
0.0
  9
$DIMDLE
 40
0.0
  9
$DIMEXE
 40
20.0
  9
$DIMTP
 40
0.0
  9
$DIMTM
 40
0.0
  9
$DIMTXT
 40
64.0
  9
$DIMCEN
 40
0.09
  9
$DIMTSZ
 40
0.0
  9
$DIMTOL
 70
     0
  9
$DIMLIM
 70
     0
  9
$DIMTIH
 70
     0
  9
$DIMTOH
 70
     0
  9
$DIMSE1
 70
     0
  9
$DIMSE2
 70
     0
  9
$DIMTAD
 70
     1
  9
$DIMZIN
 70
     8
  9
$DIMBLK
  1

  9
$DIMASO
 70
     1
  9
$DIMSHO
 70
     0
  9
$DIMPOST
  1

  9
$DIMAPOST
  1

  9
$DIMALT
 70
     0
  9
$DIMALTD
 70
     2
  9
$DIMALTF
 40
25.399999999999999
  9
$DIMLFAC
 40
1.0
  9
$DIMTOFL
 70
     1
  9
$DIMTVP
 40
0.0
  9
$DIMTIX
 70
     1
  9
$DIMSOXD
 70
     0
  9
$DIMSAH
 70
     0
  9
$DIMBLK1
  1

  9
$DIMBLK2
  1

  9
$DIMSTYLE
  2
STANDARD
  9
$DIMCLRD
 70
     7
  9
$DIMCLRE
 70
     7
  9
$DIMCLRT
 70
     7
  9
$DIMTFAC
 40
1.0
  9
$DIMGAP
 40
25.0
  9
$LUNITS
 70
     2
  9
$LUPREC
 70
     4
  9
$SKETCHINC
 40
0.1
  9
$FILLETRAD
 40
3.0
  9
$AUNITS
 70
     1
  9
$AUPREC
 70
     3
  9
$MENU
  1
ACAD
  9
$ELEVATION
 40
0.0
  9
$PELEVATION
 40
0.0
  9
$THICKNESS
 40
0.0
  9
$LIMCHECK
 70
     0
  9
$CHAMFERA
 40
0.0
  9
$CHAMFERB
 40
0.0
  9
$SKPOLY
 70
     0
  9
$TDCREATE
 40
2453019.62301037
  9
$TDUPDATE
 40
2459025.48771985
  9
$TDINDWG
 40
1.713951169
  9
$TDUSRTIMER
 40
1.713951169
  9
$USRTIMER
 70
     1
  9
$ANGBASE
 50
0.0
  9
$ANGDIR
 70
     0
  9
$PDMODE
 70
     3
  9
$PDSIZE
 40
-2.0
  9
$PLINEWID
 40
0.0
  9
$SPLFRAME
 70
     0
  9
$SPLINETYPE
 70
     6
  9
$SPLINESEGS
 70
     8
  9
$SURFTAB1
 70
     6
  9
$SURFTAB2
 70
     6
  9
$SURFTYPE
 70
     6
  9
$SURFU
 70
     6
  9
$SURFV
 70
     6
  9
$UCSNAME
  2

  9
$UCSORG
 10
0.0
 20
0.0
 30
0.0
  9
$UCSXDIR
 10
1.0
 20
0.0
 30
0.0
  9
$UCSYDIR
 10
0.0
 20
1.0
 30
0.0
  9
$PUCSNAME
  2

  9
$PUCSORG
 10
0.0
 20
0.0
 30
0.0
  9
$PUCSXDIR
 10
1.0
 20
0.0
 30
0.0
  9
$PUCSYDIR
 10
0.0
 20
1.0
 30
0.0
  9
$USERI1
 70
     0
  9
$USERI2
 70
     0
  9
$USERI3
 70
     0
  9
$USERI4
 70
     0
  9
$USERI5
 70
     0
  9
$USERR1
 40
20.0
  9
$USERR2
 40
0.0
  9
$USERR3
 40
0.0
  9
$USERR4
 40
0.0
  9
$USERR5
 40
0.0
  9
$WORLDVIEW
 70
     1
  9
$SHADEDGE
 70
     3
  9
$SHADEDIF
 70
    70
  9
$TILEMODE
 70
     1
  9
$MAXACTVP
 70
    48
  9
$PINSBASE
 10
0.0
 20
0.0
 30
0.0
  9
$PLIMCHECK
 70
     0
  9
$PEXTMIN
 10
-100000000000000000000.0
 20
-100000000000000000000.0
 30
-100000000000000000000.0
  9
$PEXTMAX
 10
100000000000000000000.0
 20
100000000000000000000.0
 30
100000000000000000000.0
  9
$PLIMMIN
 10
0.0
 20
0.0
  9
$PLIMMAX
 10
12.0
 20
9.0
  9
$UNITMODE
 70
     0
  9
$VISRETAIN
 70
     0
  9
$PLINEGEN
 70
     0
  9
$PSLTSCALE
 70
     0
  9
$TREEDEPTH
 70
  3020
  9
$ATTDIA
 70
     0
  9
$ATTREQ
 70
     1
  9
$BLIPMODE
 70
     1
  9
$COORDS
 70
     1
  9
$DRAGMODE
 70
     2
  9
$OSMODE
 70
     0
  9
$HANDLING
 70
     0
  9
$HANDSEED
  5
11118
  0
ENDSEC
  0
SECTION
  2
TABLES
  0
TABLE
  2
LTYPE
 70
     2
  0
LTYPE
  2
CONTINUOUS
 70
     0
  3
実線
 72
    65
 73
     0
 40
0.0
  0
LTYPE
  2
DASHDOT
 70
     0
  3
____ _ ____ _ ____ _ ____ _ ____ _ ____ _ ____
 72
    65
 73
     4
 40
5.5
 49
4.0
 49
-0.6
 49
0.3
 49
-0.6
  0
ENDTAB
  0
TABLE
  2
LAYER
 70
    12
  0
LAYER
  2
0
 70
     0
 62
     7
  6
CONTINUOUS
  0
LAYER
  2
BASIS
 70
     0
 62
     6
  6
DASHDOT
  0
LAYER
  2
OUTLINE
 70
     0
 62
     3
  6
CONTINUOUS
  0
LAYER
  2
DETAIL
 70
     0
 62
     5
  6
CONTINUOUS
  0
LAYER
  2
SIZE
 70
     0
 62
    30
  6
CONTINUOUS
  0
LAYER
  2
ARRANGE
 70
     0
 62
     1
  6
CONTINUOUS
  0
LAYER
  2
DEFPOINTS
 70
     0
 62
     7
  6
CONTINUOUS
  0
LAYER
  2
ETC
 70
     0
 62
    61
  6
CONTINUOUS
  0
LAYER
  2
NOTE
 70
     0
 62
     4
  6
CONTINUOUS
  0
LAYER
  2
FIX
 70
    64
 62
    11
  6
CONTINUOUS
  0
LAYER
  2
SERVICESPACE
 70
    64
 62
     2
  6
DASHDOT
  0
LAYER
  2
SYMBOLLINE
 70
    64
 62
    15
  6
CONTINUOUS
  0
ENDTAB
  0
TABLE
  2
STYLE
 70
     1
  0
STYLE
  2
STANDARD
 70
     0
 40
64.0
 41
0.9
 50
0.0
 71
     0
 42
64.0
  3
SIMPLEX.shx
  4
BIGFONT.shx
  0
ENDTAB
  0
TABLE
  2
APPID
 70
    19
  0
APPID
  2
ACAD
 70
     0
  0
APPID
  2
AUTOCAD_POSTSCRIPT_FIGURE
 70
     0
  0
APPID
  2
ACAD_EXEMPT_FROM_CAD_STANDARDS
 70
     0
  0
APPID
  2
ACAD_PSEXT
 70
     0
  0
APPID
  2
ACAUTHENVIRON
 70
     0
  0
APPID
  2
GENIUS_GENOENT_13
 70
     0
  0
APPID
  2
GENIUS_GENCFG_13
 70
     0
  0
APPID
  2
GENIUS_GENCFG0_13
 70
     0
  0
APPID
  2
GENIUS_GENCFG1_13
 70
     0
  0
APPID
  2
GENIUS_GENCFG2_13
 70
     0
  0
APPID
  2
GENIUS_GENCFG3_13
 70
     0
  0
APPID
  2
GENIUS_GENCFG4_13
 70
     0
  0
APPID
  2
GENIUS_GEVCFG0_13
 70
     0
  0
APPID
  2
CONTENTBLOCKICON
 70
     0
  0
APPID
  2
CONTENTBLOCKDESCRIPTION
 70
     0
  0
APPID
  2
ACAD_NAV_VCDISPLAY
 70
     0
  0
APPID
  2
ACAD_MLEADERVER
 70
     0
  0
APPID
  2
ACDBDYNAMICBLOCKTRUENAME
 70
     0
  0
APPID
  2
ACDBDYNAMICBLOCKGUID
 70
     0
  0
ENDTAB
  0
TABLE
  2
DIMSTYLE
 70
     1
  0
DIMSTYLE
  2
STANDARD
 70
     0
  3

  4

  5
_ORIGIN
  6

  7

 40
1.0
 41
12.0
 42
20.0
 43
200.0
 44
20.0
 45
0.0
 46
0.0
 47
0.0
 48
0.0
140
64.0
141
0.09
142
0.0
143
25.399999999999999
144
1.0
145
0.0
146
1.0
147
25.0
 71
     0
 72
     0
 73
     0
 74
     0
 75
     0
 76
     0
 77
     1
 78
     8
170
     0
171
     2
172
     1
173
     0
174
     1
175
     0
176
     7
177
     7
178
     7
  0
ENDTAB
  0
TABLE
  2
VIEW
 70
     1
  0
VIEW
  2
ALL
 70
     0
 40
4282.6198079999986
 10
0.0
 20
41.309904000000003
 41
5940.0
 11
0.0
 21
0.0
 31
1.0
 12
0.0
 22
0.0
 32
0.0
 42
50.0
 43
0.0
 44
0.0
 50
0.0
 71
     0
  0
ENDTAB
  0
TABLE
  2
UCS
 70
     0
  0
ENDTAB
  0
TABLE
  2
VPORT
 70
     1
  0
VPORT
  2
*ACTIVE
 70
     0
 10
0.0
 20
0.0
 11
1.0
 21
1.0
 12
184.22013733561539
 22
-60.401906795336799
 13
0.0
 23
0.0
 14
1.0
 24
1.0
 15
0.0
 25
0.0
 16
0.0
 26
0.0
 36
1.0
 17
0.0
 27
0.0
 37
0.0
 40
1536.9936242575859
 41
1.747787610619469
 42
50.0
 43
0.0
 44
0.0
 50
0.0
 51
0.0
 71
     0
 72
  1000
 73
     1
 74
     3
 75
     0
 76
     0
 77
     0
 78
     0
  0
ENDTAB
  0
ENDSEC
  0
SECTION
  2
BLOCKS
  0
BLOCK
  8
0
  2
_ORIGIN
 70
     0
 10
0.0
 20
0.0
 30
0.0
  3
_ORIGIN
  1
_ORIGIN
  0
CIRCLE
  8
0
  6
CONTINUOUS
 62
     7
 10
0.0
 20
0.0
 30
0.0
 40
0.5
  0
LINE
  8
0
  6
CONTINUOUS
 62
     7
 10
0.0
 20
0.0
 30
0.0
 11
-1.0
 21
0.0
 31
0.0
  0
ENDBLK
  8
0
  0
ENDSEC
  0
SECTION
  2
ENTITIES
  0
TEXT
  8
ETC
  6
CONTINUOUS
 62
    61
 10
372.27503910399082
 20
639.00185518869534
 30
0.0
 40
64.0
  1
VD-10ZFVC6_6
 41
0.9
  0
TEXT
  8
ETC
  6
CONTINUOUS
 62
    61
 10
368.08904510399037
 20
521.04654517386416
 30
0.0
 40
64.0
  1
換気扇
 41
0.9
  0
TEXT
  8
ETC
  6
CONTINUOUS
 62
    61
 10
418.79044335254639
 20
412.89777228763887
 30
0.0
 40
40.0
  1
VD-10ZFVC6
 41
0.9
  0
TEXT
  8
ETC
  6
CONTINUOUS
 62
    61
 10
418.79044335254639
 20
346.89777228763887
 30
0.0
 40
40.0
  1
VD-10ZFLC13
 41
0.9
  0
TEXT
  8
NOTE
  6
CONTINUOUS
 62
     4
 10
-42.141495033672527
 20
-400.19855814017512
 30
0.0
 40
64.0
  1
EA
 41
0.9
  0
LINE
  8
BASIS
  6
DASHDOT
 62
     6
 10
199.69454799999949
 20
0.0
 30
0.0
 11
-213.75772200000031
 21
0.0
 31
0.0
  0
LINE
  8
BASIS
  6
DASHDOT
 62
     6
 10
0.0
 20
257.38846200000012
 30
0.0
 11
0.0
 21
-252.43922100000009
 31
0.0
  0
TEXT
  8
NOTE
  6
CONTINUOUS
 62
     4
 10
-42.141495033672527
 20
338.10383538687353
 30
0.0
 40
64.0
  1
RA
 41
0.9
  0
CIRCLE
  8
ARRANGE
  6
CONTINUOUS
 62
     1
 10
0.0
 20
0.0
 30
0.0
 40
40.0
  0
POINT
  8
ARRANGE
  6
CONTINUOUS
 62
     1
 10
0.0
 20
0.0
 30
0.0
 50
90.0
  0
LINE
  8
SIZE
  6
CONTINUOUS
 62
    30
 10
-48.81342348723399
 20
-233.5050313773379
 30
0.0
 11
-48.81342348723399
 21
-521.24753535230411
 31
0.0
  0
LINE
  8
SIZE
  6
CONTINUOUS
 62
    30
 10
48.813328487234124
 20
-233.5050313773379
 30
0.0
 11
48.813328487234124
 21
-521.24753535230411
 31
0.0
  0
LINE
  8
SIZE
  6
CONTINUOUS
 62
    30
 10
36.813328487234124
 20
-501.24753535230411
 30
0.0
 11
-36.81342348723399
 21
-501.24753535230411
 31
0.0
  0
LINE
  8
SIZE
  6
CONTINUOUS
 62
    30
 10
-48.81342348723399
 20
-501.24753535230411
 30
0.0
 11
-415.20029798308752
 21
-501.24753535230411
 31
0.0
  0
CIRCLE
  8
SIZE
  6
CONTINUOUS
 62
    30
 10
48.813328487234124
 20
-501.24753535230411
 30
0.0
 40
6.0
  0
LINE
  8
SIZE
  6
CONTINUOUS
 62
    30
 10
48.813328487234124
 20
-501.24753535230411
 30
0.0
 11
36.813328487234124
 21
-501.24753535230411
 31
0.0
  0
CIRCLE
  8
SIZE
  6
CONTINUOUS
 62
    30
 10
-48.81342348723399
 20
-501.24753535230411
 30
0.0
 40
6.0
  0
LINE
  8
SIZE
  6
CONTINUOUS
 62
    30
 10
-48.81342348723399
 20
-501.24753535230411
 30
0.0
 11
-36.81342348723399
 21
-501.24753535230411
 31
0.0
  0
TEXT
  8
SIZE
  6
CONTINUOUS
 62
    30
 10
-400.34886941165888
 20
-465.5808686856376
 30
0.0
 40
64.0
  1
φ98
 41
0.9
 72
     1
 11
-313.40029798308751
 21
-465.5808686856376
 31
0.0
  0
POINT
  8
DEFPOINTS
  6
CONTINUOUS
 62
    30
 10
-48.81342348723399
 20
-213.5050313773379
 30
0.0
  0
POINT
  8
DEFPOINTS
  6
CONTINUOUS
 62
    30
 10
48.813328487234124
 20
-213.5050313773379
 30
0.0
  0
POINT
  8
DEFPOINTS
  6
CONTINUOUS
 62
    30
 10
48.813328487234124
 20
-501.24753535230411
 30
0.0
  0
LINE
  8
SIZE
  6
CONTINUOUS
 62
    30
 10
-52.483545301231288
 20
-189.58810872628209
 30
0.0
 11
-52.483545301231288
 21
-668.29651028007879
 31
0.0
  0
LINE
  8
SIZE
  6
CONTINUOUS
 62
    30
 10
52.483450499999996
 20
-189.588109
 30
0.0
 11
52.483450499999996
 21
-668.29651028007879
 31
0.0
  0
LINE
  8
SIZE
  6
CONTINUOUS
 62
    30
 10
40.483450499999996
 20
-648.29651028007879
 30
0.0
 11
-40.483545301231288
 21
-648.29651028007879
 31
0.0
  0
LINE
  8
SIZE
  6
CONTINUOUS
 62
    30
 10
-52.483545301231288
 20
-648.29651028007879
 30
0.0
 11
-409.33745771533683
 21
-648.29651028007879
 31
0.0
  0
CIRCLE
  8
SIZE
  6
CONTINUOUS
 62
    30
 10
52.483450499999996
 20
-648.29651028007879
 30
0.0
 40
6.0
  0
LINE
  8
SIZE
  6
CONTINUOUS
 62
    30
 10
52.483450499999996
 20
-648.29651028007879
 30
0.0
 11
40.483450499999996
 21
-648.29651028007879
 31
0.0
  0
CIRCLE
  8
SIZE
  6
CONTINUOUS
 62
    30
 10
-52.483545301231288
 20
-648.29651028007879
 30
0.0
 40
6.0
  0
LINE
  8
SIZE
  6
CONTINUOUS
 62
    30
 10
-52.483545301231288
 20
-648.29651028007879
 30
0.0
 11
-40.483545301231288
 21
-648.29651028007879
 31
0.0
  0
TEXT
  8
SIZE
  6
CONTINUOUS
 62
    30
 10
-394.48602914390813
 20
-612.62984361341205
 30
0.0
 40
64.0
  1
φ105
 41
0.9
 72
     1
 11
-285.59460057247952
 21
-612.62984361341205
 31
0.0
  0
POINT
  8
DEFPOINTS
  6
CONTINUOUS
 62
    30
 10
-52.483545301231288
 20
-169.58810872628209
 30
0.0
  0
POINT
  8
DEFPOINTS
  6
CONTINUOUS
 62
    30
 10
52.483450499999996
 20
-169.588109
 30
0.0
  0
POINT
  8
DEFPOINTS
  6
CONTINUOUS
 62
    30
 10
52.483450499999996
 20
-648.29651028007879
 30
0.0
  0
LINE
  8
SIZE
  6
CONTINUOUS
 62
    30
 10
-69.336252565992481
 20
-173.70364500000011
 30
0.0
 11
-460.89945382610631
 21
-173.70364499999991
 31
0.0
  0
LINE
  8
SIZE
  6
CONTINUOUS
 62
    30
 10
-68.314117499999952
 20
-214.0
 30
0.0
 11
-460.89945382610631
 21
-213.99999999999989
 31
0.0
  0
LINE
  8
SIZE
  6
CONTINUOUS
 62
    30
 10
-440.89945382610631
 20
-161.70364499999991
 30
0.0
 11
-440.89945382610631
 21
-149.70364499999991
 31
0.0
  0
LINE
  8
SIZE
  6
CONTINUOUS
 62
    30
 10
-440.89945382610631
 20
-225.99999999999989
 30
0.0
 11
-440.89945382610631
 21
-424.08970334094693
 31
0.0
  0
LINE
  8
SIZE
  6
CONTINUOUS
 62
    30
 10
-440.89945382610631
 20
-173.70364499999991
 30
0.0
 11
-440.89945382610631
 21
-213.99999999999989
 31
0.0
  0
CIRCLE
  8
SIZE
  6
CONTINUOUS
 62
    30
 10
-440.89945382610631
 20
-173.70364499999991
 30
0.0
 40
6.0
  0
LINE
  8
SIZE
  6
CONTINUOUS
 62
    30
 10
-440.89945382610631
 20
-173.70364499999991
 30
0.0
 11
-440.89945382610631
 21
-161.70364499999991
 31
0.0
  0
CIRCLE
  8
SIZE
  6
CONTINUOUS
 62
    30
 10
-440.89945382610631
 20
-213.99999999999989
 30
0.0
 40
6.0
  0
LINE
  8
SIZE
  6
CONTINUOUS
 62
    30
 10
-440.89945382610631
 20
-213.99999999999989
 30
0.0
 11
-440.89945382610631
 21
-225.99999999999989
 31
0.0
  0
TEXT
  8
SIZE
  6
CONTINUOUS
 62
    30
 10
-465.89945382610631
 20
-399.08970334094721
 30
0.0
 40
64.0
  1
40
 50
90.0
 41
0.9
 72
     1
 11
-465.89945382610631
 21
-352.46113191237572
 31
0.0
  0
POINT
  8
DEFPOINTS
  6
CONTINUOUS
 62
    30
 10
-49.336252565992481
 20
-173.70364500000011
 30
0.0
  0
POINT
  8
DEFPOINTS
  6
CONTINUOUS
 62
    30
 10
-48.314117499999952
 20
-214.0
 30
0.0
  0
POINT
  8
DEFPOINTS
  6
CONTINUOUS
 62
    30
 10
-440.89945382610631
 20
-213.99999999999989
 30
0.0
  0
LINE
  8
SIZE
  6
CONTINUOUS
 62
    30
 10
-68.314117499999952
 20
-214.0
 30
0.0
 11
-590.26998433606013
 21
-213.9999999999998
 31
0.0
  0
LINE
  8
SIZE
  6
CONTINUOUS
 62
    30
 10
-72.928538499999945
 20
-144.09444499999981
 30
0.0
 11
-590.26998433606013
 21
-144.09444499999981
 31
0.0
  0
LINE
  8
SIZE
  6
CONTINUOUS
 62
    30
 10
-570.26998433606013
 20
-132.09444499999969
 30
0.0
 11
-570.26998433606013
 21
-120.09444499999979
 31
0.0
  0
LINE
  8
SIZE
  6
CONTINUOUS
 62
    30
 10
-570.26998433606013
 20
-225.99999999999989
 30
0.0
 11
-570.26998433606025
 21
-406.75714285714281
 31
0.0
  0
LINE
  8
SIZE
  6
CONTINUOUS
 62
    30
 10
-570.26998433606013
 20
-144.09444499999981
 30
0.0
 11
-570.26998433606013
 21
-213.99999999999989
 31
0.0
  0
CIRCLE
  8
SIZE
  6
CONTINUOUS
 62
    30
 10
-570.26998433606013
 20
-144.09444499999981
 30
0.0
 40
6.0
  0
LINE
  8
SIZE
  6
CONTINUOUS
 62
    30
 10
-570.26998433606013
 20
-144.09444499999981
 30
0.0
 11
-570.26998433606013
 21
-132.09444499999969
 31
0.0
  0
CIRCLE
  8
SIZE
  6
CONTINUOUS
 62
    30
 10
-570.26998433606013
 20
-213.99999999999989
 30
0.0
 40
6.0
  0
LINE
  8
SIZE
  6
CONTINUOUS
 62
    30
 10
-570.26998433606013
 20
-213.99999999999989
 30
0.0
 11
-570.26998433606013
 21
-225.99999999999989
 31
0.0
  0
TEXT
  8
SIZE
  6
CONTINUOUS
 62
    30
 10
-595.26998433606013
 20
-381.75714285714281
 30
0.0
 40
64.0
  1
70
 50
90.0
 41
0.9
 72
     1
 11
-595.26998433606013
 21
-335.12857142857138
 31
0.0
  0
POINT
  8
DEFPOINTS
  6
CONTINUOUS
 62
    30
 10
-48.314117499999952
 20
-214.0
 30
0.0
  0
POINT
  8
DEFPOINTS
  6
CONTINUOUS
 62
    30
 10
-52.928538499999952
 20
-144.09444500000001
 30
0.0
  0
POINT
  8
DEFPOINTS
  6
CONTINUOUS
 62
    30
 10
-570.26998433606013
 20
-144.09444499999981
 30
0.0
  0
LINE
  8
SIZE
  6
CONTINUOUS
 62
    30
 10
-142.9999994999998
 20
-162.0
 30
0.0
 11
-142.99999950000009
 21
-823.53837666049367
 31
0.0
  0
LINE
  8
SIZE
  6
CONTINUOUS
 62
    30
 10
143.0000005000002
 20
-162.0
 30
0.0
 11
143.00000049999991
 21
-823.53837666049367
 31
0.0
  0
LINE
  8
SIZE
  6
CONTINUOUS
 62
    30
 10
-130.99999950000009
 20
-803.53837666049367
 30
0.0
 11
131.00000049999991
 21
-803.53837666049367
 31
0.0
  0
CIRCLE
  8
SIZE
  6
CONTINUOUS
 62
    30
 10
-142.99999950000009
 20
-803.53837666049367
 30
0.0
 40
6.0
  0
LINE
  8
SIZE
  6
CONTINUOUS
 62
    30
 10
-142.99999950000009
 20
-803.53837666049367
 30
0.0
 11
-130.99999950000009
 21
-803.53837666049367
 31
0.0
  0
CIRCLE
  8
SIZE
  6
CONTINUOUS
 62
    30
 10
143.00000049999991
 20
-803.53837666049367
 30
0.0
 40
6.0
  0
LINE
  8
SIZE
  6
CONTINUOUS
 62
    30
 10
143.00000049999991
 20
-803.53837666049367
 30
0.0
 11
131.00000049999991
 21
-803.53837666049367
 31
0.0
  0
TEXT
  8
SIZE
  6
CONTINUOUS
 62
    30
 10
-109.1657142857143
 20
-778.53837666049367
 30
0.0
 40
64.0
  1
□286
 41
0.9
 72
     1
 11
0.0
 21
-778.53837666049367
 31
0.0
  0
POINT
  8
DEFPOINTS
  6
CONTINUOUS
 62
    30
 10
-142.9999994999998
 20
-142.0
 30
0.0
  0
POINT
  8
DEFPOINTS
  6
CONTINUOUS
 62
    30
 10
143.0000005000002
 20
-142.0
 30
0.0
  0
POINT
  8
DEFPOINTS
  6
CONTINUOUS
 62
    30
 10
143.00000049999991
 20
-803.53837666049367
 30
0.0
  0
LINE
  8
SIZE
  6
CONTINUOUS
 62
    30
 10
-68.314069500000073
 20
181.8302039999999
 30
0.0
 11
-453.18090326483798
 21
181.83020400000001
 31
0.0
  0
LINE
  8
SIZE
  6
CONTINUOUS
 62
    30
 10
-69.02926849999983
 20
156.59639799999991
 30
0.0
 11
-453.18090326483798
 21
156.59639800000011
 31
0.0
  0
LINE
  8
SIZE
  6
CONTINUOUS
 62
    30
 10
-433.18090326483798
 20
144.59639799999999
 30
0.0
 11
-433.18090326483798
 21
132.59639799999999
 31
0.0
  0
LINE
  8
SIZE
  6
CONTINUOUS
 62
    30
 10
-433.18090326483798
 20
193.83020400000001
 30
0.0
 11
-433.18090326483798
 21
444.44741936226683
 31
0.0
  0
LINE
  8
SIZE
  6
CONTINUOUS
 62
    30
 10
-433.18090326483798
 20
156.59639799999999
 30
0.0
 11
-433.18090326483798
 21
181.83020400000001
 31
0.0
  0
CIRCLE
  8
SIZE
  6
CONTINUOUS
 62
    30
 10
-433.18090326483798
 20
156.59639799999999
 30
0.0
 40
6.0
  0
LINE
  8
SIZE
  6
CONTINUOUS
 62
    30
 10
-433.18090326483798
 20
156.59639799999999
 30
0.0
 11
-433.18090326483798
 21
144.59639799999999
 31
0.0
  0
CIRCLE
  8
SIZE
  6
CONTINUOUS
 62
    30
 10
-433.18090326483798
 20
181.83020400000001
 30
0.0
 40
6.0
  0
LINE
  8
SIZE
  6
CONTINUOUS
 62
    30
 10
-433.18090326483798
 20
181.83020400000001
 30
0.0
 11
-433.18090326483798
 21
193.83020400000001
 31
0.0
  0
TEXT
  8
SIZE
  6
CONTINUOUS
 62
    30
 10
-458.18090326483798
 20
326.19027650512379
 30
0.0
 40
64.0
  1
25
 50
90.0
 41
0.9
 72
     1
 11
-458.18090326483798
 21
372.81884793369522
 31
0.0
  0
POINT
  8
DEFPOINTS
  6
CONTINUOUS
 62
    30
 10
-48.314069500000073
 20
181.8302039999999
 30
0.0
  0
POINT
  8
DEFPOINTS
  6
CONTINUOUS
 62
    30
 10
-49.02926849999983
 20
156.59639799999991
 30
0.0
  0
POINT
  8
DEFPOINTS
  6
CONTINUOUS
 62
    30
 10
-433.18090326483798
 20
156.59639799999999
 30
0.0
  0
LINE
  8
SIZE
  6
CONTINUOUS
 62
    30
 10
-48.813375487234111
 20
201.33523637733771
 30
0.0
 11
-48.813375487234111
 21
466.34554029576822
 31
0.0
  0
LINE
  8
SIZE
  6
CONTINUOUS
 62
    30
 10
48.813376500000118
 20
201.3352359999999
 30
0.0
 11
48.813376500000118
 21
466.34554029576822
 31
0.0
  0
LINE
  8
SIZE
  6
CONTINUOUS
 62
    30
 10
36.813376500000118
 20
446.34554029576822
 30
0.0
 11
-36.813375487234111
 21
446.34554029576822
 31
0.0
  0
LINE
  8
SIZE
  6
CONTINUOUS
 62
    30
 10
-48.813375487234111
 20
446.34554029576822
 30
0.0
 11
-340.22196829780319
 21
446.34554029576822
 31
0.0
  0
CIRCLE
  8
SIZE
  6
CONTINUOUS
 62
    30
 10
48.813376500000118
 20
446.34554029576822
 30
0.0
 40
6.0
  0
LINE
  8
SIZE
  6
CONTINUOUS
 62
    30
 10
48.813376500000118
 20
446.34554029576822
 30
0.0
 11
36.813376500000118
 21
446.34554029576822
 31
0.0
  0
CIRCLE
  8
SIZE
  6
CONTINUOUS
 62
    30
 10
-48.813375487234111
 20
446.34554029576822
 30
0.0
 40
6.0
  0
LINE
  8
SIZE
  6
CONTINUOUS
 62
    30
 10
-48.813375487234111
 20
446.34554029576822
 30
0.0
 11
-36.813375487234111
 21
446.34554029576822
 31
0.0
  0
TEXT
  8
SIZE
  6
CONTINUOUS
 62
    30
 10
-325.37053972637472
 20
482.0122069624349
 30
0.0
 40
64.0
  1
φ98
 41
0.9
 72
     1
 11
-238.4219682978032
 21
482.0122069624349
 31
0.0
  0
POINT
  8
DEFPOINTS
  6
CONTINUOUS
 62
    30
 10
-48.813375487234111
 20
181.33523637733771
 30
0.0
  0
POINT
  8
DEFPOINTS
  6
CONTINUOUS
 62
    30
 10
48.813376500000118
 20
181.3352359999999
 30
0.0
  0
POINT
  8
DEFPOINTS
  6
CONTINUOUS
 62
    30
 10
48.813376500000118
 20
446.34554029576822
 30
0.0
  0
LINE
  8
SIZE
  6
CONTINUOUS
 62
    30
 10
-52.441104500000051
 20
171.68599399999991
 30
0.0
 11
-52.441104500000051
 21
608.51374891258297
 31
0.0
  0
LINE
  8
SIZE
  6
CONTINUOUS
 62
    30
 10
52.441106301231457
 20
171.68599372628199
 30
0.0
 11
52.441106301231457
 21
608.51374891258297
 31
0.0
  0
LINE
  8
SIZE
  6
CONTINUOUS
 62
    30
 10
40.441106301231457
 20
588.51374891258297
 30
0.0
 11
-40.441104500000051
 21
588.51374891258297
 31
0.0
  0
LINE
  8
SIZE
  6
CONTINUOUS
 62
    30
 10
-52.441104500000051
 20
588.51374891258297
 30
0.0
 11
-365.55076165118169
 21
588.51374891258297
 31
0.0
  0
CIRCLE
  8
SIZE
  6
CONTINUOUS
 62
    30
 10
52.441106301231457
 20
588.51374891258297
 30
0.0
 40
6.0
  0
LINE
  8
SIZE
  6
CONTINUOUS
 62
    30
 10
52.441106301231457
 20
588.51374891258297
 30
0.0
 11
40.441106301231457
 21
588.51374891258297
 31
0.0
  0
CIRCLE
  8
SIZE
  6
CONTINUOUS
 62
    30
 10
-52.441104500000051
 20
588.51374891258297
 30
0.0
 40
6.0
  0
LINE
  8
SIZE
  6
CONTINUOUS
 62
    30
 10
-52.441104500000051
 20
588.51374891258297
 30
0.0
 11
-40.441104500000051
 21
588.51374891258297
 31
0.0
  0
TEXT
  8
SIZE
  6
CONTINUOUS
 62
    30
 10
-350.69933307975322
 20
624.18041557924971
 30
0.0
 40
64.0
  1
φ105
 41
0.9
 72
     1
 11
-241.80790450832461
 21
624.18041557924971
 31
0.0
  0
POINT
  8
DEFPOINTS
  6
CONTINUOUS
 62
    30
 10
-52.441104500000051
 20
151.68599399999991
 30
0.0
  0
POINT
  8
DEFPOINTS
  6
CONTINUOUS
 62
    30
 10
52.441106301231457
 20
151.68599372628199
 30
0.0
  0
POINT
  8
DEFPOINTS
  6
CONTINUOUS
 62
    30
 10
52.441106301231457
 20
588.51374891258297
 30
0.0
  0
LINE
  8
DETAIL
  6
CONTINUOUS
 62
     5
 10
-49.02926849999983
 20
156.59639799999991
 30
0.0
 11
-48.813375499999779
 21
181.33523600000009
 31
0.0
  0
LINE
  8
OUTLINE
  6
CONTINUOUS
 62
     3
 10
-49.02926849999983
 20
156.59639799999991
 30
0.0
 11
-48.813375499999779
 21
181.3352359999999
 31
0.0
  0
LINE
  8
DETAIL
  6
CONTINUOUS
 62
     5
 10
-52.592719500000037
 20
143.0
 30
0.0
 11
-52.441104500000051
 21
151.68599399999991
 31
0.0
  0
LINE
  8
OUTLINE
  6
CONTINUOUS
 62
     3
 10
-52.592719500000037
 20
143.0
 30
0.0
 11
-52.441104500000051
 21
151.68599399999991
 31
0.0
  0
LINE
  8
DETAIL
  6
CONTINUOUS
 62
     5
 10
52.592720499999928
 20
143.0
 30
0.0
 11
52.441105499999942
 21
151.68599399999991
 31
0.0
  0
LINE
  8
OUTLINE
  6
CONTINUOUS
 62
     3
 10
52.592720499999928
 20
143.0
 30
0.0
 11
52.441105499999942
 21
151.68599399999991
 31
0.0
  0
LINE
  8
DETAIL
  6
CONTINUOUS
 62
     5
 10
49.029269499999941
 20
156.59639799999991
 30
0.0
 11
48.813376500000118
 21
181.33523600000009
 31
0.0
  0
LINE
  8
OUTLINE
  6
CONTINUOUS
 62
     3
 10
49.029269499999941
 20
156.59639799999991
 30
0.0
 11
48.813376500000118
 21
181.3352359999999
 31
0.0
  0
ARC
  8
DETAIL
  6
CONTINUOUS
 62
     5
 10
-50.444107499999859
 20
151.65113600000001
 30
0.0
 40
1.9973019999999999
 50
141.185255000002
 51
178.99999999999821
  0
ARC
  8
OUTLINE
  6
CONTINUOUS
 62
     3
 10
-50.444107499999859
 20
151.65113600000001
 30
0.0
 40
1.9973019999999999
 50
141.185255000002
 51
178.99999999999821
  0
ARC
  8
DETAIL
  6
CONTINUOUS
 62
     5
 10
-48.314069500000073
 20
181.3308789999999
 30
0.0
 40
0.499325
 50
90.0
 51
179.4999999999954
  0
ARC
  8
OUTLINE
  6
CONTINUOUS
 62
     3
 10
-48.314069500000073
 20
181.33087900000001
 30
0.0
 40
0.499325
 50
90.0
 51
179.4999999999954
  0
ARC
  8
DETAIL
  6
CONTINUOUS
 62
     5
 10
50.444108500000198
 20
151.65113600000001
 30
0.0
 40
1.9973019999999999
 50
1.0000000000017759
 51
38.814744999997991
  0
ARC
  8
OUTLINE
  6
CONTINUOUS
 62
     3
 10
50.444108500000198
 20
151.65113600000001
 30
0.0
 40
1.9973019999999999
 50
1.0000000000017759
 51
38.814744999997991
  0
ARC
  8
DETAIL
  6
CONTINUOUS
 62
     5
 10
48.314070499999957
 20
181.3308789999999
 30
0.0
 40
0.499325
 50
0.5000000000045738
 51
90.0
  0
ARC
  8
OUTLINE
  6
CONTINUOUS
 62
     3
 10
48.314070499999957
 20
181.33087900000001
 30
0.0
 40
0.499325
 50
0.5000000000045738
 51
90.0
  0
LINE
  8
DETAIL
  6
CONTINUOUS
 62
     5
 10
-48.314069500000073
 20
181.8302039999999
 30
0.0
 11
48.314070499999957
 21
181.8302039999999
 31
0.0
  0
LINE
  8
OUTLINE
  6
CONTINUOUS
 62
     3
 10
-48.314069500000073
 20
181.83020400000001
 30
0.0
 11
48.314070499999957
 21
181.83020400000001
 31
0.0
  0
LINE
  8
DETAIL
  6
CONTINUOUS
 62
     5
 10
-49.02926849999983
 20
156.59639799999991
 30
0.0
 11
49.029269499999941
 21
156.59639799999991
 31
0.0
  0
LINE
  8
DETAIL
  6
CONTINUOUS
 62
     5
 10
52.000359500000172
 20
152.90305399999991
 30
0.0
 11
49.029269499999941
 21
156.59639799999991
 31
0.0
  0
LINE
  8
OUTLINE
  6
CONTINUOUS
 62
     3
 10
52.000359500000172
 20
152.90305399999991
 30
0.0
 11
49.029269499999941
 21
156.59639799999991
 31
0.0
  0
LINE
  8
DETAIL
  6
CONTINUOUS
 62
     5
 10
-52.000358499999827
 20
152.90305399999991
 30
0.0
 11
-49.02926849999983
 21
156.59639799999991
 31
0.0
  0
LINE
  8
OUTLINE
  6
CONTINUOUS
 62
     3
 10
-52.000358499999827
 20
152.90305399999991
 30
0.0
 11
-49.02926849999983
 21
156.59639799999991
 31
0.0
  0
LINE
  8
DETAIL
  6
CONTINUOUS
 62
     5
 10
-52.928538499999952
 20
-144.09444500000009
 30
0.0
 11
-53.28796449999993
 21
-143.0
 31
0.0
  0
LINE
  8
OUTLINE
  6
CONTINUOUS
 62
     3
 10
-52.928538499999952
 20
-144.09444500000001
 30
0.0
 11
-53.28796449999993
 21
-143.0
 31
0.0
  0
LINE
  8
DETAIL
  6
CONTINUOUS
 62
     5
 10
49.336158500000117
 20
-173.70364500000011
 30
0.0
 11
-49.336253499999998
 21
-173.70364500000011
 31
0.0
  0
LINE
  8
DETAIL
  6
CONTINUOUS
 62
     5
 10
-52.297834499999787
 20
-170.39494800000011
 30
0.0
 11
52.297739499999921
 21
-170.39494800000011
 31
0.0
  0
LINE
  8
DETAIL
  6
CONTINUOUS
 62
     5
 10
-52.928538499999952
 20
-144.09444500000009
 30
0.0
 11
-52.483544499999986
 21
-169.588109
 31
0.0
  0
LINE
  8
OUTLINE
  6
CONTINUOUS
 62
     3
 10
-52.928538499999952
 20
-144.09444500000001
 30
0.0
 11
-52.483544499999986
 21
-169.588109
 31
0.0
  0
LINE
  8
DETAIL
  6
CONTINUOUS
 62
     5
 10
-49.153634499999839
 20
-174.52073200000009
 30
0.0
 11
-48.813423499999892
 21
-213.505032
 31
0.0
  0
LINE
  8
OUTLINE
  6
CONTINUOUS
 62
     3
 10
-49.153634499999839
 20
-174.52073200000021
 30
0.0
 11
-48.813423499999892
 21
-213.505032
 31
0.0
  0
LINE
  8
DETAIL
  6
CONTINUOUS
 62
     5
 10
49.153539499999972
 20
-174.52073200000009
 30
0.0
 11
48.813328500000011
 21
-213.505032
 31
0.0
  0
LINE
  8
OUTLINE
  6
CONTINUOUS
 62
     3
 10
49.153539499999972
 20
-174.52073200000021
 30
0.0
 11
48.813328500000011
 21
-213.505032
 31
0.0
  0
LINE
  8
DETAIL
  6
CONTINUOUS
 62
     5
 10
52.928443500000071
 20
-144.09444500000009
 30
0.0
 11
52.483450499999996
 21
-169.588109
 31
0.0
  0
LINE
  8
OUTLINE
  6
CONTINUOUS
 62
     3
 10
52.928443500000071
 20
-144.09444500000001
 30
0.0
 11
52.483450499999996
 21
-169.588109
 31
0.0
  0
LINE
  8
DETAIL
  6
CONTINUOUS
 62
     5
 10
-52.928538499999952
 20
-144.09444500000009
 30
0.0
 11
52.881666500000051
 21
-144.09432000000001
 31
0.0
  0
LINE
  8
DETAIL
  6
CONTINUOUS
 62
     5
 10
52.881666500000051
 20
-144.09432000000001
 30
0.0
 11
52.928443500000071
 21
-144.09444500000009
 31
0.0
  0
LINE
  8
OUTLINE
  6
CONTINUOUS
 62
     3
 10
52.881666500000051
 20
-144.0943199999999
 30
0.0
 11
52.928443500000071
 21
-144.09444500000001
 31
0.0
  0
LINE
  8
DETAIL
  6
CONTINUOUS
 62
     5
 10
-49.738554500000077
 20
-173.12585600000011
 30
0.0
 11
-51.898853499999973
 21
-170.9655570000001
 31
0.0
  0
LINE
  8
OUTLINE
  6
CONTINUOUS
 62
     3
 10
-49.738554500000077
 20
-173.12585600000011
 30
0.0
 11
-51.898853499999973
 21
-170.96555700000019
 31
0.0
  0
LINE
  8
DETAIL
  6
CONTINUOUS
 62
     5
 10
49.738459499999983
 20
-173.12585600000011
 30
0.0
 11
51.898758500000099
 21
-170.9655570000001
 31
0.0
  0
LINE
  8
OUTLINE
  6
CONTINUOUS
 62
     3
 10
49.738459499999983
 20
-173.12585600000011
 30
0.0
 11
51.898758500000099
 21
-170.96555700000019
 31
0.0
  0
LINE
  8
DETAIL
  6
CONTINUOUS
 62
     5
 10
48.314022500000078
 20
-214.0
 30
0.0
 11
-48.314117499999952
 21
-214.0
 31
0.0
  0
LINE
  8
OUTLINE
  6
CONTINUOUS
 62
     3
 10
48.314022500000078
 20
-214.0
 30
0.0
 11
-48.314117499999952
 21
-214.0
 31
0.0
  0
ARC
  8
DETAIL
  6
CONTINUOUS
 62
     5
 10
-51.15085949999991
 20
-174.53816100000009
 30
0.0
 40
1.9973019999999999
 50
0.5000000000045738
 51
44.999995000009228
  0
ARC
  8
OUTLINE
  6
CONTINUOUS
 62
     3
 10
-51.15085949999991
 20
-174.5381610000002
 30
0.0
 40
1.9973019999999999
 50
0.5000000000045738
 51
44.999995000009228
  0
ARC
  8
DETAIL
  6
CONTINUOUS
 62
     5
 10
-50.486547500000029
 20
-169.55325099999999
 30
0.0
 40
1.9973019999999999
 50
181.00000000000179
 51
224.99999500000919
  0
ARC
  8
OUTLINE
  6
CONTINUOUS
 62
     3
 10
-50.486547500000029
 20
-169.55325099999999
 30
0.0
 40
1.9973019999999999
 50
181.00000000000179
 51
224.99999500000919
  0
ARC
  8
DETAIL
  6
CONTINUOUS
 62
     5
 10
-48.314117499999952
 20
-213.50067400000009
 30
0.0
 40
0.499325
 50
180.50000000000449
 51
270.0
  0
ARC
  8
OUTLINE
  6
CONTINUOUS
 62
     3
 10
-48.314117499999952
 20
-213.50067400000009
 30
0.0
 40
0.499325
 50
180.50000000000449
 51
270.0
  0
ARC
  8
DETAIL
  6
CONTINUOUS
 62
     5
 10
51.150765500000148
 20
-174.53816100000009
 30
0.0
 40
1.9973019999999999
 50
135.00000499999081
 51
179.4999999999954
  0
ARC
  8
OUTLINE
  6
CONTINUOUS
 62
     3
 10
51.150765500000148
 20
-174.5381610000002
 30
0.0
 40
1.9973019999999999
 50
135.00000499999081
 51
179.4999999999954
  0
ARC
  8
DETAIL
  6
CONTINUOUS
 62
     5
 10
50.486452500000148
 20
-169.55325099999999
 30
0.0
 40
1.9973019999999999
 50
315.00000499999078
 51
358.99999999999818
  0
ARC
  8
OUTLINE
  6
CONTINUOUS
 62
     3
 10
50.486452500000148
 20
-169.55325099999999
 30
0.0
 40
1.9973019999999999
 50
315.00000499999078
 51
358.99999999999818
  0
ARC
  8
DETAIL
  6
CONTINUOUS
 62
     5
 10
48.314022500000078
 20
-213.50067400000009
 30
0.0
 40
0.499325
 50
270.0
 51
359.49999999999551
  0
ARC
  8
OUTLINE
  6
CONTINUOUS
 62
     3
 10
48.314022500000078
 20
-213.50067400000009
 30
0.0
 40
0.499325
 50
270.0
 51
359.49999999999551
  0
LINE
  8
DETAIL
  6
CONTINUOUS
 62
     5
 10
52.928443500000071
 20
-144.09444500000009
 30
0.0
 11
53.287869500000063
 21
-143.0
 31
0.0
  0
LINE
  8
OUTLINE
  6
CONTINUOUS
 62
     3
 10
52.928443500000071
 20
-144.09444500000001
 30
0.0
 11
53.287869500000063
 21
-143.0
 31
0.0
  0
LINE
  8
DETAIL
  6
CONTINUOUS
 62
     5
 10
-32.399999499999808
 20
75.599999999999909
 30
0.0
 11
-39.599999499999853
 21
75.599999999999909
 31
0.0
  0
LINE
  8
DETAIL
  6
CONTINUOUS
 62
     5
 10
-32.399999499999808
 20
-75.600000000000023
 30
0.0
 11
-39.599999499999853
 21
-75.600000000000023
 31
0.0
  0
LINE
  8
DETAIL
  6
CONTINUOUS
 62
     5
 10
-23.399999499999812
 20
75.599999999999909
 30
0.0
 11
-30.59999949999985
 21
75.599999999999909
 31
0.0
  0
LINE
  8
DETAIL
  6
CONTINUOUS
 62
     5
 10
-23.399999499999812
 20
-75.600000000000023
 30
0.0
 11
-30.59999949999985
 21
-75.600000000000023
 31
0.0
  0
LINE
  8
DETAIL
  6
CONTINUOUS
 62
     5
 10
-14.39999949999981
 20
75.599999999999909
 30
0.0
 11
-21.59999949999985
 21
75.599999999999909
 31
0.0
  0
LINE
  8
DETAIL
  6
CONTINUOUS
 62
     5
 10
-14.39999949999981
 20
-75.600000000000023
 30
0.0
 11
-21.59999949999985
 21
-75.600000000000023
 31
0.0
  0
LINE
  8
DETAIL
  6
CONTINUOUS
 62
     5
 10
-32.399999499999808
 20
84.599999999999909
 30
0.0
 11
-39.599999499999853
 21
84.599999999999909
 31
0.0
  0
LINE
  8
DETAIL
  6
CONTINUOUS
 62
     5
 10
-32.399999499999808
 20
-84.600000000000023
 30
0.0
 11
-39.599999499999853
 21
-84.600000000000023
 31
0.0
  0
LINE
  8
DETAIL
  6
CONTINUOUS
 62
     5
 10
-32.399999499999808
 20
77.399999999999864
 30
0.0
 11
-32.399999499999808
 21
84.599999999999909
 31
0.0
  0
LINE
  8
DETAIL
  6
CONTINUOUS
 62
     5
 10
-32.399999499999808
 20
-77.400000000000091
 30
0.0
 11
-32.399999499999808
 21
-84.600000000000023
 31
0.0
  0
LINE
  8
DETAIL
  6
CONTINUOUS
 62
     5
 10
-32.399999499999808
 20
77.399999999999864
 30
0.0
 11
-39.599999499999853
 21
77.399999999999864
 31
0.0
  0
LINE
  8
DETAIL
  6
CONTINUOUS
 62
     5
 10
-32.399999499999808
 20
-77.400000000000091
 30
0.0
 11
-39.599999499999853
 21
-77.400000000000091
 31
0.0
  0
LINE
  8
DETAIL
  6
CONTINUOUS
 62
     5
 10
-23.399999499999812
 20
84.599999999999909
 30
0.0
 11
-30.59999949999985
 21
84.599999999999909
 31
0.0
  0
LINE
  8
DETAIL
  6
CONTINUOUS
 62
     5
 10
-23.399999499999812
 20
-84.600000000000023
 30
0.0
 11
-30.59999949999985
 21
-84.600000000000023
 31
0.0
  0
LINE
  8
DETAIL
  6
CONTINUOUS
 62
     5
 10
-30.59999949999985
 20
77.399999999999864
 30
0.0
 11
-30.59999949999985
 21
84.599999999999909
 31
0.0
  0
LINE
  8
DETAIL
  6
CONTINUOUS
 62
     5
 10
-30.59999949999985
 20
-77.400000000000091
 30
0.0
 11
-30.59999949999985
 21
-84.600000000000023
 31
0.0
  0
LINE
  8
DETAIL
  6
CONTINUOUS
 62
     5
 10
-23.399999499999812
 20
77.399999999999864
 30
0.0
 11
-23.399999499999812
 21
84.599999999999909
 31
0.0
  0
LINE
  8
DETAIL
  6
CONTINUOUS
 62
     5
 10
-23.399999499999812
 20
-77.400000000000091
 30
0.0
 11
-23.399999499999812
 21
-84.600000000000023
 31
0.0
  0
LINE
  8
DETAIL
  6
CONTINUOUS
 62
     5
 10
-23.399999499999812
 20
77.399999999999864
 30
0.0
 11
-30.59999949999985
 21
77.399999999999864
 31
0.0
  0
LINE
  8
DETAIL
  6
CONTINUOUS
 62
     5
 10
-23.399999499999812
 20
-77.400000000000091
 30
0.0
 11
-30.59999949999985
 21
-77.400000000000091
 31
0.0
  0
LINE
  8
DETAIL
  6
CONTINUOUS
 62
     5
 10
-14.39999949999981
 20
84.599999999999909
 30
0.0
 11
-21.59999949999985
 21
84.599999999999909
 31
0.0
  0
LINE
  8
DETAIL
  6
CONTINUOUS
 62
     5
 10
-14.39999949999981
 20
-84.600000000000023
 30
0.0
 11
-21.59999949999985
 21
-84.600000000000023
 31
0.0
  0
LINE
  8
DETAIL
  6
CONTINUOUS
 62
     5
 10
-21.59999949999985
 20
77.399999999999864
 30
0.0
 11
-21.59999949999985
 21
84.599999999999909
 31
0.0
  0
LINE
  8
DETAIL
  6
CONTINUOUS
 62
     5
 10
-21.59999949999985
 20
-77.400000000000091
 30
0.0
 11
-21.59999949999985
 21
-84.600000000000023
 31
0.0
  0
LINE
  8
DETAIL
  6
CONTINUOUS
 62
     5
 10
-14.39999949999981
 20
77.399999999999864
 30
0.0
 11
-14.39999949999981
 21
84.599999999999909
 31
0.0
  0
LINE
  8
DETAIL
  6
CONTINUOUS
 62
     5
 10
-14.39999949999981
 20
-77.400000000000091
 30
0.0
 11
-14.39999949999981
 21
-84.600000000000023
 31
0.0
  0
LINE
  8
DETAIL
  6
CONTINUOUS
 62
     5
 10
-14.39999949999981
 20
77.399999999999864
 30
0.0
 11
-21.59999949999985
 21
77.399999999999864
 31
0.0
  0
LINE
  8
DETAIL
  6
CONTINUOUS
 62
     5
 10
-14.39999949999981
 20
-77.400000000000091
 30
0.0
 11
-21.59999949999985
 21
-77.400000000000091
 31
0.0
  0
LINE
  8
DETAIL
  6
CONTINUOUS
 62
     5
 10
-5.399999499999808
 20
84.599999999999909
 30
0.0
 11
-12.59999949999985
 21
84.599999999999909
 31
0.0
  0
LINE
  8
DETAIL
  6
CONTINUOUS
 62
     5
 10
-5.399999499999808
 20
-84.600000000000023
 30
0.0
 11
-12.59999949999985
 21
-84.600000000000023
 31
0.0
  0
LINE
  8
DETAIL
  6
CONTINUOUS
 62
     5
 10
-12.59999949999985
 20
77.399999999999864
 30
0.0
 11
-12.59999949999985
 21
84.599999999999909
 31
0.0
  0
LINE
  8
DETAIL
  6
CONTINUOUS
 62
     5
 10
-12.59999949999985
 20
-77.400000000000091
 30
0.0
 11
-12.59999949999985
 21
-84.600000000000023
 31
0.0
  0
LINE
  8
DETAIL
  6
CONTINUOUS
 62
     5
 10
-5.399999499999808
 20
77.399999999999864
 30
0.0
 11
-5.399999499999808
 21
84.599999999999909
 31
0.0
  0
LINE
  8
DETAIL
  6
CONTINUOUS
 62
     5
 10
-5.399999499999808
 20
-77.400000000000091
 30
0.0
 11
-5.399999499999808
 21
-84.600000000000023
 31
0.0
  0
LINE
  8
DETAIL
  6
CONTINUOUS
 62
     5
 10
-5.399999499999808
 20
77.399999999999864
 30
0.0
 11
-12.59999949999985
 21
77.399999999999864
 31
0.0
  0
LINE
  8
DETAIL
  6
CONTINUOUS
 62
     5
 10
-5.399999499999808
 20
-77.400000000000091
 30
0.0
 11
-12.59999949999985
 21
-77.400000000000091
 31
0.0
  0
LINE
  8
DETAIL
  6
CONTINUOUS
 62
     5
 10
-32.399999499999808
 20
93.599999999999909
 30
0.0
 11
-39.599999499999853
 21
93.599999999999909
 31
0.0
  0
LINE
  8
DETAIL
  6
CONTINUOUS
 62
     5
 10
-32.399999499999808
 20
-93.600000000000023
 30
0.0
 11
-39.599999499999853
 21
-93.600000000000023
 31
0.0
  0
LINE
  8
DETAIL
  6
CONTINUOUS
 62
     5
 10
-32.399999499999808
 20
86.399999999999864
 30
0.0
 11
-32.399999499999808
 21
93.599999999999909
 31
0.0
  0
LINE
  8
DETAIL
  6
CONTINUOUS
 62
     5
 10
-32.399999499999808
 20
-86.400000000000091
 30
0.0
 11
-32.399999499999808
 21
-93.600000000000023
 31
0.0
  0
LINE
  8
DETAIL
  6
CONTINUOUS
 62
     5
 10
-32.399999499999808
 20
86.399999999999864
 30
0.0
 11
-39.599999499999853
 21
86.399999999999864
 31
0.0
  0
LINE
  8
DETAIL
  6
CONTINUOUS
 62
     5
 10
-32.399999499999808
 20
-86.400000000000091
 30
0.0
 11
-39.599999499999853
 21
-86.400000000000091
 31
0.0
  0
LINE
  8
DETAIL
  6
CONTINUOUS
 62
     5
 10
-23.399999499999812
 20
93.599999999999909
 30
0.0
 11
-30.59999949999985
 21
93.599999999999909
 31
0.0
  0
LINE
  8
DETAIL
  6
CONTINUOUS
 62
     5
 10
-23.399999499999812
 20
-93.600000000000023
 30
0.0
 11
-30.59999949999985
 21
-93.600000000000023
 31
0.0
  0
LINE
  8
DETAIL
  6
CONTINUOUS
 62
     5
 10
-30.59999949999985
 20
86.399999999999864
 30
0.0
 11
-30.59999949999985
 21
93.599999999999909
 31
0.0
  0
LINE
  8
DETAIL
  6
CONTINUOUS
 62
     5
 10
-30.59999949999985
 20
-86.400000000000091
 30
0.0
 11
-30.59999949999985
 21
-93.600000000000023
 31
0.0
  0
LINE
  8
DETAIL
  6
CONTINUOUS
 62
     5
 10
-23.399999499999812
 20
86.399999999999864
 30
0.0
 11
-23.399999499999812
 21
93.599999999999909
 31
0.0
  0
LINE
  8
DETAIL
  6
CONTINUOUS
 62
     5
 10
-23.399999499999812
 20
-86.400000000000091
 30
0.0
 11
-23.399999499999812
 21
-93.600000000000023
 31
0.0
  0
LINE
  8
DETAIL
  6
CONTINUOUS
 62
     5
 10
-23.399999499999812
 20
86.399999999999864
 30
0.0
 11
-30.59999949999985
 21
86.399999999999864
 31
0.0
  0
LINE
  8
DETAIL
  6
CONTINUOUS
 62
     5
 10
-23.399999499999812
 20
-86.400000000000091
 30
0.0
 11
-30.59999949999985
 21
-86.400000000000091
 31
0.0
  0
LINE
  8
DETAIL
  6
CONTINUOUS
 62
     5
 10
-14.39999949999981
 20
93.599999999999909
 30
0.0
 11
-21.59999949999985
 21
93.599999999999909
 31
0.0
  0
LINE
  8
DETAIL
  6
CONTINUOUS
 62
     5
 10
-14.39999949999981
 20
-93.600000000000023
 30
0.0
 11
-21.59999949999985
 21
-93.600000000000023
 31
0.0
  0
LINE
  8
DETAIL
  6
CONTINUOUS
 62
     5
 10
-21.59999949999985
 20
86.399999999999864
 30
0.0
 11
-21.59999949999985
 21
93.599999999999909
 31
0.0
  0
LINE
  8
DETAIL
  6
CONTINUOUS
 62
     5
 10
-21.59999949999985
 20
-86.400000000000091
 30
0.0
 11
-21.59999949999985
 21
-93.600000000000023
 31
0.0
  0
LINE
  8
DETAIL
  6
CONTINUOUS
 62
     5
 10
-14.39999949999981
 20
86.399999999999864
 30
0.0
 11
-14.39999949999981
 21
93.599999999999909
 31
0.0
  0
LINE
  8
DETAIL
  6
CONTINUOUS
 62
     5
 10
-14.39999949999981
 20
-86.400000000000091
 30
0.0
 11
-14.39999949999981
 21
-93.600000000000023
 31
0.0
  0
LINE
  8
DETAIL
  6
CONTINUOUS
 62
     5
 10
-14.39999949999981
 20
86.399999999999864
 30
0.0
 11
-21.59999949999985
 21
86.399999999999864
 31
0.0
  0
LINE
  8
DETAIL
  6
CONTINUOUS
 62
     5
 10
-14.39999949999981
 20
-86.400000000000091
 30
0.0
 11
-21.59999949999985
 21
-86.400000000000091
 31
0.0
  0
LINE
  8
DETAIL
  6
CONTINUOUS
 62
     5
 10
-5.399999499999808
 20
93.599999999999909
 30
0.0
 11
-12.59999949999985
 21
93.599999999999909
 31
0.0
  0
LINE
  8
DETAIL
  6
CONTINUOUS
 62
     5
 10
-5.399999499999808
 20
-93.600000000000023
 30
0.0
 11
-12.59999949999985
 21
-93.600000000000023
 31
0.0
  0
LINE
  8
DETAIL
  6
CONTINUOUS
 62
     5
 10
-12.59999949999985
 20
86.399999999999864
 30
0.0
 11
-12.59999949999985
 21
93.599999999999909
 31
0.0
  0
LINE
  8
DETAIL
  6
CONTINUOUS
 62
     5
 10
-12.59999949999985
 20
-86.400000000000091
 30
0.0
 11
-12.59999949999985
 21
-93.600000000000023
 31
0.0
  0
LINE
  8
DETAIL
  6
CONTINUOUS
 62
     5
 10
-5.399999499999808
 20
86.399999999999864
 30
0.0
 11
-5.399999499999808
 21
93.599999999999909
 31
0.0
  0
LINE
  8
DETAIL
  6
CONTINUOUS
 62
     5
 10
-5.399999499999808
 20
-86.400000000000091
 30
0.0
 11
-5.399999499999808
 21
-93.600000000000023
 31
0.0
  0
LINE
  8
DETAIL
  6
CONTINUOUS
 62
     5
 10
-5.399999499999808
 20
86.399999999999864
 30
0.0
 11
-12.59999949999985
 21
86.399999999999864
 31
0.0
  0
LINE
  8
DETAIL
  6
CONTINUOUS
 62
     5
 10
-5.399999499999808
 20
-86.400000000000091
 30
0.0
 11
-12.59999949999985
 21
-86.400000000000091
 31
0.0
  0
LINE
  8
DETAIL
  6
CONTINUOUS
 62
     5
 10
-3.599999499999853
 20
86.399999999999864
 30
0.0
 11
-3.599999499999853
 21
93.599999999999909
 31
0.0
  0
LINE
  8
DETAIL
  6
CONTINUOUS
 62
     5
 10
-3.599999499999853
 20
-86.400000000000091
 30
0.0
 11
-3.599999499999853
 21
-93.600000000000023
 31
0.0
  0
LINE
  8
DETAIL
  6
CONTINUOUS
 62
     5
 10
-86.399999499999808
 20
75.599999999999909
 30
0.0
 11
-93.599999499999853
 21
75.599999999999909
 31
0.0
  0
LINE
  8
DETAIL
  6
CONTINUOUS
 62
     5
 10
-86.399999499999808
 20
-75.600000000000023
 30
0.0
 11
-93.599999499999853
 21
-75.600000000000023
 31
0.0
  0
LINE
  8
DETAIL
  6
CONTINUOUS
 62
     5
 10
-77.399999499999808
 20
75.599999999999909
 30
0.0
 11
-84.599999499999853
 21
75.599999999999909
 31
0.0
  0
LINE
  8
DETAIL
  6
CONTINUOUS
 62
     5
 10
-77.399999499999808
 20
-75.600000000000023
 30
0.0
 11
-84.599999499999853
 21
-75.600000000000023
 31
0.0
  0
LINE
  8
DETAIL
  6
CONTINUOUS
 62
     5
 10
-68.399999499999808
 20
75.599999999999909
 30
0.0
 11
-75.599999499999853
 21
75.599999999999909
 31
0.0
  0
LINE
  8
DETAIL
  6
CONTINUOUS
 62
     5
 10
-68.399999499999808
 20
-75.600000000000023
 30
0.0
 11
-75.599999499999853
 21
-75.600000000000023
 31
0.0
  0
LINE
  8
DETAIL
  6
CONTINUOUS
 62
     5
 10
-59.399999499999808
 20
75.599999999999909
 30
0.0
 11
-66.599999499999853
 21
75.599999999999909
 31
0.0
  0
LINE
  8
DETAIL
  6
CONTINUOUS
 62
     5
 10
-59.399999499999808
 20
-75.600000000000023
 30
0.0
 11
-66.599999499999853
 21
-75.600000000000023
 31
0.0
  0
LINE
  8
DETAIL
  6
CONTINUOUS
 62
     5
 10
-50.399999499999808
 20
75.599999999999909
 30
0.0
 11
-57.599999499999853
 21
75.599999999999909
 31
0.0
  0
LINE
  8
DETAIL
  6
CONTINUOUS
 62
     5
 10
-50.399999499999808
 20
-75.600000000000023
 30
0.0
 11
-57.599999499999853
 21
-75.600000000000023
 31
0.0
  0
LINE
  8
DETAIL
  6
CONTINUOUS
 62
     5
 10
-41.399999499999808
 20
75.599999999999909
 30
0.0
 11
-48.599999499999853
 21
75.599999999999909
 31
0.0
  0
LINE
  8
DETAIL
  6
CONTINUOUS
 62
     5
 10
-41.399999499999808
 20
-75.600000000000023
 30
0.0
 11
-48.599999499999853
 21
-75.600000000000023
 31
0.0
  0
LINE
  8
DETAIL
  6
CONTINUOUS
 62
     5
 10
-86.399999499999808
 20
84.599999999999909
 30
0.0
 11
-93.599999499999853
 21
84.599999999999909
 31
0.0
  0
LINE
  8
DETAIL
  6
CONTINUOUS
 62
     5
 10
-86.399999499999808
 20
-84.600000000000023
 30
0.0
 11
-93.599999499999853
 21
-84.600000000000023
 31
0.0
  0
LINE
  8
DETAIL
  6
CONTINUOUS
 62
     5
 10
-93.599999499999853
 20
77.399999999999864
 30
0.0
 11
-93.599999499999853
 21
84.599999999999909
 31
0.0
  0
LINE
  8
DETAIL
  6
CONTINUOUS
 62
     5
 10
-93.599999499999853
 20
-77.400000000000091
 30
0.0
 11
-93.599999499999853
 21
-84.600000000000023
 31
0.0
  0
LINE
  8
DETAIL
  6
CONTINUOUS
 62
     5
 10
-86.399999499999808
 20
77.399999999999864
 30
0.0
 11
-86.399999499999808
 21
84.599999999999909
 31
0.0
  0
LINE
  8
DETAIL
  6
CONTINUOUS
 62
     5
 10
-86.399999499999808
 20
-77.400000000000091
 30
0.0
 11
-86.399999499999808
 21
-84.600000000000023
 31
0.0
  0
LINE
  8
DETAIL
  6
CONTINUOUS
 62
     5
 10
-86.399999499999808
 20
77.399999999999864
 30
0.0
 11
-93.599999499999853
 21
77.399999999999864
 31
0.0
  0
LINE
  8
DETAIL
  6
CONTINUOUS
 62
     5
 10
-86.399999499999808
 20
-77.400000000000091
 30
0.0
 11
-93.599999499999853
 21
-77.400000000000091
 31
0.0
  0
LINE
  8
DETAIL
  6
CONTINUOUS
 62
     5
 10
-77.399999499999808
 20
84.599999999999909
 30
0.0
 11
-84.599999499999853
 21
84.599999999999909
 31
0.0
  0
LINE
  8
DETAIL
  6
CONTINUOUS
 62
     5
 10
-77.399999499999808
 20
-84.600000000000023
 30
0.0
 11
-84.599999499999853
 21
-84.600000000000023
 31
0.0
  0
LINE
  8
DETAIL
  6
CONTINUOUS
 62
     5
 10
-84.599999499999853
 20
77.399999999999864
 30
0.0
 11
-84.599999499999853
 21
84.599999999999909
 31
0.0
  0
LINE
  8
DETAIL
  6
CONTINUOUS
 62
     5
 10
-84.599999499999853
 20
-77.400000000000091
 30
0.0
 11
-84.599999499999853
 21
-84.600000000000023
 31
0.0
  0
LINE
  8
DETAIL
  6
CONTINUOUS
 62
     5
 10
-77.399999499999808
 20
77.399999999999864
 30
0.0
 11
-77.399999499999808
 21
84.599999999999909
 31
0.0
  0
LINE
  8
DETAIL
  6
CONTINUOUS
 62
     5
 10
-77.399999499999808
 20
-77.400000000000091
 30
0.0
 11
-77.399999499999808
 21
-84.600000000000023
 31
0.0
  0
LINE
  8
DETAIL
  6
CONTINUOUS
 62
     5
 10
-77.399999499999808
 20
77.399999999999864
 30
0.0
 11
-84.599999499999853
 21
77.399999999999864
 31
0.0
  0
LINE
  8
DETAIL
  6
CONTINUOUS
 62
     5
 10
-77.399999499999808
 20
-77.400000000000091
 30
0.0
 11
-84.599999499999853
 21
-77.400000000000091
 31
0.0
  0
LINE
  8
DETAIL
  6
CONTINUOUS
 62
     5
 10
-68.399999499999808
 20
84.599999999999909
 30
0.0
 11
-75.599999499999853
 21
84.599999999999909
 31
0.0
  0
LINE
  8
DETAIL
  6
CONTINUOUS
 62
     5
 10
-68.399999499999808
 20
-84.600000000000023
 30
0.0
 11
-75.599999499999853
 21
-84.600000000000023
 31
0.0
  0
LINE
  8
DETAIL
  6
CONTINUOUS
 62
     5
 10
-75.599999499999853
 20
77.399999999999864
 30
0.0
 11
-75.599999499999853
 21
84.599999999999909
 31
0.0
  0
LINE
  8
DETAIL
  6
CONTINUOUS
 62
     5
 10
-75.599999499999853
 20
-77.400000000000091
 30
0.0
 11
-75.599999499999853
 21
-84.600000000000023
 31
0.0
  0
LINE
  8
DETAIL
  6
CONTINUOUS
 62
     5
 10
-68.399999499999808
 20
77.399999999999864
 30
0.0
 11
-68.399999499999808
 21
84.599999999999909
 31
0.0
  0
LINE
  8
DETAIL
  6
CONTINUOUS
 62
     5
 10
-68.399999499999808
 20
-77.400000000000091
 30
0.0
 11
-68.399999499999808
 21
-84.600000000000023
 31
0.0
  0
LINE
  8
DETAIL
  6
CONTINUOUS
 62
     5
 10
-68.399999499999808
 20
77.399999999999864
 30
0.0
 11
-75.599999499999853
 21
77.399999999999864
 31
0.0
  0
LINE
  8
DETAIL
  6
CONTINUOUS
 62
     5
 10
-68.399999499999808
 20
-77.400000000000091
 30
0.0
 11
-75.599999499999853
 21
-77.400000000000091
 31
0.0
  0
LINE
  8
DETAIL
  6
CONTINUOUS
 62
     5
 10
-59.399999499999808
 20
84.599999999999909
 30
0.0
 11
-66.599999499999853
 21
84.599999999999909
 31
0.0
  0
LINE
  8
DETAIL
  6
CONTINUOUS
 62
     5
 10
-59.399999499999808
 20
-84.600000000000023
 30
0.0
 11
-66.599999499999853
 21
-84.600000000000023
 31
0.0
  0
LINE
  8
DETAIL
  6
CONTINUOUS
 62
     5
 10
-66.599999499999853
 20
77.399999999999864
 30
0.0
 11
-66.599999499999853
 21
84.599999999999909
 31
0.0
  0
LINE
  8
DETAIL
  6
CONTINUOUS
 62
     5
 10
-66.599999499999853
 20
-77.400000000000091
 30
0.0
 11
-66.599999499999853
 21
-84.600000000000023
 31
0.0
  0
LINE
  8
DETAIL
  6
CONTINUOUS
 62
     5
 10
-59.399999499999808
 20
77.399999999999864
 30
0.0
 11
-59.399999499999808
 21
84.599999999999909
 31
0.0
  0
LINE
  8
DETAIL
  6
CONTINUOUS
 62
     5
 10
-59.399999499999808
 20
-77.400000000000091
 30
0.0
 11
-59.399999499999808
 21
-84.600000000000023
 31
0.0
  0
LINE
  8
DETAIL
  6
CONTINUOUS
 62
     5
 10
-59.399999499999808
 20
77.399999999999864
 30
0.0
 11
-66.599999499999853
 21
77.399999999999864
 31
0.0
  0
LINE
  8
DETAIL
  6
CONTINUOUS
 62
     5
 10
-59.399999499999808
 20
-77.400000000000091
 30
0.0
 11
-66.599999499999853
 21
-77.400000000000091
 31
0.0
  0
LINE
  8
DETAIL
  6
CONTINUOUS
 62
     5
 10
-50.399999499999808
 20
84.599999999999909
 30
0.0
 11
-57.599999499999853
 21
84.599999999999909
 31
0.0
  0
LINE
  8
DETAIL
  6
CONTINUOUS
 62
     5
 10
-50.399999499999808
 20
-84.600000000000023
 30
0.0
 11
-57.599999499999853
 21
-84.600000000000023
 31
0.0
  0
LINE
  8
DETAIL
  6
CONTINUOUS
 62
     5
 10
-57.599999499999853
 20
77.399999999999864
 30
0.0
 11
-57.599999499999853
 21
84.599999999999909
 31
0.0
  0
LINE
  8
DETAIL
  6
CONTINUOUS
 62
     5
 10
-57.599999499999853
 20
-77.400000000000091
 30
0.0
 11
-57.599999499999853
 21
-84.600000000000023
 31
0.0
  0
LINE
  8
DETAIL
  6
CONTINUOUS
 62
     5
 10
-50.399999499999808
 20
77.399999999999864
 30
0.0
 11
-50.399999499999808
 21
84.599999999999909
 31
0.0
  0
LINE
  8
DETAIL
  6
CONTINUOUS
 62
     5
 10
-50.399999499999808
 20
-77.400000000000091
 30
0.0
 11
-50.399999499999808
 21
-84.600000000000023
 31
0.0
  0
LINE
  8
DETAIL
  6
CONTINUOUS
 62
     5
 10
-50.399999499999808
 20
77.399999999999864
 30
0.0
 11
-57.599999499999853
 21
77.399999999999864
 31
0.0
  0
LINE
  8
DETAIL
  6
CONTINUOUS
 62
     5
 10
-50.399999499999808
 20
-77.400000000000091
 30
0.0
 11
-57.599999499999853
 21
-77.400000000000091
 31
0.0
  0
LINE
  8
DETAIL
  6
CONTINUOUS
 62
     5
 10
-41.399999499999808
 20
84.599999999999909
 30
0.0
 11
-48.599999499999853
 21
84.599999999999909
 31
0.0
  0
LINE
  8
DETAIL
  6
CONTINUOUS
 62
     5
 10
-41.399999499999808
 20
-84.600000000000023
 30
0.0
 11
-48.599999499999853
 21
-84.600000000000023
 31
0.0
  0
LINE
  8
DETAIL
  6
CONTINUOUS
 62
     5
 10
-48.599999499999853
 20
77.399999999999864
 30
0.0
 11
-48.599999499999853
 21
84.599999999999909
 31
0.0
  0
LINE
  8
DETAIL
  6
CONTINUOUS
 62
     5
 10
-48.599999499999853
 20
-77.400000000000091
 30
0.0
 11
-48.599999499999853
 21
-84.600000000000023
 31
0.0
  0
LINE
  8
DETAIL
  6
CONTINUOUS
 62
     5
 10
-41.399999499999808
 20
77.399999999999864
 30
0.0
 11
-41.399999499999808
 21
84.599999999999909
 31
0.0
  0
LINE
  8
DETAIL
  6
CONTINUOUS
 62
     5
 10
-41.399999499999808
 20
-77.400000000000091
 30
0.0
 11
-41.399999499999808
 21
-84.600000000000023
 31
0.0
  0
LINE
  8
DETAIL
  6
CONTINUOUS
 62
     5
 10
-41.399999499999808
 20
77.399999999999864
 30
0.0
 11
-48.599999499999853
 21
77.399999999999864
 31
0.0
  0
LINE
  8
DETAIL
  6
CONTINUOUS
 62
     5
 10
-41.399999499999808
 20
-77.400000000000091
 30
0.0
 11
-48.599999499999853
 21
-77.400000000000091
 31
0.0
  0
LINE
  8
DETAIL
  6
CONTINUOUS
 62
     5
 10
-39.599999499999853
 20
77.399999999999864
 30
0.0
 11
-39.599999499999853
 21
84.599999999999909
 31
0.0
  0
LINE
  8
DETAIL
  6
CONTINUOUS
 62
     5
 10
-39.599999499999853
 20
-77.400000000000091
 30
0.0
 11
-39.599999499999853
 21
-84.600000000000023
 31
0.0
  0
LINE
  8
DETAIL
  6
CONTINUOUS
 62
     5
 10
-86.399999499999808
 20
93.599999999999909
 30
0.0
 11
-93.599999499999853
 21
93.599999999999909
 31
0.0
  0
LINE
  8
DETAIL
  6
CONTINUOUS
 62
     5
 10
-86.399999499999808
 20
-93.600000000000023
 30
0.0
 11
-93.599999499999853
 21
-93.600000000000023
 31
0.0
  0
LINE
  8
DETAIL
  6
CONTINUOUS
 62
     5
 10
-93.599999499999853
 20
86.399999999999864
 30
0.0
 11
-93.599999499999853
 21
93.599999999999909
 31
0.0
  0
LINE
  8
DETAIL
  6
CONTINUOUS
 62
     5
 10
-93.599999499999853
 20
-86.400000000000091
 30
0.0
 11
-93.599999499999853
 21
-93.600000000000023
 31
0.0
  0
LINE
  8
DETAIL
  6
CONTINUOUS
 62
     5
 10
-86.399999499999808
 20
86.399999999999864
 30
0.0
 11
-86.399999499999808
 21
93.599999999999909
 31
0.0
  0
LINE
  8
DETAIL
  6
CONTINUOUS
 62
     5
 10
-86.399999499999808
 20
-86.400000000000091
 30
0.0
 11
-86.399999499999808
 21
-93.600000000000023
 31
0.0
  0
LINE
  8
DETAIL
  6
CONTINUOUS
 62
     5
 10
-86.399999499999808
 20
86.399999999999864
 30
0.0
 11
-93.599999499999853
 21
86.399999999999864
 31
0.0
  0
LINE
  8
DETAIL
  6
CONTINUOUS
 62
     5
 10
-86.399999499999808
 20
-86.400000000000091
 30
0.0
 11
-93.599999499999853
 21
-86.400000000000091
 31
0.0
  0
LINE
  8
DETAIL
  6
CONTINUOUS
 62
     5
 10
-77.399999499999808
 20
93.599999999999909
 30
0.0
 11
-84.599999499999853
 21
93.599999999999909
 31
0.0
  0
LINE
  8
DETAIL
  6
CONTINUOUS
 62
     5
 10
-77.399999499999808
 20
-93.600000000000023
 30
0.0
 11
-84.599999499999853
 21
-93.600000000000023
 31
0.0
  0
LINE
  8
DETAIL
  6
CONTINUOUS
 62
     5
 10
-84.599999499999853
 20
86.399999999999864
 30
0.0
 11
-84.599999499999853
 21
93.599999999999909
 31
0.0
  0
LINE
  8
DETAIL
  6
CONTINUOUS
 62
     5
 10
-84.599999499999853
 20
-86.400000000000091
 30
0.0
 11
-84.599999499999853
 21
-93.600000000000023
 31
0.0
  0
LINE
  8
DETAIL
  6
CONTINUOUS
 62
     5
 10
-77.399999499999808
 20
86.399999999999864
 30
0.0
 11
-77.399999499999808
 21
93.599999999999909
 31
0.0
  0
LINE
  8
DETAIL
  6
CONTINUOUS
 62
     5
 10
-77.399999499999808
 20
-86.400000000000091
 30
0.0
 11
-77.399999499999808
 21
-93.600000000000023
 31
0.0
  0
LINE
  8
DETAIL
  6
CONTINUOUS
 62
     5
 10
-77.399999499999808
 20
86.399999999999864
 30
0.0
 11
-84.599999499999853
 21
86.399999999999864
 31
0.0
  0
LINE
  8
DETAIL
  6
CONTINUOUS
 62
     5
 10
-77.399999499999808
 20
-86.400000000000091
 30
0.0
 11
-84.599999499999853
 21
-86.400000000000091
 31
0.0
  0
LINE
  8
DETAIL
  6
CONTINUOUS
 62
     5
 10
-68.399999499999808
 20
93.599999999999909
 30
0.0
 11
-75.599999499999853
 21
93.599999999999909
 31
0.0
  0
LINE
  8
DETAIL
  6
CONTINUOUS
 62
     5
 10
-68.399999499999808
 20
-93.600000000000023
 30
0.0
 11
-75.599999499999853
 21
-93.600000000000023
 31
0.0
  0
LINE
  8
DETAIL
  6
CONTINUOUS
 62
     5
 10
-75.599999499999853
 20
86.399999999999864
 30
0.0
 11
-75.599999499999853
 21
93.599999999999909
 31
0.0
  0
LINE
  8
DETAIL
  6
CONTINUOUS
 62
     5
 10
-75.599999499999853
 20
-86.400000000000091
 30
0.0
 11
-75.599999499999853
 21
-93.600000000000023
 31
0.0
  0
LINE
  8
DETAIL
  6
CONTINUOUS
 62
     5
 10
-68.399999499999808
 20
86.399999999999864
 30
0.0
 11
-68.399999499999808
 21
93.599999999999909
 31
0.0
  0
LINE
  8
DETAIL
  6
CONTINUOUS
 62
     5
 10
-68.399999499999808
 20
-86.400000000000091
 30
0.0
 11
-68.399999499999808
 21
-93.600000000000023
 31
0.0
  0
LINE
  8
DETAIL
  6
CONTINUOUS
 62
     5
 10
-68.399999499999808
 20
86.399999999999864
 30
0.0
 11
-75.599999499999853
 21
86.399999999999864
 31
0.0
  0
LINE
  8
DETAIL
  6
CONTINUOUS
 62
     5
 10
-68.399999499999808
 20
-86.400000000000091
 30
0.0
 11
-75.599999499999853
 21
-86.400000000000091
 31
0.0
  0
LINE
  8
DETAIL
  6
CONTINUOUS
 62
     5
 10
-59.399999499999808
 20
93.599999999999909
 30
0.0
 11
-66.599999499999853
 21
93.599999999999909
 31
0.0
  0
LINE
  8
DETAIL
  6
CONTINUOUS
 62
     5
 10
-59.399999499999808
 20
-93.600000000000023
 30
0.0
 11
-66.599999499999853
 21
-93.600000000000023
 31
0.0
  0
LINE
  8
DETAIL
  6
CONTINUOUS
 62
     5
 10
-66.599999499999853
 20
86.399999999999864
 30
0.0
 11
-66.599999499999853
 21
93.599999999999909
 31
0.0
  0
LINE
  8
DETAIL
  6
CONTINUOUS
 62
     5
 10
-66.599999499999853
 20
-86.400000000000091
 30
0.0
 11
-66.599999499999853
 21
-93.600000000000023
 31
0.0
  0
LINE
  8
DETAIL
  6
CONTINUOUS
 62
     5
 10
-59.399999499999808
 20
86.399999999999864
 30
0.0
 11
-59.399999499999808
 21
93.599999999999909
 31
0.0
  0
LINE
  8
DETAIL
  6
CONTINUOUS
 62
     5
 10
-59.399999499999808
 20
-86.400000000000091
 30
0.0
 11
-59.399999499999808
 21
-93.600000000000023
 31
0.0
  0
LINE
  8
DETAIL
  6
CONTINUOUS
 62
     5
 10
-59.399999499999808
 20
86.399999999999864
 30
0.0
 11
-66.599999499999853
 21
86.399999999999864
 31
0.0
  0
LINE
  8
DETAIL
  6
CONTINUOUS
 62
     5
 10
-59.399999499999808
 20
-86.400000000000091
 30
0.0
 11
-66.599999499999853
 21
-86.400000000000091
 31
0.0
  0
LINE
  8
DETAIL
  6
CONTINUOUS
 62
     5
 10
-50.399999499999808
 20
93.599999999999909
 30
0.0
 11
-57.599999499999853
 21
93.599999999999909
 31
0.0
  0
LINE
  8
DETAIL
  6
CONTINUOUS
 62
     5
 10
-50.399999499999808
 20
-93.600000000000023
 30
0.0
 11
-57.599999499999853
 21
-93.600000000000023
 31
0.0
  0
LINE
  8
DETAIL
  6
CONTINUOUS
 62
     5
 10
-57.599999499999853
 20
86.399999999999864
 30
0.0
 11
-57.599999499999853
 21
93.599999999999909
 31
0.0
  0
LINE
  8
DETAIL
  6
CONTINUOUS
 62
     5
 10
-57.599999499999853
 20
-86.400000000000091
 30
0.0
 11
-57.599999499999853
 21
-93.600000000000023
 31
0.0
  0
LINE
  8
DETAIL
  6
CONTINUOUS
 62
     5
 10
-50.399999499999808
 20
86.399999999999864
 30
0.0
 11
-50.399999499999808
 21
93.599999999999909
 31
0.0
  0
LINE
  8
DETAIL
  6
CONTINUOUS
 62
     5
 10
-50.399999499999808
 20
-86.400000000000091
 30
0.0
 11
-50.399999499999808
 21
-93.600000000000023
 31
0.0
  0
LINE
  8
DETAIL
  6
CONTINUOUS
 62
     5
 10
-50.399999499999808
 20
86.399999999999864
 30
0.0
 11
-57.599999499999853
 21
86.399999999999864
 31
0.0
  0
LINE
  8
DETAIL
  6
CONTINUOUS
 62
     5
 10
-50.399999499999808
 20
-86.400000000000091
 30
0.0
 11
-57.599999499999853
 21
-86.400000000000091
 31
0.0
  0
LINE
  8
DETAIL
  6
CONTINUOUS
 62
     5
 10
-41.399999499999808
 20
93.599999999999909
 30
0.0
 11
-48.599999499999853
 21
93.599999999999909
 31
0.0
  0
LINE
  8
DETAIL
  6
CONTINUOUS
 62
     5
 10
-41.399999499999808
 20
-93.600000000000023
 30
0.0
 11
-48.599999499999853
 21
-93.600000000000023
 31
0.0
  0
LINE
  8
DETAIL
  6
CONTINUOUS
 62
     5
 10
-48.599999499999853
 20
86.399999999999864
 30
0.0
 11
-48.599999499999853
 21
93.599999999999909
 31
0.0
  0
LINE
  8
DETAIL
  6
CONTINUOUS
 62
     5
 10
-48.599999499999853
 20
-86.400000000000091
 30
0.0
 11
-48.599999499999853
 21
-93.600000000000023
 31
0.0
  0
LINE
  8
DETAIL
  6
CONTINUOUS
 62
     5
 10
-41.399999499999808
 20
86.399999999999864
 30
0.0
 11
-41.399999499999808
 21
93.599999999999909
 31
0.0
  0
LINE
  8
DETAIL
  6
CONTINUOUS
 62
     5
 10
-41.399999499999808
 20
-86.400000000000091
 30
0.0
 11
-41.399999499999808
 21
-93.600000000000023
 31
0.0
  0
LINE
  8
DETAIL
  6
CONTINUOUS
 62
     5
 10
-41.399999499999808
 20
86.399999999999864
 30
0.0
 11
-48.599999499999853
 21
86.399999999999864
 31
0.0
  0
LINE
  8
DETAIL
  6
CONTINUOUS
 62
     5
 10
-41.399999499999808
 20
-86.400000000000091
 30
0.0
 11
-48.599999499999853
 21
-86.400000000000091
 31
0.0
  0
LINE
  8
DETAIL
  6
CONTINUOUS
 62
     5
 10
-39.599999499999853
 20
86.399999999999864
 30
0.0
 11
-39.599999499999853
 21
93.599999999999909
 31
0.0
  0
LINE
  8
DETAIL
  6
CONTINUOUS
 62
     5
 10
-39.599999499999853
 20
-86.400000000000091
 30
0.0
 11
-39.599999499999853
 21
-93.600000000000023
 31
0.0
  0
LINE
  8
DETAIL
  6
CONTINUOUS
 62
     5
 10
-100.9999994999999
 20
97.0
 30
0.0
 11
-99.499999499999944
 21
95.5
 31
0.0
  0
LINE
  8
DETAIL
  6
CONTINUOUS
 62
     5
 10
-100.9999994999999
 20
-97.0
 30
0.0
 11
-99.499999499999944
 21
-95.5
 31
0.0
  0
LINE
  8
DETAIL
  6
CONTINUOUS
 62
     5
 10
-96.999999499999944
 20
101.0
 30
0.0
 11
-95.499999499999944
 21
99.5
 31
0.0
  0
LINE
  8
DETAIL
  6
CONTINUOUS
 62
     5
 10
-96.999999499999944
 20
-101.0
 30
0.0
 11
-95.499999499999944
 21
-99.5
 31
0.0
  0
ARC
  8
DETAIL
  6
CONTINUOUS
 62
     5
 10
-135.20564849999991
 20
135.20564999999991
 30
0.0
 40
1.0
 50
90.0
 51
180.0
  0
ARC
  8
DETAIL
  6
CONTINUOUS
 62
     5
 10
135.20564949999991
 20
135.20564999999991
 30
0.0
 40
1.0
 50
0.0
 51
90.0
  0
ARC
  8
DETAIL
  6
CONTINUOUS
 62
     5
 10
135.20564949999991
 20
-135.20564900000011
 30
0.0
 40
1.0
 50
270.0
 51
0.0
  0
ARC
  8
DETAIL
  6
CONTINUOUS
 62
     5
 10
-135.20564849999991
 20
-135.20564900000011
 30
0.0
 40
1.0
 50
180.0
 51
270.0
  0
LINE
  8
DETAIL
  6
CONTINUOUS
 62
     5
 10
-95.499999499999944
 20
99.5
 30
0.0
 11
95.500000500000056
 21
99.5
 31
0.0
  0
LINE
  8
DETAIL
  6
CONTINUOUS
 62
     5
 10
-95.499999499999944
 20
-99.5
 30
0.0
 11
95.500000500000056
 21
-99.5
 31
0.0
  0
LINE
  8
DETAIL
  6
CONTINUOUS
 62
     5
 10
-96.999999499999944
 20
101.0
 30
0.0
 11
97.000000500000056
 21
101.0
 31
0.0
  0
LINE
  8
DETAIL
  6
CONTINUOUS
 62
     5
 10
-96.999999499999944
 20
-101.0
 30
0.0
 11
97.000000500000056
 21
-101.0
 31
0.0
  0
LINE
  8
DETAIL
  6
CONTINUOUS
 62
     5
 10
3.600000500000192
 20
86.399999999999864
 30
0.0
 11
-3.599999499999853
 21
86.399999999999864
 31
0.0
  0
LINE
  8
DETAIL
  6
CONTINUOUS
 62
     5
 10
3.600000500000192
 20
-86.400000000000091
 30
0.0
 11
-3.599999499999853
 21
-86.400000000000091
 31
0.0
  0
LINE
  8
DETAIL
  6
CONTINUOUS
 62
     5
 10
3.600000500000192
 20
93.599999999999909
 30
0.0
 11
-3.599999499999853
 21
93.599999999999909
 31
0.0
  0
LINE
  8
DETAIL
  6
CONTINUOUS
 62
     5
 10
3.600000500000192
 20
-93.600000000000023
 30
0.0
 11
-3.599999499999853
 21
-93.600000000000023
 31
0.0
  0
LINE
  8
DETAIL
  6
CONTINUOUS
 62
     5
 10
-5.399999499999808
 20
75.599999999999909
 30
0.0
 11
-12.59999949999985
 21
75.599999999999909
 31
0.0
  0
LINE
  8
DETAIL
  6
CONTINUOUS
 62
     5
 10
-5.399999499999808
 20
-75.600000000000023
 30
0.0
 11
-12.59999949999985
 21
-75.600000000000023
 31
0.0
  0
LINE
  8
DETAIL
  6
CONTINUOUS
 62
     5
 10
-3.599999499999853
 20
77.399999999999864
 30
0.0
 11
-3.599999499999853
 21
84.599999999999909
 31
0.0
  0
LINE
  8
DETAIL
  6
CONTINUOUS
 62
     5
 10
-3.599999499999853
 20
-77.400000000000091
 30
0.0
 11
-3.599999499999853
 21
-84.600000000000023
 31
0.0
  0
LINE
  8
DETAIL
  6
CONTINUOUS
 62
     5
 10
3.600000500000192
 20
77.399999999999864
 30
0.0
 11
-3.599999499999853
 21
77.399999999999864
 31
0.0
  0
LINE
  8
DETAIL
  6
CONTINUOUS
 62
     5
 10
3.600000500000192
 20
-77.400000000000091
 30
0.0
 11
-3.599999499999853
 21
-77.400000000000091
 31
0.0
  0
LINE
  8
DETAIL
  6
CONTINUOUS
 62
     5
 10
3.600000500000192
 20
84.599999999999909
 30
0.0
 11
-3.599999499999853
 21
84.599999999999909
 31
0.0
  0
LINE
  8
DETAIL
  6
CONTINUOUS
 62
     5
 10
3.600000500000192
 20
-84.600000000000023
 30
0.0
 11
-3.599999499999853
 21
-84.600000000000023
 31
0.0
  0
LINE
  8
DETAIL
  6
CONTINUOUS
 62
     5
 10
3.600000500000192
 20
75.599999999999909
 30
0.0
 11
-3.599999499999853
 21
75.599999999999909
 31
0.0
  0
LINE
  8
DETAIL
  6
CONTINUOUS
 62
     5
 10
3.600000500000192
 20
-75.600000000000023
 30
0.0
 11
-3.599999499999853
 21
-75.600000000000023
 31
0.0
  0
LINE
  8
DETAIL
  6
CONTINUOUS
 62
     5
 10
32.400000500000147
 20
75.599999999999909
 30
0.0
 11
39.600000500000192
 21
75.599999999999909
 31
0.0
  0
LINE
  8
DETAIL
  6
CONTINUOUS
 62
     5
 10
32.400000500000147
 20
-75.600000000000023
 30
0.0
 11
39.600000500000192
 21
-75.600000000000023
 31
0.0
  0
LINE
  8
DETAIL
  6
CONTINUOUS
 62
     5
 10
23.40000050000015
 20
75.599999999999909
 30
0.0
 11
30.600000500000188
 21
75.599999999999909
 31
0.0
  0
LINE
  8
DETAIL
  6
CONTINUOUS
 62
     5
 10
23.40000050000015
 20
-75.600000000000023
 30
0.0
 11
30.600000500000188
 21
-75.600000000000023
 31
0.0
  0
LINE
  8
DETAIL
  6
CONTINUOUS
 62
     5
 10
14.40000050000015
 20
75.599999999999909
 30
0.0
 11
21.600000500000188
 21
75.599999999999909
 31
0.0
  0
LINE
  8
DETAIL
  6
CONTINUOUS
 62
     5
 10
14.40000050000015
 20
-75.600000000000023
 30
0.0
 11
21.600000500000188
 21
-75.600000000000023
 31
0.0
  0
LINE
  8
DETAIL
  6
CONTINUOUS
 62
     5
 10
32.400000500000147
 20
84.599999999999909
 30
0.0
 11
39.600000500000192
 21
84.599999999999909
 31
0.0
  0
LINE
  8
DETAIL
  6
CONTINUOUS
 62
     5
 10
32.400000500000147
 20
-84.600000000000023
 30
0.0
 11
39.600000500000192
 21
-84.600000000000023
 31
0.0
  0
LINE
  8
DETAIL
  6
CONTINUOUS
 62
     5
 10
32.400000500000147
 20
77.399999999999864
 30
0.0
 11
32.400000500000147
 21
84.599999999999909
 31
0.0
  0
LINE
  8
DETAIL
  6
CONTINUOUS
 62
     5
 10
32.400000500000147
 20
-77.400000000000091
 30
0.0
 11
32.400000500000147
 21
-84.600000000000023
 31
0.0
  0
LINE
  8
DETAIL
  6
CONTINUOUS
 62
     5
 10
32.400000500000147
 20
77.399999999999864
 30
0.0
 11
39.600000500000192
 21
77.399999999999864
 31
0.0
  0
LINE
  8
DETAIL
  6
CONTINUOUS
 62
     5
 10
32.400000500000147
 20
-77.400000000000091
 30
0.0
 11
39.600000500000192
 21
-77.400000000000091
 31
0.0
  0
LINE
  8
DETAIL
  6
CONTINUOUS
 62
     5
 10
23.40000050000015
 20
84.599999999999909
 30
0.0
 11
30.600000500000188
 21
84.599999999999909
 31
0.0
  0
LINE
  8
DETAIL
  6
CONTINUOUS
 62
     5
 10
23.40000050000015
 20
-84.600000000000023
 30
0.0
 11
30.600000500000188
 21
-84.600000000000023
 31
0.0
  0
LINE
  8
DETAIL
  6
CONTINUOUS
 62
     5
 10
30.600000500000188
 20
77.399999999999864
 30
0.0
 11
30.600000500000188
 21
84.599999999999909
 31
0.0
  0
LINE
  8
DETAIL
  6
CONTINUOUS
 62
     5
 10
30.600000500000188
 20
-77.400000000000091
 30
0.0
 11
30.600000500000188
 21
-84.600000000000023
 31
0.0
  0
LINE
  8
DETAIL
  6
CONTINUOUS
 62
     5
 10
23.40000050000015
 20
77.399999999999864
 30
0.0
 11
23.40000050000015
 21
84.599999999999909
 31
0.0
  0
LINE
  8
DETAIL
  6
CONTINUOUS
 62
     5
 10
23.40000050000015
 20
-77.400000000000091
 30
0.0
 11
23.40000050000015
 21
-84.600000000000023
 31
0.0
  0
LINE
  8
DETAIL
  6
CONTINUOUS
 62
     5
 10
23.40000050000015
 20
77.399999999999864
 30
0.0
 11
30.600000500000188
 21
77.399999999999864
 31
0.0
  0
LINE
  8
DETAIL
  6
CONTINUOUS
 62
     5
 10
23.40000050000015
 20
-77.400000000000091
 30
0.0
 11
30.600000500000188
 21
-77.400000000000091
 31
0.0
  0
LINE
  8
DETAIL
  6
CONTINUOUS
 62
     5
 10
14.40000050000015
 20
84.599999999999909
 30
0.0
 11
21.600000500000188
 21
84.599999999999909
 31
0.0
  0
LINE
  8
DETAIL
  6
CONTINUOUS
 62
     5
 10
14.40000050000015
 20
-84.600000000000023
 30
0.0
 11
21.600000500000188
 21
-84.600000000000023
 31
0.0
  0
LINE
  8
DETAIL
  6
CONTINUOUS
 62
     5
 10
21.600000500000188
 20
77.399999999999864
 30
0.0
 11
21.600000500000188
 21
84.599999999999909
 31
0.0
  0
LINE
  8
DETAIL
  6
CONTINUOUS
 62
     5
 10
21.600000500000188
 20
-77.400000000000091
 30
0.0
 11
21.600000500000188
 21
-84.600000000000023
 31
0.0
  0
LINE
  8
DETAIL
  6
CONTINUOUS
 62
     5
 10
14.40000050000015
 20
77.399999999999864
 30
0.0
 11
14.40000050000015
 21
84.599999999999909
 31
0.0
  0
LINE
  8
DETAIL
  6
CONTINUOUS
 62
     5
 10
14.40000050000015
 20
-77.400000000000091
 30
0.0
 11
14.40000050000015
 21
-84.600000000000023
 31
0.0
  0
LINE
  8
DETAIL
  6
CONTINUOUS
 62
     5
 10
14.40000050000015
 20
77.399999999999864
 30
0.0
 11
21.600000500000188
 21
77.399999999999864
 31
0.0
  0
LINE
  8
DETAIL
  6
CONTINUOUS
 62
     5
 10
14.40000050000015
 20
-77.400000000000091
 30
0.0
 11
21.600000500000188
 21
-77.400000000000091
 31
0.0
  0
LINE
  8
DETAIL
  6
CONTINUOUS
 62
     5
 10
5.4000005000001474
 20
84.599999999999909
 30
0.0
 11
12.60000050000019
 21
84.599999999999909
 31
0.0
  0
LINE
  8
DETAIL
  6
CONTINUOUS
 62
     5
 10
5.4000005000001474
 20
-84.600000000000023
 30
0.0
 11
12.60000050000019
 21
-84.600000000000023
 31
0.0
  0
LINE
  8
DETAIL
  6
CONTINUOUS
 62
     5
 10
12.60000050000019
 20
77.399999999999864
 30
0.0
 11
12.60000050000019
 21
84.599999999999909
 31
0.0
  0
LINE
  8
DETAIL
  6
CONTINUOUS
 62
     5
 10
12.60000050000019
 20
-77.400000000000091
 30
0.0
 11
12.60000050000019
 21
-84.600000000000023
 31
0.0
  0
LINE
  8
DETAIL
  6
CONTINUOUS
 62
     5
 10
5.4000005000001474
 20
77.399999999999864
 30
0.0
 11
5.4000005000001474
 21
84.599999999999909
 31
0.0
  0
LINE
  8
DETAIL
  6
CONTINUOUS
 62
     5
 10
5.4000005000001474
 20
-77.400000000000091
 30
0.0
 11
5.4000005000001474
 21
-84.600000000000023
 31
0.0
  0
LINE
  8
DETAIL
  6
CONTINUOUS
 62
     5
 10
5.4000005000001474
 20
77.399999999999864
 30
0.0
 11
12.60000050000019
 21
77.399999999999864
 31
0.0
  0
LINE
  8
DETAIL
  6
CONTINUOUS
 62
     5
 10
5.4000005000001474
 20
-77.400000000000091
 30
0.0
 11
12.60000050000019
 21
-77.400000000000091
 31
0.0
  0
LINE
  8
DETAIL
  6
CONTINUOUS
 62
     5
 10
32.400000500000147
 20
93.599999999999909
 30
0.0
 11
39.600000500000192
 21
93.599999999999909
 31
0.0
  0
LINE
  8
DETAIL
  6
CONTINUOUS
 62
     5
 10
32.400000500000147
 20
-93.600000000000023
 30
0.0
 11
39.600000500000192
 21
-93.600000000000023
 31
0.0
  0
LINE
  8
DETAIL
  6
CONTINUOUS
 62
     5
 10
32.400000500000147
 20
86.399999999999864
 30
0.0
 11
32.400000500000147
 21
93.599999999999909
 31
0.0
  0
LINE
  8
DETAIL
  6
CONTINUOUS
 62
     5
 10
32.400000500000147
 20
-86.400000000000091
 30
0.0
 11
32.400000500000147
 21
-93.600000000000023
 31
0.0
  0
LINE
  8
DETAIL
  6
CONTINUOUS
 62
     5
 10
32.400000500000147
 20
86.399999999999864
 30
0.0
 11
39.600000500000192
 21
86.399999999999864
 31
0.0
  0
LINE
  8
DETAIL
  6
CONTINUOUS
 62
     5
 10
32.400000500000147
 20
-86.400000000000091
 30
0.0
 11
39.600000500000192
 21
-86.400000000000091
 31
0.0
  0
LINE
  8
DETAIL
  6
CONTINUOUS
 62
     5
 10
23.40000050000015
 20
93.599999999999909
 30
0.0
 11
30.600000500000188
 21
93.599999999999909
 31
0.0
  0
LINE
  8
DETAIL
  6
CONTINUOUS
 62
     5
 10
23.40000050000015
 20
-93.600000000000023
 30
0.0
 11
30.600000500000188
 21
-93.600000000000023
 31
0.0
  0
LINE
  8
DETAIL
  6
CONTINUOUS
 62
     5
 10
30.600000500000188
 20
86.399999999999864
 30
0.0
 11
30.600000500000188
 21
93.599999999999909
 31
0.0
  0
LINE
  8
DETAIL
  6
CONTINUOUS
 62
     5
 10
30.600000500000188
 20
-86.400000000000091
 30
0.0
 11
30.600000500000188
 21
-93.600000000000023
 31
0.0
  0
LINE
  8
DETAIL
  6
CONTINUOUS
 62
     5
 10
23.40000050000015
 20
86.399999999999864
 30
0.0
 11
23.40000050000015
 21
93.599999999999909
 31
0.0
  0
LINE
  8
DETAIL
  6
CONTINUOUS
 62
     5
 10
23.40000050000015
 20
-86.400000000000091
 30
0.0
 11
23.40000050000015
 21
-93.600000000000023
 31
0.0
  0
LINE
  8
DETAIL
  6
CONTINUOUS
 62
     5
 10
23.40000050000015
 20
86.399999999999864
 30
0.0
 11
30.600000500000188
 21
86.399999999999864
 31
0.0
  0
LINE
  8
DETAIL
  6
CONTINUOUS
 62
     5
 10
23.40000050000015
 20
-86.400000000000091
 30
0.0
 11
30.600000500000188
 21
-86.400000000000091
 31
0.0
  0
LINE
  8
DETAIL
  6
CONTINUOUS
 62
     5
 10
14.40000050000015
 20
93.599999999999909
 30
0.0
 11
21.600000500000188
 21
93.599999999999909
 31
0.0
  0
LINE
  8
DETAIL
  6
CONTINUOUS
 62
     5
 10
14.40000050000015
 20
-93.600000000000023
 30
0.0
 11
21.600000500000188
 21
-93.600000000000023
 31
0.0
  0
LINE
  8
DETAIL
  6
CONTINUOUS
 62
     5
 10
21.600000500000188
 20
86.399999999999864
 30
0.0
 11
21.600000500000188
 21
93.599999999999909
 31
0.0
  0
LINE
  8
DETAIL
  6
CONTINUOUS
 62
     5
 10
21.600000500000188
 20
-86.400000000000091
 30
0.0
 11
21.600000500000188
 21
-93.600000000000023
 31
0.0
  0
LINE
  8
DETAIL
  6
CONTINUOUS
 62
     5
 10
14.40000050000015
 20
86.399999999999864
 30
0.0
 11
14.40000050000015
 21
93.599999999999909
 31
0.0
  0
LINE
  8
DETAIL
  6
CONTINUOUS
 62
     5
 10
14.40000050000015
 20
-86.400000000000091
 30
0.0
 11
14.40000050000015
 21
-93.600000000000023
 31
0.0
  0
LINE
  8
DETAIL
  6
CONTINUOUS
 62
     5
 10
14.40000050000015
 20
86.399999999999864
 30
0.0
 11
21.600000500000188
 21
86.399999999999864
 31
0.0
  0
LINE
  8
DETAIL
  6
CONTINUOUS
 62
     5
 10
14.40000050000015
 20
-86.400000000000091
 30
0.0
 11
21.600000500000188
 21
-86.400000000000091
 31
0.0
  0
LINE
  8
DETAIL
  6
CONTINUOUS
 62
     5
 10
5.4000005000001474
 20
93.599999999999909
 30
0.0
 11
12.60000050000019
 21
93.599999999999909
 31
0.0
  0
LINE
  8
DETAIL
  6
CONTINUOUS
 62
     5
 10
5.4000005000001474
 20
-93.600000000000023
 30
0.0
 11
12.60000050000019
 21
-93.600000000000023
 31
0.0
  0
LINE
  8
DETAIL
  6
CONTINUOUS
 62
     5
 10
12.60000050000019
 20
86.399999999999864
 30
0.0
 11
12.60000050000019
 21
93.599999999999909
 31
0.0
  0
LINE
  8
DETAIL
  6
CONTINUOUS
 62
     5
 10
12.60000050000019
 20
-86.400000000000091
 30
0.0
 11
12.60000050000019
 21
-93.600000000000023
 31
0.0
  0
LINE
  8
DETAIL
  6
CONTINUOUS
 62
     5
 10
5.4000005000001474
 20
86.399999999999864
 30
0.0
 11
5.4000005000001474
 21
93.599999999999909
 31
0.0
  0
LINE
  8
DETAIL
  6
CONTINUOUS
 62
     5
 10
5.4000005000001474
 20
-86.400000000000091
 30
0.0
 11
5.4000005000001474
 21
-93.600000000000023
 31
0.0
  0
LINE
  8
DETAIL
  6
CONTINUOUS
 62
     5
 10
5.4000005000001474
 20
86.399999999999864
 30
0.0
 11
12.60000050000019
 21
86.399999999999864
 31
0.0
  0
LINE
  8
DETAIL
  6
CONTINUOUS
 62
     5
 10
5.4000005000001474
 20
-86.400000000000091
 30
0.0
 11
12.60000050000019
 21
-86.400000000000091
 31
0.0
  0
LINE
  8
DETAIL
  6
CONTINUOUS
 62
     5
 10
3.600000500000192
 20
86.399999999999864
 30
0.0
 11
3.600000500000192
 21
93.599999999999909
 31
0.0
  0
LINE
  8
DETAIL
  6
CONTINUOUS
 62
     5
 10
3.600000500000192
 20
-86.400000000000091
 30
0.0
 11
3.600000500000192
 21
-93.600000000000023
 31
0.0
  0
LINE
  8
DETAIL
  6
CONTINUOUS
 62
     5
 10
86.400000500000147
 20
75.599999999999909
 30
0.0
 11
93.600000500000192
 21
75.599999999999909
 31
0.0
  0
LINE
  8
DETAIL
  6
CONTINUOUS
 62
     5
 10
86.400000500000147
 20
-75.600000000000023
 30
0.0
 11
93.600000500000192
 21
-75.600000000000023
 31
0.0
  0
LINE
  8
DETAIL
  6
CONTINUOUS
 62
     5
 10
77.400000500000147
 20
75.599999999999909
 30
0.0
 11
84.600000500000192
 21
75.599999999999909
 31
0.0
  0
LINE
  8
DETAIL
  6
CONTINUOUS
 62
     5
 10
77.400000500000147
 20
-75.600000000000023
 30
0.0
 11
84.600000500000192
 21
-75.600000000000023
 31
0.0
  0
LINE
  8
DETAIL
  6
CONTINUOUS
 62
     5
 10
68.400000500000147
 20
75.599999999999909
 30
0.0
 11
75.600000500000192
 21
75.599999999999909
 31
0.0
  0
LINE
  8
DETAIL
  6
CONTINUOUS
 62
     5
 10
68.400000500000147
 20
-75.600000000000023
 30
0.0
 11
75.600000500000192
 21
-75.600000000000023
 31
0.0
  0
LINE
  8
DETAIL
  6
CONTINUOUS
 62
     5
 10
59.400000500000147
 20
75.599999999999909
 30
0.0
 11
66.600000500000192
 21
75.599999999999909
 31
0.0
  0
LINE
  8
DETAIL
  6
CONTINUOUS
 62
     5
 10
59.400000500000147
 20
-75.600000000000023
 30
0.0
 11
66.600000500000192
 21
-75.600000000000023
 31
0.0
  0
LINE
  8
DETAIL
  6
CONTINUOUS
 62
     5
 10
50.400000500000147
 20
75.599999999999909
 30
0.0
 11
57.600000500000192
 21
75.599999999999909
 31
0.0
  0
LINE
  8
DETAIL
  6
CONTINUOUS
 62
     5
 10
50.400000500000147
 20
-75.600000000000023
 30
0.0
 11
57.600000500000192
 21
-75.600000000000023
 31
0.0
  0
LINE
  8
DETAIL
  6
CONTINUOUS
 62
     5
 10
41.400000500000147
 20
75.599999999999909
 30
0.0
 11
48.600000500000192
 21
75.599999999999909
 31
0.0
  0
LINE
  8
DETAIL
  6
CONTINUOUS
 62
     5
 10
41.400000500000147
 20
-75.600000000000023
 30
0.0
 11
48.600000500000192
 21
-75.600000000000023
 31
0.0
  0
LINE
  8
DETAIL
  6
CONTINUOUS
 62
     5
 10
86.400000500000147
 20
84.599999999999909
 30
0.0
 11
93.600000500000192
 21
84.599999999999909
 31
0.0
  0
LINE
  8
DETAIL
  6
CONTINUOUS
 62
     5
 10
86.400000500000147
 20
-84.600000000000023
 30
0.0
 11
93.600000500000192
 21
-84.600000000000023
 31
0.0
  0
LINE
  8
DETAIL
  6
CONTINUOUS
 62
     5
 10
93.600000500000192
 20
77.399999999999864
 30
0.0
 11
93.600000500000192
 21
84.599999999999909
 31
0.0
  0
LINE
  8
DETAIL
  6
CONTINUOUS
 62
     5
 10
93.600000500000192
 20
-77.400000000000091
 30
0.0
 11
93.600000500000192
 21
-84.600000000000023
 31
0.0
  0
LINE
  8
DETAIL
  6
CONTINUOUS
 62
     5
 10
86.400000500000147
 20
77.399999999999864
 30
0.0
 11
86.400000500000147
 21
84.599999999999909
 31
0.0
  0
LINE
  8
DETAIL
  6
CONTINUOUS
 62
     5
 10
86.400000500000147
 20
-77.400000000000091
 30
0.0
 11
86.400000500000147
 21
-84.600000000000023
 31
0.0
  0
LINE
  8
DETAIL
  6
CONTINUOUS
 62
     5
 10
86.400000500000147
 20
77.399999999999864
 30
0.0
 11
93.600000500000192
 21
77.399999999999864
 31
0.0
  0
LINE
  8
DETAIL
  6
CONTINUOUS
 62
     5
 10
86.400000500000147
 20
-77.400000000000091
 30
0.0
 11
93.600000500000192
 21
-77.400000000000091
 31
0.0
  0
LINE
  8
DETAIL
  6
CONTINUOUS
 62
     5
 10
77.400000500000147
 20
84.599999999999909
 30
0.0
 11
84.600000500000192
 21
84.599999999999909
 31
0.0
  0
LINE
  8
DETAIL
  6
CONTINUOUS
 62
     5
 10
77.400000500000147
 20
-84.600000000000023
 30
0.0
 11
84.600000500000192
 21
-84.600000000000023
 31
0.0
  0
LINE
  8
DETAIL
  6
CONTINUOUS
 62
     5
 10
84.600000500000192
 20
77.399999999999864
 30
0.0
 11
84.600000500000192
 21
84.599999999999909
 31
0.0
  0
LINE
  8
DETAIL
  6
CONTINUOUS
 62
     5
 10
84.600000500000192
 20
-77.400000000000091
 30
0.0
 11
84.600000500000192
 21
-84.600000000000023
 31
0.0
  0
LINE
  8
DETAIL
  6
CONTINUOUS
 62
     5
 10
77.400000500000147
 20
77.399999999999864
 30
0.0
 11
77.400000500000147
 21
84.599999999999909
 31
0.0
  0
LINE
  8
DETAIL
  6
CONTINUOUS
 62
     5
 10
77.400000500000147
 20
-77.400000000000091
 30
0.0
 11
77.400000500000147
 21
-84.600000000000023
 31
0.0
  0
LINE
  8
DETAIL
  6
CONTINUOUS
 62
     5
 10
77.400000500000147
 20
77.399999999999864
 30
0.0
 11
84.600000500000192
 21
77.399999999999864
 31
0.0
  0
LINE
  8
DETAIL
  6
CONTINUOUS
 62
     5
 10
77.400000500000147
 20
-77.400000000000091
 30
0.0
 11
84.600000500000192
 21
-77.400000000000091
 31
0.0
  0
LINE
  8
DETAIL
  6
CONTINUOUS
 62
     5
 10
68.400000500000147
 20
84.599999999999909
 30
0.0
 11
75.600000500000192
 21
84.599999999999909
 31
0.0
  0
LINE
  8
DETAIL
  6
CONTINUOUS
 62
     5
 10
68.400000500000147
 20
-84.600000000000023
 30
0.0
 11
75.600000500000192
 21
-84.600000000000023
 31
0.0
  0
LINE
  8
DETAIL
  6
CONTINUOUS
 62
     5
 10
75.600000500000192
 20
77.399999999999864
 30
0.0
 11
75.600000500000192
 21
84.599999999999909
 31
0.0
  0
LINE
  8
DETAIL
  6
CONTINUOUS
 62
     5
 10
75.600000500000192
 20
-77.400000000000091
 30
0.0
 11
75.600000500000192
 21
-84.600000000000023
 31
0.0
  0
LINE
  8
DETAIL
  6
CONTINUOUS
 62
     5
 10
68.400000500000147
 20
77.399999999999864
 30
0.0
 11
68.400000500000147
 21
84.599999999999909
 31
0.0
  0
LINE
  8
DETAIL
  6
CONTINUOUS
 62
     5
 10
68.400000500000147
 20
-77.400000000000091
 30
0.0
 11
68.400000500000147
 21
-84.600000000000023
 31
0.0
  0
LINE
  8
DETAIL
  6
CONTINUOUS
 62
     5
 10
68.400000500000147
 20
77.399999999999864
 30
0.0
 11
75.600000500000192
 21
77.399999999999864
 31
0.0
  0
LINE
  8
DETAIL
  6
CONTINUOUS
 62
     5
 10
68.400000500000147
 20
-77.400000000000091
 30
0.0
 11
75.600000500000192
 21
-77.400000000000091
 31
0.0
  0
LINE
  8
DETAIL
  6
CONTINUOUS
 62
     5
 10
59.400000500000147
 20
84.599999999999909
 30
0.0
 11
66.600000500000192
 21
84.599999999999909
 31
0.0
  0
LINE
  8
DETAIL
  6
CONTINUOUS
 62
     5
 10
59.400000500000147
 20
-84.600000000000023
 30
0.0
 11
66.600000500000192
 21
-84.600000000000023
 31
0.0
  0
LINE
  8
DETAIL
  6
CONTINUOUS
 62
     5
 10
66.600000500000192
 20
77.399999999999864
 30
0.0
 11
66.600000500000192
 21
84.599999999999909
 31
0.0
  0
LINE
  8
DETAIL
  6
CONTINUOUS
 62
     5
 10
66.600000500000192
 20
-77.400000000000091
 30
0.0
 11
66.600000500000192
 21
-84.600000000000023
 31
0.0
  0
LINE
  8
DETAIL
  6
CONTINUOUS
 62
     5
 10
59.400000500000147
 20
77.399999999999864
 30
0.0
 11
59.400000500000147
 21
84.599999999999909
 31
0.0
  0
LINE
  8
DETAIL
  6
CONTINUOUS
 62
     5
 10
59.400000500000147
 20
-77.400000000000091
 30
0.0
 11
59.400000500000147
 21
-84.600000000000023
 31
0.0
  0
LINE
  8
DETAIL
  6
CONTINUOUS
 62
     5
 10
59.400000500000147
 20
77.399999999999864
 30
0.0
 11
66.600000500000192
 21
77.399999999999864
 31
0.0
  0
LINE
  8
DETAIL
  6
CONTINUOUS
 62
     5
 10
59.400000500000147
 20
-77.400000000000091
 30
0.0
 11
66.600000500000192
 21
-77.400000000000091
 31
0.0
  0
LINE
  8
DETAIL
  6
CONTINUOUS
 62
     5
 10
50.400000500000147
 20
84.599999999999909
 30
0.0
 11
57.600000500000192
 21
84.599999999999909
 31
0.0
  0
LINE
  8
DETAIL
  6
CONTINUOUS
 62
     5
 10
50.400000500000147
 20
-84.600000000000023
 30
0.0
 11
57.600000500000192
 21
-84.600000000000023
 31
0.0
  0
LINE
  8
DETAIL
  6
CONTINUOUS
 62
     5
 10
57.600000500000192
 20
77.399999999999864
 30
0.0
 11
57.600000500000192
 21
84.599999999999909
 31
0.0
  0
LINE
  8
DETAIL
  6
CONTINUOUS
 62
     5
 10
57.600000500000192
 20
-77.400000000000091
 30
0.0
 11
57.600000500000192
 21
-84.600000000000023
 31
0.0
  0
LINE
  8
DETAIL
  6
CONTINUOUS
 62
     5
 10
50.400000500000147
 20
77.399999999999864
 30
0.0
 11
50.400000500000147
 21
84.599999999999909
 31
0.0
  0
LINE
  8
DETAIL
  6
CONTINUOUS
 62
     5
 10
50.400000500000147
 20
-77.400000000000091
 30
0.0
 11
50.400000500000147
 21
-84.600000000000023
 31
0.0
  0
LINE
  8
DETAIL
  6
CONTINUOUS
 62
     5
 10
50.400000500000147
 20
77.399999999999864
 30
0.0
 11
57.600000500000192
 21
77.399999999999864
 31
0.0
  0
LINE
  8
DETAIL
  6
CONTINUOUS
 62
     5
 10
50.400000500000147
 20
-77.400000000000091
 30
0.0
 11
57.600000500000192
 21
-77.400000000000091
 31
0.0
  0
LINE
  8
DETAIL
  6
CONTINUOUS
 62
     5
 10
41.400000500000147
 20
84.599999999999909
 30
0.0
 11
48.600000500000192
 21
84.599999999999909
 31
0.0
  0
LINE
  8
DETAIL
  6
CONTINUOUS
 62
     5
 10
41.400000500000147
 20
-84.600000000000023
 30
0.0
 11
48.600000500000192
 21
-84.600000000000023
 31
0.0
  0
LINE
  8
DETAIL
  6
CONTINUOUS
 62
     5
 10
48.600000500000192
 20
77.399999999999864
 30
0.0
 11
48.600000500000192
 21
84.599999999999909
 31
0.0
  0
LINE
  8
DETAIL
  6
CONTINUOUS
 62
     5
 10
48.600000500000192
 20
-77.400000000000091
 30
0.0
 11
48.600000500000192
 21
-84.600000000000023
 31
0.0
  0
LINE
  8
DETAIL
  6
CONTINUOUS
 62
     5
 10
41.400000500000147
 20
77.399999999999864
 30
0.0
 11
41.400000500000147
 21
84.599999999999909
 31
0.0
  0
LINE
  8
DETAIL
  6
CONTINUOUS
 62
     5
 10
41.400000500000147
 20
-77.400000000000091
 30
0.0
 11
41.400000500000147
 21
-84.600000000000023
 31
0.0
  0
LINE
  8
DETAIL
  6
CONTINUOUS
 62
     5
 10
41.400000500000147
 20
77.399999999999864
 30
0.0
 11
48.600000500000192
 21
77.399999999999864
 31
0.0
  0
LINE
  8
DETAIL
  6
CONTINUOUS
 62
     5
 10
41.400000500000147
 20
-77.400000000000091
 30
0.0
 11
48.600000500000192
 21
-77.400000000000091
 31
0.0
  0
LINE
  8
DETAIL
  6
CONTINUOUS
 62
     5
 10
39.600000500000192
 20
77.399999999999864
 30
0.0
 11
39.600000500000192
 21
84.599999999999909
 31
0.0
  0
LINE
  8
DETAIL
  6
CONTINUOUS
 62
     5
 10
39.600000500000192
 20
-77.400000000000091
 30
0.0
 11
39.600000500000192
 21
-84.600000000000023
 31
0.0
  0
LINE
  8
DETAIL
  6
CONTINUOUS
 62
     5
 10
86.400000500000147
 20
93.599999999999909
 30
0.0
 11
93.600000500000192
 21
93.599999999999909
 31
0.0
  0
LINE
  8
DETAIL
  6
CONTINUOUS
 62
     5
 10
86.400000500000147
 20
-93.600000000000023
 30
0.0
 11
93.600000500000192
 21
-93.600000000000023
 31
0.0
  0
LINE
  8
DETAIL
  6
CONTINUOUS
 62
     5
 10
93.600000500000192
 20
86.399999999999864
 30
0.0
 11
93.600000500000192
 21
93.599999999999909
 31
0.0
  0
LINE
  8
DETAIL
  6
CONTINUOUS
 62
     5
 10
93.600000500000192
 20
-86.400000000000091
 30
0.0
 11
93.600000500000192
 21
-93.600000000000023
 31
0.0
  0
LINE
  8
DETAIL
  6
CONTINUOUS
 62
     5
 10
86.400000500000147
 20
86.399999999999864
 30
0.0
 11
86.400000500000147
 21
93.599999999999909
 31
0.0
  0
LINE
  8
DETAIL
  6
CONTINUOUS
 62
     5
 10
86.400000500000147
 20
-86.400000000000091
 30
0.0
 11
86.400000500000147
 21
-93.600000000000023
 31
0.0
  0
LINE
  8
DETAIL
  6
CONTINUOUS
 62
     5
 10
86.400000500000147
 20
86.399999999999864
 30
0.0
 11
93.600000500000192
 21
86.399999999999864
 31
0.0
  0
LINE
  8
DETAIL
  6
CONTINUOUS
 62
     5
 10
86.400000500000147
 20
-86.400000000000091
 30
0.0
 11
93.600000500000192
 21
-86.400000000000091
 31
0.0
  0
LINE
  8
DETAIL
  6
CONTINUOUS
 62
     5
 10
77.400000500000147
 20
93.599999999999909
 30
0.0
 11
84.600000500000192
 21
93.599999999999909
 31
0.0
  0
LINE
  8
DETAIL
  6
CONTINUOUS
 62
     5
 10
77.400000500000147
 20
-93.600000000000023
 30
0.0
 11
84.600000500000192
 21
-93.600000000000023
 31
0.0
  0
LINE
  8
DETAIL
  6
CONTINUOUS
 62
     5
 10
84.600000500000192
 20
86.399999999999864
 30
0.0
 11
84.600000500000192
 21
93.599999999999909
 31
0.0
  0
LINE
  8
DETAIL
  6
CONTINUOUS
 62
     5
 10
84.600000500000192
 20
-86.400000000000091
 30
0.0
 11
84.600000500000192
 21
-93.600000000000023
 31
0.0
  0
LINE
  8
DETAIL
  6
CONTINUOUS
 62
     5
 10
77.400000500000147
 20
86.399999999999864
 30
0.0
 11
77.400000500000147
 21
93.599999999999909
 31
0.0
  0
LINE
  8
DETAIL
  6
CONTINUOUS
 62
     5
 10
77.400000500000147
 20
-86.400000000000091
 30
0.0
 11
77.400000500000147
 21
-93.600000000000023
 31
0.0
  0
LINE
  8
DETAIL
  6
CONTINUOUS
 62
     5
 10
77.400000500000147
 20
86.399999999999864
 30
0.0
 11
84.600000500000192
 21
86.399999999999864
 31
0.0
  0
LINE
  8
DETAIL
  6
CONTINUOUS
 62
     5
 10
77.400000500000147
 20
-86.400000000000091
 30
0.0
 11
84.600000500000192
 21
-86.400000000000091
 31
0.0
  0
LINE
  8
DETAIL
  6
CONTINUOUS
 62
     5
 10
68.400000500000147
 20
93.599999999999909
 30
0.0
 11
75.600000500000192
 21
93.599999999999909
 31
0.0
  0
LINE
  8
DETAIL
  6
CONTINUOUS
 62
     5
 10
68.400000500000147
 20
-93.600000000000023
 30
0.0
 11
75.600000500000192
 21
-93.600000000000023
 31
0.0
  0
LINE
  8
DETAIL
  6
CONTINUOUS
 62
     5
 10
75.600000500000192
 20
86.399999999999864
 30
0.0
 11
75.600000500000192
 21
93.599999999999909
 31
0.0
  0
LINE
  8
DETAIL
  6
CONTINUOUS
 62
     5
 10
75.600000500000192
 20
-86.400000000000091
 30
0.0
 11
75.600000500000192
 21
-93.600000000000023
 31
0.0
  0
LINE
  8
DETAIL
  6
CONTINUOUS
 62
     5
 10
68.400000500000147
 20
86.399999999999864
 30
0.0
 11
68.400000500000147
 21
93.599999999999909
 31
0.0
  0
LINE
  8
DETAIL
  6
CONTINUOUS
 62
     5
 10
68.400000500000147
 20
-86.400000000000091
 30
0.0
 11
68.400000500000147
 21
-93.600000000000023
 31
0.0
  0
LINE
  8
DETAIL
  6
CONTINUOUS
 62
     5
 10
68.400000500000147
 20
86.399999999999864
 30
0.0
 11
75.600000500000192
 21
86.399999999999864
 31
0.0
  0
LINE
  8
DETAIL
  6
CONTINUOUS
 62
     5
 10
68.400000500000147
 20
-86.400000000000091
 30
0.0
 11
75.600000500000192
 21
-86.400000000000091
 31
0.0
  0
LINE
  8
DETAIL
  6
CONTINUOUS
 62
     5
 10
59.400000500000147
 20
93.599999999999909
 30
0.0
 11
66.600000500000192
 21
93.599999999999909
 31
0.0
  0
LINE
  8
DETAIL
  6
CONTINUOUS
 62
     5
 10
59.400000500000147
 20
-93.600000000000023
 30
0.0
 11
66.600000500000192
 21
-93.600000000000023
 31
0.0
  0
LINE
  8
DETAIL
  6
CONTINUOUS
 62
     5
 10
66.600000500000192
 20
86.399999999999864
 30
0.0
 11
66.600000500000192
 21
93.599999999999909
 31
0.0
  0
LINE
  8
DETAIL
  6
CONTINUOUS
 62
     5
 10
66.600000500000192
 20
-86.400000000000091
 30
0.0
 11
66.600000500000192
 21
-93.600000000000023
 31
0.0
  0
LINE
  8
DETAIL
  6
CONTINUOUS
 62
     5
 10
59.400000500000147
 20
86.399999999999864
 30
0.0
 11
59.400000500000147
 21
93.599999999999909
 31
0.0
  0
LINE
  8
DETAIL
  6
CONTINUOUS
 62
     5
 10
59.400000500000147
 20
-86.400000000000091
 30
0.0
 11
59.400000500000147
 21
-93.600000000000023
 31
0.0
  0
LINE
  8
DETAIL
  6
CONTINUOUS
 62
     5
 10
59.400000500000147
 20
86.399999999999864
 30
0.0
 11
66.600000500000192
 21
86.399999999999864
 31
0.0
  0
LINE
  8
DETAIL
  6
CONTINUOUS
 62
     5
 10
59.400000500000147
 20
-86.400000000000091
 30
0.0
 11
66.600000500000192
 21
-86.400000000000091
 31
0.0
  0
LINE
  8
DETAIL
  6
CONTINUOUS
 62
     5
 10
50.400000500000147
 20
93.599999999999909
 30
0.0
 11
57.600000500000192
 21
93.599999999999909
 31
0.0
  0
LINE
  8
DETAIL
  6
CONTINUOUS
 62
     5
 10
50.400000500000147
 20
-93.600000000000023
 30
0.0
 11
57.600000500000192
 21
-93.600000000000023
 31
0.0
  0
LINE
  8
DETAIL
  6
CONTINUOUS
 62
     5
 10
57.600000500000192
 20
86.399999999999864
 30
0.0
 11
57.600000500000192
 21
93.599999999999909
 31
0.0
  0
LINE
  8
DETAIL
  6
CONTINUOUS
 62
     5
 10
57.600000500000192
 20
-86.400000000000091
 30
0.0
 11
57.600000500000192
 21
-93.600000000000023
 31
0.0
  0
LINE
  8
DETAIL
  6
CONTINUOUS
 62
     5
 10
50.400000500000147
 20
86.399999999999864
 30
0.0
 11
50.400000500000147
 21
93.599999999999909
 31
0.0
  0
LINE
  8
DETAIL
  6
CONTINUOUS
 62
     5
 10
50.400000500000147
 20
-86.400000000000091
 30
0.0
 11
50.400000500000147
 21
-93.600000000000023
 31
0.0
  0
LINE
  8
DETAIL
  6
CONTINUOUS
 62
     5
 10
50.400000500000147
 20
86.399999999999864
 30
0.0
 11
57.600000500000192
 21
86.399999999999864
 31
0.0
  0
LINE
  8
DETAIL
  6
CONTINUOUS
 62
     5
 10
50.400000500000147
 20
-86.400000000000091
 30
0.0
 11
57.600000500000192
 21
-86.400000000000091
 31
0.0
  0
LINE
  8
DETAIL
  6
CONTINUOUS
 62
     5
 10
41.400000500000147
 20
93.599999999999909
 30
0.0
 11
48.600000500000192
 21
93.599999999999909
 31
0.0
  0
LINE
  8
DETAIL
  6
CONTINUOUS
 62
     5
 10
41.400000500000147
 20
-93.600000000000023
 30
0.0
 11
48.600000500000192
 21
-93.600000000000023
 31
0.0
  0
LINE
  8
DETAIL
  6
CONTINUOUS
 62
     5
 10
48.600000500000192
 20
86.399999999999864
 30
0.0
 11
48.600000500000192
 21
93.599999999999909
 31
0.0
  0
LINE
  8
DETAIL
  6
CONTINUOUS
 62
     5
 10
48.600000500000192
 20
-86.400000000000091
 30
0.0
 11
48.600000500000192
 21
-93.600000000000023
 31
0.0
  0
LINE
  8
DETAIL
  6
CONTINUOUS
 62
     5
 10
41.400000500000147
 20
86.399999999999864
 30
0.0
 11
41.400000500000147
 21
93.599999999999909
 31
0.0
  0
LINE
  8
DETAIL
  6
CONTINUOUS
 62
     5
 10
41.400000500000147
 20
-86.400000000000091
 30
0.0
 11
41.400000500000147
 21
-93.600000000000023
 31
0.0
  0
LINE
  8
DETAIL
  6
CONTINUOUS
 62
     5
 10
41.400000500000147
 20
86.399999999999864
 30
0.0
 11
48.600000500000192
 21
86.399999999999864
 31
0.0
  0
LINE
  8
DETAIL
  6
CONTINUOUS
 62
     5
 10
41.400000500000147
 20
-86.400000000000091
 30
0.0
 11
48.600000500000192
 21
-86.400000000000091
 31
0.0
  0
LINE
  8
DETAIL
  6
CONTINUOUS
 62
     5
 10
39.600000500000192
 20
86.399999999999864
 30
0.0
 11
39.600000500000192
 21
93.599999999999909
 31
0.0
  0
LINE
  8
DETAIL
  6
CONTINUOUS
 62
     5
 10
39.600000500000192
 20
-86.400000000000091
 30
0.0
 11
39.600000500000192
 21
-93.600000000000023
 31
0.0
  0
LINE
  8
DETAIL
  6
CONTINUOUS
 62
     5
 10
101.0000005000001
 20
97.0
 30
0.0
 11
99.500000500000056
 21
95.5
 31
0.0
  0
LINE
  8
DETAIL
  6
CONTINUOUS
 62
     5
 10
101.0000005000001
 20
-97.0
 30
0.0
 11
99.500000500000056
 21
-95.5
 31
0.0
  0
LINE
  8
DETAIL
  6
CONTINUOUS
 62
     5
 10
97.000000500000056
 20
101.0
 30
0.0
 11
95.500000500000056
 21
99.5
 31
0.0
  0
LINE
  8
DETAIL
  6
CONTINUOUS
 62
     5
 10
97.000000500000056
 20
-101.0
 30
0.0
 11
95.500000500000056
 21
-99.5
 31
0.0
  0
LINE
  8
DETAIL
  6
CONTINUOUS
 62
     5
 10
5.4000005000001474
 20
75.599999999999909
 30
0.0
 11
12.60000050000019
 21
75.599999999999909
 31
0.0
  0
LINE
  8
DETAIL
  6
CONTINUOUS
 62
     5
 10
5.4000005000001474
 20
-75.600000000000023
 30
0.0
 11
12.60000050000019
 21
-75.600000000000023
 31
0.0
  0
LINE
  8
DETAIL
  6
CONTINUOUS
 62
     5
 10
3.600000500000192
 20
77.399999999999864
 30
0.0
 11
3.600000500000192
 21
84.599999999999909
 31
0.0
  0
LINE
  8
DETAIL
  6
CONTINUOUS
 62
     5
 10
3.600000500000192
 20
-77.400000000000091
 30
0.0
 11
3.600000500000192
 21
-84.600000000000023
 31
0.0
  0
ARC
  8
DETAIL
  6
CONTINUOUS
 62
     5
 10
-141.9999994999998
 20
142.0
 30
0.0
 40
1.0
 50
90.0
 51
180.0
  0
ARC
  8
OUTLINE
  6
CONTINUOUS
 62
     3
 10
-141.9999994999998
 20
142.0
 30
0.0
 40
1.0
 50
90.0
 51
180.0
  0
ARC
  8
DETAIL
  6
CONTINUOUS
 62
     5
 10
142.0000005000002
 20
142.0
 30
0.0
 40
1.0
 50
0.0
 51
90.0
  0
ARC
  8
OUTLINE
  6
CONTINUOUS
 62
     3
 10
142.0000005000002
 20
142.0
 30
0.0
 40
1.0
 50
0.0
 51
90.0
  0
ARC
  8
DETAIL
  6
CONTINUOUS
 62
     5
 10
142.0000005000002
 20
-142.0
 30
0.0
 40
1.0
 50
270.0
 51
0.0
  0
ARC
  8
OUTLINE
  6
CONTINUOUS
 62
     3
 10
142.0000005000002
 20
-142.0
 30
0.0
 40
1.0
 50
270.0
 51
0.0
  0
ARC
  8
DETAIL
  6
CONTINUOUS
 62
     5
 10
-141.9999994999998
 20
-142.0
 30
0.0
 40
1.0
 50
180.0
 51
270.0
  0
ARC
  8
OUTLINE
  6
CONTINUOUS
 62
     3
 10
-141.9999994999998
 20
-142.0
 30
0.0
 40
1.0
 50
180.0
 51
270.0
  0
LINE
  8
DETAIL
  6
CONTINUOUS
 62
     5
 10
-136.20564849999991
 20
135.20564999999991
 30
0.0
 11
-136.20564849999991
 21
0.0
 31
0.0
  0
LINE
  8
DETAIL
  6
CONTINUOUS
 62
     5
 10
136.20564949999991
 20
135.20564999999991
 30
0.0
 11
136.20564949999991
 21
0.0
 31
0.0
  0
LINE
  8
DETAIL
  6
CONTINUOUS
 62
     5
 10
136.20564949999991
 20
-135.20564900000011
 30
0.0
 11
136.20564949999991
 21
0.0
 31
0.0
  0
LINE
  8
DETAIL
  6
CONTINUOUS
 62
     5
 10
-136.20564849999991
 20
-135.20564900000011
 30
0.0
 11
-136.20564849999991
 21
0.0
 31
0.0
  0
LINE
  8
DETAIL
  6
CONTINUOUS
 62
     5
 10
-142.9999994999998
 20
0.0
 30
0.0
 11
-142.9999994999998
 21
142.0
 31
0.0
  0
LINE
  8
OUTLINE
  6
CONTINUOUS
 62
     3
 10
-142.9999994999998
 20
0.0
 30
0.0
 11
-142.9999994999998
 21
142.0
 31
0.0
  0
LINE
  8
DETAIL
  6
CONTINUOUS
 62
     5
 10
143.0000005000002
 20
0.0
 30
0.0
 11
143.0000005000002
 21
142.0
 31
0.0
  0
LINE
  8
OUTLINE
  6
CONTINUOUS
 62
     3
 10
143.0000005000002
 20
0.0
 30
0.0
 11
143.0000005000002
 21
142.0
 31
0.0
  0
LINE
  8
DETAIL
  6
CONTINUOUS
 62
     5
 10
143.0000005000002
 20
0.0
 30
0.0
 11
143.0000005000002
 21
-142.0
 31
0.0
  0
LINE
  8
OUTLINE
  6
CONTINUOUS
 62
     3
 10
143.0000005000002
 20
0.0
 30
0.0
 11
143.0000005000002
 21
-142.0
 31
0.0
  0
LINE
  8
DETAIL
  6
CONTINUOUS
 62
     5
 10
-142.9999994999998
 20
0.0
 30
0.0
 11
-142.9999994999998
 21
-142.0
 31
0.0
  0
LINE
  8
OUTLINE
  6
CONTINUOUS
 62
     3
 10
-142.9999994999998
 20
0.0
 30
0.0
 11
-142.9999994999998
 21
-142.0
 31
0.0
  0
LINE
  8
DETAIL
  6
CONTINUOUS
 62
     5
 10
0.0000005000000556
 20
136.20564999999991
 30
0.0
 11
-135.20564849999991
 21
136.20564999999991
 31
0.0
  0
LINE
  8
DETAIL
  6
CONTINUOUS
 62
     5
 10
0.0000005000000556
 20
136.20564999999991
 30
0.0
 11
135.20564949999991
 21
136.20564999999991
 31
0.0
  0
LINE
  8
DETAIL
  6
CONTINUOUS
 62
     5
 10
0.0000005000000556
 20
-136.20564900000011
 30
0.0
 11
135.20564949999991
 21
-136.20564900000011
 31
0.0
  0
LINE
  8
DETAIL
  6
CONTINUOUS
 62
     5
 10
0.0000005000000556
 20
-136.20564900000011
 30
0.0
 11
-135.20564849999991
 21
-136.20564900000011
 31
0.0
  0
LINE
  8
DETAIL
  6
CONTINUOUS
 62
     5
 10
-99.499999499999944
 20
95.5
 30
0.0
 11
-99.499999499999944
 21
0.0
 31
0.0
  0
LINE
  8
DETAIL
  6
CONTINUOUS
 62
     5
 10
-99.499999499999944
 20
-95.5
 30
0.0
 11
-99.499999499999944
 21
0.0
 31
0.0
  0
LINE
  8
DETAIL
  6
CONTINUOUS
 62
     5
 10
-100.9999994999999
 20
97.0
 30
0.0
 11
-100.9999994999999
 21
0.0
 31
0.0
  0
LINE
  8
DETAIL
  6
CONTINUOUS
 62
     5
 10
-100.9999994999999
 20
-97.0
 30
0.0
 11
-100.9999994999999
 21
0.0
 31
0.0
  0
LINE
  8
DETAIL
  6
CONTINUOUS
 62
     5
 10
-141.9999994999998
 20
143.0
 30
0.0
 11
0.0000005000000556
 21
143.0
 31
0.0
  0
LINE
  8
OUTLINE
  6
CONTINUOUS
 62
     3
 10
-141.9999994999998
 20
143.0
 30
0.0
 11
-52.592719500000037
 21
143.0
 31
0.0
  0
LINE
  8
DETAIL
  6
CONTINUOUS
 62
     5
 10
142.0000005000002
 20
143.0
 30
0.0
 11
0.0000005000000556
 21
143.0
 31
0.0
  0
LINE
  8
OUTLINE
  6
CONTINUOUS
 62
     3
 10
142.0000005000002
 20
143.0
 30
0.0
 11
52.592720499999928
 21
143.0
 31
0.0
  0
LINE
  8
DETAIL
  6
CONTINUOUS
 62
     5
 10
142.0000005000002
 20
-143.0
 30
0.0
 11
0.0000005000000556
 21
-143.0
 31
0.0
  0
LINE
  8
OUTLINE
  6
CONTINUOUS
 62
     3
 10
142.0000005000002
 20
-143.0
 30
0.0
 11
53.287869500000063
 21
-143.0
 31
0.0
  0
LINE
  8
DETAIL
  6
CONTINUOUS
 62
     5
 10
-141.9999994999998
 20
-143.0
 30
0.0
 11
0.0000005000000556
 21
-143.0
 31
0.0
  0
LINE
  8
OUTLINE
  6
CONTINUOUS
 62
     3
 10
-141.9999994999998
 20
-143.0
 30
0.0
 11
-53.28796449999993
 21
-143.0
 31
0.0
  0
LINE
  8
DETAIL
  6
CONTINUOUS
 62
     5
 10
-93.599999499999853
 20
3.5999999999999091
 30
0.0
 11
-93.599999499999853
 21
0.0
 31
0.0
  0
LINE
  8
DETAIL
  6
CONTINUOUS
 62
     5
 10
-93.599999499999853
 20
-3.600000000000136
 30
0.0
 11
-93.599999499999853
 21
0.0
 31
0.0
  0
LINE
  8
DETAIL
  6
CONTINUOUS
 62
     5
 10
-86.399999499999808
 20
3.5999999999999091
 30
0.0
 11
-86.399999499999808
 21
0.0
 31
0.0
  0
LINE
  8
DETAIL
  6
CONTINUOUS
 62
     5
 10
-86.399999499999808
 20
-3.600000000000136
 30
0.0
 11
-86.399999499999808
 21
0.0
 31
0.0
  0
LINE
  8
DETAIL
  6
CONTINUOUS
 62
     5
 10
-84.599999499999853
 20
3.5999999999999091
 30
0.0
 11
-84.599999499999853
 21
0.0
 31
0.0
  0
LINE
  8
DETAIL
  6
CONTINUOUS
 62
     5
 10
-84.599999499999853
 20
-3.600000000000136
 30
0.0
 11
-84.599999499999853
 21
0.0
 31
0.0
  0
LINE
  8
DETAIL
  6
CONTINUOUS
 62
     5
 10
-77.399999499999808
 20
3.5999999999999091
 30
0.0
 11
-77.399999499999808
 21
0.0
 31
0.0
  0
LINE
  8
DETAIL
  6
CONTINUOUS
 62
     5
 10
-77.399999499999808
 20
-3.600000000000136
 30
0.0
 11
-77.399999499999808
 21
0.0
 31
0.0
  0
LINE
  8
DETAIL
  6
CONTINUOUS
 62
     5
 10
-75.599999499999853
 20
3.5999999999999091
 30
0.0
 11
-75.599999499999853
 21
0.0
 31
0.0
  0
LINE
  8
DETAIL
  6
CONTINUOUS
 62
     5
 10
-75.599999499999853
 20
-3.600000000000136
 30
0.0
 11
-75.599999499999853
 21
0.0
 31
0.0
  0
LINE
  8
DETAIL
  6
CONTINUOUS
 62
     5
 10
-68.399999499999808
 20
3.5999999999999091
 30
0.0
 11
-68.399999499999808
 21
0.0
 31
0.0
  0
LINE
  8
DETAIL
  6
CONTINUOUS
 62
     5
 10
-68.399999499999808
 20
-3.600000000000136
 30
0.0
 11
-68.399999499999808
 21
0.0
 31
0.0
  0
LINE
  8
DETAIL
  6
CONTINUOUS
 62
     5
 10
-66.599999499999853
 20
3.5999999999999091
 30
0.0
 11
-66.599999499999853
 21
0.0
 31
0.0
  0
LINE
  8
DETAIL
  6
CONTINUOUS
 62
     5
 10
-66.599999499999853
 20
-3.600000000000136
 30
0.0
 11
-66.599999499999853
 21
0.0
 31
0.0
  0
LINE
  8
DETAIL
  6
CONTINUOUS
 62
     5
 10
-59.399999499999808
 20
3.5999999999999091
 30
0.0
 11
-59.399999499999808
 21
0.0
 31
0.0
  0
LINE
  8
DETAIL
  6
CONTINUOUS
 62
     5
 10
-59.399999499999808
 20
-3.600000000000136
 30
0.0
 11
-59.399999499999808
 21
0.0
 31
0.0
  0
LINE
  8
DETAIL
  6
CONTINUOUS
 62
     5
 10
-57.599999499999853
 20
3.5999999999999091
 30
0.0
 11
-57.599999499999853
 21
0.0
 31
0.0
  0
LINE
  8
DETAIL
  6
CONTINUOUS
 62
     5
 10
-57.599999499999853
 20
-3.600000000000136
 30
0.0
 11
-57.599999499999853
 21
0.0
 31
0.0
  0
LINE
  8
DETAIL
  6
CONTINUOUS
 62
     5
 10
-50.399999499999808
 20
3.5999999999999091
 30
0.0
 11
-50.399999499999808
 21
0.0
 31
0.0
  0
LINE
  8
DETAIL
  6
CONTINUOUS
 62
     5
 10
-50.399999499999808
 20
-3.600000000000136
 30
0.0
 11
-50.399999499999808
 21
0.0
 31
0.0
  0
LINE
  8
DETAIL
  6
CONTINUOUS
 62
     5
 10
-48.599999499999853
 20
3.5999999999999091
 30
0.0
 11
-48.599999499999853
 21
0.0
 31
0.0
  0
LINE
  8
DETAIL
  6
CONTINUOUS
 62
     5
 10
-48.599999499999853
 20
-3.600000000000136
 30
0.0
 11
-48.599999499999853
 21
0.0
 31
0.0
  0
LINE
  8
DETAIL
  6
CONTINUOUS
 62
     5
 10
-41.399999499999808
 20
3.5999999999999091
 30
0.0
 11
-41.399999499999808
 21
0.0
 31
0.0
  0
LINE
  8
DETAIL
  6
CONTINUOUS
 62
     5
 10
-41.399999499999808
 20
-3.600000000000136
 30
0.0
 11
-41.399999499999808
 21
0.0
 31
0.0
  0
LINE
  8
DETAIL
  6
CONTINUOUS
 62
     5
 10
-39.599999499999853
 20
3.5999999999999091
 30
0.0
 11
-39.599999499999853
 21
0.0
 31
0.0
  0
LINE
  8
DETAIL
  6
CONTINUOUS
 62
     5
 10
-39.599999499999853
 20
-3.600000000000136
 30
0.0
 11
-39.599999499999853
 21
0.0
 31
0.0
  0
LINE
  8
DETAIL
  6
CONTINUOUS
 62
     5
 10
-32.399999499999808
 20
3.5999999999999091
 30
0.0
 11
-32.399999499999808
 21
0.0
 31
0.0
  0
LINE
  8
DETAIL
  6
CONTINUOUS
 62
     5
 10
-32.399999499999808
 20
-3.600000000000136
 30
0.0
 11
-32.399999499999808
 21
0.0
 31
0.0
  0
LINE
  8
DETAIL
  6
CONTINUOUS
 62
     5
 10
-30.59999949999985
 20
3.5999999999999091
 30
0.0
 11
-30.59999949999985
 21
0.0
 31
0.0
  0
LINE
  8
DETAIL
  6
CONTINUOUS
 62
     5
 10
-30.59999949999985
 20
-3.600000000000136
 30
0.0
 11
-30.59999949999985
 21
0.0
 31
0.0
  0
LINE
  8
DETAIL
  6
CONTINUOUS
 62
     5
 10
-23.399999499999812
 20
3.5999999999999091
 30
0.0
 11
-23.399999499999812
 21
0.0
 31
0.0
  0
LINE
  8
DETAIL
  6
CONTINUOUS
 62
     5
 10
-23.399999499999812
 20
-3.600000000000136
 30
0.0
 11
-23.399999499999812
 21
0.0
 31
0.0
  0
LINE
  8
DETAIL
  6
CONTINUOUS
 62
     5
 10
-21.59999949999985
 20
3.5999999999999091
 30
0.0
 11
-21.59999949999985
 21
0.0
 31
0.0
  0
LINE
  8
DETAIL
  6
CONTINUOUS
 62
     5
 10
-21.59999949999985
 20
-3.600000000000136
 30
0.0
 11
-21.59999949999985
 21
0.0
 31
0.0
  0
LINE
  8
DETAIL
  6
CONTINUOUS
 62
     5
 10
-14.39999949999981
 20
3.5999999999999091
 30
0.0
 11
-14.39999949999981
 21
0.0
 31
0.0
  0
LINE
  8
DETAIL
  6
CONTINUOUS
 62
     5
 10
-14.39999949999981
 20
-3.600000000000136
 30
0.0
 11
-14.39999949999981
 21
0.0
 31
0.0
  0
LINE
  8
DETAIL
  6
CONTINUOUS
 62
     5
 10
-12.59999949999985
 20
3.5999999999999091
 30
0.0
 11
-12.59999949999985
 21
0.0
 31
0.0
  0
LINE
  8
DETAIL
  6
CONTINUOUS
 62
     5
 10
-12.59999949999985
 20
-3.600000000000136
 30
0.0
 11
-12.59999949999985
 21
0.0
 31
0.0
  0
LINE
  8
DETAIL
  6
CONTINUOUS
 62
     5
 10
-5.399999499999808
 20
3.5999999999999091
 30
0.0
 11
-5.399999499999808
 21
0.0
 31
0.0
  0
LINE
  8
DETAIL
  6
CONTINUOUS
 62
     5
 10
-5.399999499999808
 20
-3.600000000000136
 30
0.0
 11
-5.399999499999808
 21
0.0
 31
0.0
  0
LINE
  8
DETAIL
  6
CONTINUOUS
 62
     5
 10
-3.599999499999853
 20
3.5999999999999091
 30
0.0
 11
-3.599999499999853
 21
0.0
 31
0.0
  0
LINE
  8
DETAIL
  6
CONTINUOUS
 62
     5
 10
-3.599999499999853
 20
-3.600000000000136
 30
0.0
 11
-3.599999499999853
 21
0.0
 31
0.0
  0
LINE
  8
DETAIL
  6
CONTINUOUS
 62
     5
 10
-32.399999499999808
 20
57.599999999999909
 30
0.0
 11
-39.599999499999853
 21
57.599999999999909
 31
0.0
  0
LINE
  8
DETAIL
  6
CONTINUOUS
 62
     5
 10
-32.399999499999808
 20
-57.600000000000023
 30
0.0
 11
-39.599999499999853
 21
-57.600000000000023
 31
0.0
  0
LINE
  8
DETAIL
  6
CONTINUOUS
 62
     5
 10
-32.399999499999808
 20
50.399999999999856
 30
0.0
 11
-32.399999499999808
 21
57.599999999999909
 31
0.0
  0
LINE
  8
DETAIL
  6
CONTINUOUS
 62
     5
 10
-32.399999499999808
 20
-50.400000000000091
 30
0.0
 11
-32.399999499999808
 21
-57.600000000000023
 31
0.0
  0
LINE
  8
DETAIL
  6
CONTINUOUS
 62
     5
 10
-32.399999499999808
 20
50.399999999999856
 30
0.0
 11
-39.599999499999853
 21
50.399999999999856
 31
0.0
  0
LINE
  8
DETAIL
  6
CONTINUOUS
 62
     5
 10
-32.399999499999808
 20
-50.400000000000091
 30
0.0
 11
-39.599999499999853
 21
-50.400000000000091
 31
0.0
  0
LINE
  8
DETAIL
  6
CONTINUOUS
 62
     5
 10
-23.399999499999812
 20
57.599999999999909
 30
0.0
 11
-30.59999949999985
 21
57.599999999999909
 31
0.0
  0
LINE
  8
DETAIL
  6
CONTINUOUS
 62
     5
 10
-23.399999499999812
 20
-57.600000000000023
 30
0.0
 11
-30.59999949999985
 21
-57.600000000000023
 31
0.0
  0
LINE
  8
DETAIL
  6
CONTINUOUS
 62
     5
 10
-32.399999499999808
 20
66.599999999999909
 30
0.0
 11
-39.599999499999853
 21
66.599999999999909
 31
0.0
  0
LINE
  8
DETAIL
  6
CONTINUOUS
 62
     5
 10
-32.399999499999808
 20
-66.600000000000023
 30
0.0
 11
-39.599999499999853
 21
-66.600000000000023
 31
0.0
  0
LINE
  8
DETAIL
  6
CONTINUOUS
 62
     5
 10
-32.399999499999808
 20
59.399999999999856
 30
0.0
 11
-32.399999499999808
 21
66.599999999999909
 31
0.0
  0
LINE
  8
DETAIL
  6
CONTINUOUS
 62
     5
 10
-32.399999499999808
 20
-59.400000000000091
 30
0.0
 11
-32.399999499999808
 21
-66.600000000000023
 31
0.0
  0
LINE
  8
DETAIL
  6
CONTINUOUS
 62
     5
 10
-32.399999499999808
 20
59.399999999999856
 30
0.0
 11
-39.599999499999853
 21
59.399999999999856
 31
0.0
  0
LINE
  8
DETAIL
  6
CONTINUOUS
 62
     5
 10
-32.399999499999808
 20
-59.400000000000091
 30
0.0
 11
-39.599999499999853
 21
-59.400000000000091
 31
0.0
  0
LINE
  8
DETAIL
  6
CONTINUOUS
 62
     5
 10
-23.399999499999812
 20
66.599999999999909
 30
0.0
 11
-30.59999949999985
 21
66.599999999999909
 31
0.0
  0
LINE
  8
DETAIL
  6
CONTINUOUS
 62
     5
 10
-23.399999499999812
 20
-66.600000000000023
 30
0.0
 11
-30.59999949999985
 21
-66.600000000000023
 31
0.0
  0
LINE
  8
DETAIL
  6
CONTINUOUS
 62
     5
 10
-30.59999949999985
 20
59.399999999999856
 30
0.0
 11
-30.59999949999985
 21
66.599999999999909
 31
0.0
  0
LINE
  8
DETAIL
  6
CONTINUOUS
 62
     5
 10
-30.59999949999985
 20
-59.400000000000091
 30
0.0
 11
-30.59999949999985
 21
-66.600000000000023
 31
0.0
  0
LINE
  8
DETAIL
  6
CONTINUOUS
 62
     5
 10
-23.399999499999812
 20
59.399999999999856
 30
0.0
 11
-23.399999499999812
 21
66.599999999999909
 31
0.0
  0
LINE
  8
DETAIL
  6
CONTINUOUS
 62
     5
 10
-23.399999499999812
 20
-59.400000000000091
 30
0.0
 11
-23.399999499999812
 21
-66.600000000000023
 31
0.0
  0
LINE
  8
DETAIL
  6
CONTINUOUS
 62
     5
 10
-23.399999499999812
 20
59.399999999999856
 30
0.0
 11
-30.59999949999985
 21
59.399999999999856
 31
0.0
  0
LINE
  8
DETAIL
  6
CONTINUOUS
 62
     5
 10
-23.399999499999812
 20
-59.400000000000091
 30
0.0
 11
-30.59999949999985
 21
-59.400000000000091
 31
0.0
  0
LINE
  8
DETAIL
  6
CONTINUOUS
 62
     5
 10
-32.399999499999808
 20
68.399999999999864
 30
0.0
 11
-32.399999499999808
 21
75.599999999999909
 31
0.0
  0
LINE
  8
DETAIL
  6
CONTINUOUS
 62
     5
 10
-32.399999499999808
 20
-68.400000000000091
 30
0.0
 11
-32.399999499999808
 21
-75.600000000000023
 31
0.0
  0
LINE
  8
DETAIL
  6
CONTINUOUS
 62
     5
 10
-32.399999499999808
 20
68.399999999999864
 30
0.0
 11
-39.599999499999853
 21
68.399999999999864
 31
0.0
  0
LINE
  8
DETAIL
  6
CONTINUOUS
 62
     5
 10
-32.399999499999808
 20
-68.400000000000091
 30
0.0
 11
-39.599999499999853
 21
-68.400000000000091
 31
0.0
  0
LINE
  8
DETAIL
  6
CONTINUOUS
 62
     5
 10
-30.59999949999985
 20
68.399999999999864
 30
0.0
 11
-30.59999949999985
 21
75.599999999999909
 31
0.0
  0
LINE
  8
DETAIL
  6
CONTINUOUS
 62
     5
 10
-30.59999949999985
 20
-68.400000000000091
 30
0.0
 11
-30.59999949999985
 21
-75.600000000000023
 31
0.0
  0
LINE
  8
DETAIL
  6
CONTINUOUS
 62
     5
 10
-23.399999499999812
 20
68.399999999999864
 30
0.0
 11
-23.399999499999812
 21
75.599999999999909
 31
0.0
  0
LINE
  8
DETAIL
  6
CONTINUOUS
 62
     5
 10
-23.399999499999812
 20
-68.400000000000091
 30
0.0
 11
-23.399999499999812
 21
-75.600000000000023
 31
0.0
  0
LINE
  8
DETAIL
  6
CONTINUOUS
 62
     5
 10
-23.399999499999812
 20
68.399999999999864
 30
0.0
 11
-30.59999949999985
 21
68.399999999999864
 31
0.0
  0
LINE
  8
DETAIL
  6
CONTINUOUS
 62
     5
 10
-23.399999499999812
 20
-68.400000000000091
 30
0.0
 11
-30.59999949999985
 21
-68.400000000000091
 31
0.0
  0
LINE
  8
DETAIL
  6
CONTINUOUS
 62
     5
 10
-21.59999949999985
 20
68.399999999999864
 30
0.0
 11
-21.59999949999985
 21
75.599999999999909
 31
0.0
  0
LINE
  8
DETAIL
  6
CONTINUOUS
 62
     5
 10
-21.59999949999985
 20
-68.400000000000091
 30
0.0
 11
-21.59999949999985
 21
-75.600000000000023
 31
0.0
  0
LINE
  8
DETAIL
  6
CONTINUOUS
 62
     5
 10
-14.39999949999981
 20
68.399999999999864
 30
0.0
 11
-14.39999949999981
 21
75.599999999999909
 31
0.0
  0
LINE
  8
DETAIL
  6
CONTINUOUS
 62
     5
 10
-14.39999949999981
 20
-68.400000000000091
 30
0.0
 11
-14.39999949999981
 21
-75.600000000000023
 31
0.0
  0
LINE
  8
DETAIL
  6
CONTINUOUS
 62
     5
 10
-14.39999949999981
 20
68.399999999999864
 30
0.0
 11
-21.59999949999985
 21
68.399999999999864
 31
0.0
  0
LINE
  8
DETAIL
  6
CONTINUOUS
 62
     5
 10
-14.39999949999981
 20
-68.400000000000091
 30
0.0
 11
-21.59999949999985
 21
-68.400000000000091
 31
0.0
  0
LINE
  8
DETAIL
  6
CONTINUOUS
 62
     5
 10
-14.39999949999981
 20
68.399999999999864
 30
0.0
 11
-21.59999949999985
 21
68.399999999999864
 31
0.0
  0
LINE
  8
DETAIL
  6
CONTINUOUS
 62
     5
 10
-14.39999949999981
 20
-68.400000000000091
 30
0.0
 11
-21.59999949999985
 21
-68.400000000000091
 31
0.0
  0
LINE
  8
DETAIL
  6
CONTINUOUS
 62
     5
 10
-14.39999949999981
 20
75.599999999999909
 30
0.0
 11
-14.39999949999981
 21
68.399999999999864
 31
0.0
  0
LINE
  8
DETAIL
  6
CONTINUOUS
 62
     5
 10
-14.39999949999981
 20
-75.600000000000023
 30
0.0
 11
-14.39999949999981
 21
-68.400000000000091
 31
0.0
  0
LINE
  8
DETAIL
  6
CONTINUOUS
 62
     5
 10
-32.399999499999808
 20
59.399999999999856
 30
0.0
 11
-39.599999499999853
 21
59.399999999999856
 31
0.0
  0
LINE
  8
DETAIL
  6
CONTINUOUS
 62
     5
 10
-32.399999499999808
 20
-59.400000000000091
 30
0.0
 11
-39.599999499999853
 21
-59.400000000000091
 31
0.0
  0
LINE
  8
DETAIL
  6
CONTINUOUS
 62
     5
 10
-32.399999499999808
 20
50.399999999999856
 30
0.0
 11
-39.599999499999853
 21
50.399999999999856
 31
0.0
  0
LINE
  8
DETAIL
  6
CONTINUOUS
 62
     5
 10
-32.399999499999808
 20
-50.400000000000091
 30
0.0
 11
-39.599999499999853
 21
-50.400000000000091
 31
0.0
  0
LINE
  8
DETAIL
  6
CONTINUOUS
 62
     5
 10
-32.399999499999808
 20
57.599999999999909
 30
0.0
 11
-32.399999499999808
 21
50.399999999999856
 31
0.0
  0
LINE
  8
DETAIL
  6
CONTINUOUS
 62
     5
 10
-32.399999499999808
 20
-57.600000000000023
 30
0.0
 11
-32.399999499999808
 21
-50.400000000000091
 31
0.0
  0
LINE
  8
DETAIL
  6
CONTINUOUS
 62
     5
 10
-86.399999499999808
 20
3.5999999999999091
 30
0.0
 11
-93.599999499999853
 21
3.5999999999999091
 31
0.0
  0
LINE
  8
DETAIL
  6
CONTINUOUS
 62
     5
 10
-86.399999499999808
 20
-3.600000000000136
 30
0.0
 11
-93.599999499999853
 21
-3.600000000000136
 31
0.0
  0
LINE
  8
DETAIL
  6
CONTINUOUS
 62
     5
 10
-86.399999499999808
 20
12.599999999999911
 30
0.0
 11
-93.599999499999853
 21
12.599999999999911
 31
0.0
  0
LINE
  8
DETAIL
  6
CONTINUOUS
 62
     5
 10
-86.399999499999808
 20
-12.60000000000014
 30
0.0
 11
-93.599999499999853
 21
-12.60000000000014
 31
0.0
  0
LINE
  8
DETAIL
  6
CONTINUOUS
 62
     5
 10
-93.599999499999853
 20
5.3999999999998636
 30
0.0
 11
-93.599999499999853
 21
12.599999999999911
 31
0.0
  0
LINE
  8
DETAIL
  6
CONTINUOUS
 62
     5
 10
-93.599999499999853
 20
-5.4000000000000909
 30
0.0
 11
-93.599999499999853
 21
-12.60000000000014
 31
0.0
  0
LINE
  8
DETAIL
  6
CONTINUOUS
 62
     5
 10
-86.399999499999808
 20
5.3999999999998636
 30
0.0
 11
-86.399999499999808
 21
12.599999999999911
 31
0.0
  0
LINE
  8
DETAIL
  6
CONTINUOUS
 62
     5
 10
-86.399999499999808
 20
-5.4000000000000909
 30
0.0
 11
-86.399999499999808
 21
-12.60000000000014
 31
0.0
  0
LINE
  8
DETAIL
  6
CONTINUOUS
 62
     5
 10
-86.399999499999808
 20
5.3999999999998636
 30
0.0
 11
-93.599999499999853
 21
5.3999999999998636
 31
0.0
  0
LINE
  8
DETAIL
  6
CONTINUOUS
 62
     5
 10
-86.399999499999808
 20
-5.4000000000000909
 30
0.0
 11
-93.599999499999853
 21
-5.4000000000000909
 31
0.0
  0
LINE
  8
DETAIL
  6
CONTINUOUS
 62
     5
 10
-77.399999499999808
 20
12.599999999999911
 30
0.0
 11
-84.599999499999853
 21
12.599999999999911
 31
0.0
  0
LINE
  8
DETAIL
  6
CONTINUOUS
 62
     5
 10
-77.399999499999808
 20
-12.60000000000014
 30
0.0
 11
-84.599999499999853
 21
-12.60000000000014
 31
0.0
  0
LINE
  8
DETAIL
  6
CONTINUOUS
 62
     5
 10
-84.599999499999853
 20
5.3999999999998636
 30
0.0
 11
-84.599999499999853
 21
12.599999999999911
 31
0.0
  0
LINE
  8
DETAIL
  6
CONTINUOUS
 62
     5
 10
-84.599999499999853
 20
-5.4000000000000909
 30
0.0
 11
-84.599999499999853
 21
-12.60000000000014
 31
0.0
  0
LINE
  8
DETAIL
  6
CONTINUOUS
 62
     5
 10
-77.399999499999808
 20
5.3999999999998636
 30
0.0
 11
-77.399999499999808
 21
12.599999999999911
 31
0.0
  0
LINE
  8
DETAIL
  6
CONTINUOUS
 62
     5
 10
-77.399999499999808
 20
-5.4000000000000909
 30
0.0
 11
-77.399999499999808
 21
-12.60000000000014
 31
0.0
  0
LINE
  8
DETAIL
  6
CONTINUOUS
 62
     5
 10
-77.399999499999808
 20
5.3999999999998636
 30
0.0
 11
-84.599999499999853
 21
5.3999999999998636
 31
0.0
  0
LINE
  8
DETAIL
  6
CONTINUOUS
 62
     5
 10
-77.399999499999808
 20
-5.4000000000000909
 30
0.0
 11
-84.599999499999853
 21
-5.4000000000000909
 31
0.0
  0
LINE
  8
DETAIL
  6
CONTINUOUS
 62
     5
 10
-86.399999499999808
 20
21.599999999999909
 30
0.0
 11
-93.599999499999853
 21
21.599999999999909
 31
0.0
  0
LINE
  8
DETAIL
  6
CONTINUOUS
 62
     5
 10
-86.399999499999808
 20
-21.60000000000014
 30
0.0
 11
-93.599999499999853
 21
-21.60000000000014
 31
0.0
  0
LINE
  8
DETAIL
  6
CONTINUOUS
 62
     5
 10
-93.599999499999853
 20
14.39999999999986
 30
0.0
 11
-93.599999499999853
 21
21.599999999999909
 31
0.0
  0
LINE
  8
DETAIL
  6
CONTINUOUS
 62
     5
 10
-93.599999499999853
 20
-14.400000000000089
 30
0.0
 11
-93.599999499999853
 21
-21.60000000000014
 31
0.0
  0
LINE
  8
DETAIL
  6
CONTINUOUS
 62
     5
 10
-86.399999499999808
 20
14.39999999999986
 30
0.0
 11
-86.399999499999808
 21
21.599999999999909
 31
0.0
  0
LINE
  8
DETAIL
  6
CONTINUOUS
 62
     5
 10
-86.399999499999808
 20
-14.400000000000089
 30
0.0
 11
-86.399999499999808
 21
-21.60000000000014
 31
0.0
  0
LINE
  8
DETAIL
  6
CONTINUOUS
 62
     5
 10
-86.399999499999808
 20
14.39999999999986
 30
0.0
 11
-93.599999499999853
 21
14.39999999999986
 31
0.0
  0
LINE
  8
DETAIL
  6
CONTINUOUS
 62
     5
 10
-86.399999499999808
 20
-14.400000000000089
 30
0.0
 11
-93.599999499999853
 21
-14.400000000000089
 31
0.0
  0
LINE
  8
DETAIL
  6
CONTINUOUS
 62
     5
 10
-77.399999499999808
 20
21.599999999999909
 30
0.0
 11
-84.599999499999853
 21
21.599999999999909
 31
0.0
  0
LINE
  8
DETAIL
  6
CONTINUOUS
 62
     5
 10
-77.399999499999808
 20
-21.60000000000014
 30
0.0
 11
-84.599999499999853
 21
-21.60000000000014
 31
0.0
  0
LINE
  8
DETAIL
  6
CONTINUOUS
 62
     5
 10
-84.599999499999853
 20
14.39999999999986
 30
0.0
 11
-84.599999499999853
 21
21.599999999999909
 31
0.0
  0
LINE
  8
DETAIL
  6
CONTINUOUS
 62
     5
 10
-84.599999499999853
 20
-14.400000000000089
 30
0.0
 11
-84.599999499999853
 21
-21.60000000000014
 31
0.0
  0
LINE
  8
DETAIL
  6
CONTINUOUS
 62
     5
 10
-77.399999499999808
 20
14.39999999999986
 30
0.0
 11
-77.399999499999808
 21
21.599999999999909
 31
0.0
  0
LINE
  8
DETAIL
  6
CONTINUOUS
 62
     5
 10
-77.399999499999808
 20
-14.400000000000089
 30
0.0
 11
-77.399999499999808
 21
-21.60000000000014
 31
0.0
  0
LINE
  8
DETAIL
  6
CONTINUOUS
 62
     5
 10
-77.399999499999808
 20
14.39999999999986
 30
0.0
 11
-84.599999499999853
 21
14.39999999999986
 31
0.0
  0
LINE
  8
DETAIL
  6
CONTINUOUS
 62
     5
 10
-77.399999499999808
 20
-14.400000000000089
 30
0.0
 11
-84.599999499999853
 21
-14.400000000000089
 31
0.0
  0
LINE
  8
DETAIL
  6
CONTINUOUS
 62
     5
 10
-68.399999499999808
 20
21.599999999999909
 30
0.0
 11
-75.599999499999853
 21
21.599999999999909
 31
0.0
  0
LINE
  8
DETAIL
  6
CONTINUOUS
 62
     5
 10
-68.399999499999808
 20
-21.60000000000014
 30
0.0
 11
-75.599999499999853
 21
-21.60000000000014
 31
0.0
  0
LINE
  8
DETAIL
  6
CONTINUOUS
 62
     5
 10
-75.599999499999853
 20
14.39999999999986
 30
0.0
 11
-75.599999499999853
 21
21.599999999999909
 31
0.0
  0
LINE
  8
DETAIL
  6
CONTINUOUS
 62
     5
 10
-75.599999499999853
 20
-14.400000000000089
 30
0.0
 11
-75.599999499999853
 21
-21.60000000000014
 31
0.0
  0
LINE
  8
DETAIL
  6
CONTINUOUS
 62
     5
 10
-68.399999499999808
 20
14.39999999999986
 30
0.0
 11
-68.399999499999808
 21
21.599999999999909
 31
0.0
  0
LINE
  8
DETAIL
  6
CONTINUOUS
 62
     5
 10
-68.399999499999808
 20
-14.400000000000089
 30
0.0
 11
-68.399999499999808
 21
-21.60000000000014
 31
0.0
  0
LINE
  8
DETAIL
  6
CONTINUOUS
 62
     5
 10
-68.399999499999808
 20
14.39999999999986
 30
0.0
 11
-75.599999499999853
 21
14.39999999999986
 31
0.0
  0
LINE
  8
DETAIL
  6
CONTINUOUS
 62
     5
 10
-68.399999499999808
 20
-14.400000000000089
 30
0.0
 11
-75.599999499999853
 21
-14.400000000000089
 31
0.0
  0
LINE
  8
DETAIL
  6
CONTINUOUS
 62
     5
 10
-86.399999499999808
 20
30.599999999999909
 30
0.0
 11
-93.599999499999853
 21
30.599999999999909
 31
0.0
  0
LINE
  8
DETAIL
  6
CONTINUOUS
 62
     5
 10
-86.399999499999808
 20
-30.600000000000019
 30
0.0
 11
-93.599999499999853
 21
-30.600000000000019
 31
0.0
  0
LINE
  8
DETAIL
  6
CONTINUOUS
 62
     5
 10
-93.599999499999853
 20
23.39999999999986
 30
0.0
 11
-93.599999499999853
 21
30.599999999999909
 31
0.0
  0
LINE
  8
DETAIL
  6
CONTINUOUS
 62
     5
 10
-93.599999499999853
 20
-23.400000000000091
 30
0.0
 11
-93.599999499999853
 21
-30.600000000000019
 31
0.0
  0
LINE
  8
DETAIL
  6
CONTINUOUS
 62
     5
 10
-86.399999499999808
 20
23.39999999999986
 30
0.0
 11
-86.399999499999808
 21
30.599999999999909
 31
0.0
  0
LINE
  8
DETAIL
  6
CONTINUOUS
 62
     5
 10
-86.399999499999808
 20
-23.400000000000091
 30
0.0
 11
-86.399999499999808
 21
-30.600000000000019
 31
0.0
  0
LINE
  8
DETAIL
  6
CONTINUOUS
 62
     5
 10
-86.399999499999808
 20
23.39999999999986
 30
0.0
 11
-93.599999499999853
 21
23.39999999999986
 31
0.0
  0
LINE
  8
DETAIL
  6
CONTINUOUS
 62
     5
 10
-86.399999499999808
 20
-23.400000000000091
 30
0.0
 11
-93.599999499999853
 21
-23.400000000000091
 31
0.0
  0
LINE
  8
DETAIL
  6
CONTINUOUS
 62
     5
 10
-77.399999499999808
 20
30.599999999999909
 30
0.0
 11
-84.599999499999853
 21
30.599999999999909
 31
0.0
  0
LINE
  8
DETAIL
  6
CONTINUOUS
 62
     5
 10
-77.399999499999808
 20
-30.600000000000019
 30
0.0
 11
-84.599999499999853
 21
-30.600000000000019
 31
0.0
  0
LINE
  8
DETAIL
  6
CONTINUOUS
 62
     5
 10
-84.599999499999853
 20
23.39999999999986
 30
0.0
 11
-84.599999499999853
 21
30.599999999999909
 31
0.0
  0
LINE
  8
DETAIL
  6
CONTINUOUS
 62
     5
 10
-84.599999499999853
 20
-23.400000000000091
 30
0.0
 11
-84.599999499999853
 21
-30.600000000000019
 31
0.0
  0
LINE
  8
DETAIL
  6
CONTINUOUS
 62
     5
 10
-77.399999499999808
 20
23.39999999999986
 30
0.0
 11
-77.399999499999808
 21
30.599999999999909
 31
0.0
  0
LINE
  8
DETAIL
  6
CONTINUOUS
 62
     5
 10
-77.399999499999808
 20
-23.400000000000091
 30
0.0
 11
-77.399999499999808
 21
-30.600000000000019
 31
0.0
  0
LINE
  8
DETAIL
  6
CONTINUOUS
 62
     5
 10
-77.399999499999808
 20
23.39999999999986
 30
0.0
 11
-84.599999499999853
 21
23.39999999999986
 31
0.0
  0
LINE
  8
DETAIL
  6
CONTINUOUS
 62
     5
 10
-77.399999499999808
 20
-23.400000000000091
 30
0.0
 11
-84.599999499999853
 21
-23.400000000000091
 31
0.0
  0
LINE
  8
DETAIL
  6
CONTINUOUS
 62
     5
 10
-68.399999499999808
 20
30.599999999999909
 30
0.0
 11
-75.599999499999853
 21
30.599999999999909
 31
0.0
  0
LINE
  8
DETAIL
  6
CONTINUOUS
 62
     5
 10
-68.399999499999808
 20
-30.600000000000019
 30
0.0
 11
-75.599999499999853
 21
-30.600000000000019
 31
0.0
  0
LINE
  8
DETAIL
  6
CONTINUOUS
 62
     5
 10
-75.599999499999853
 20
23.39999999999986
 30
0.0
 11
-75.599999499999853
 21
30.599999999999909
 31
0.0
  0
LINE
  8
DETAIL
  6
CONTINUOUS
 62
     5
 10
-75.599999499999853
 20
-23.400000000000091
 30
0.0
 11
-75.599999499999853
 21
-30.600000000000019
 31
0.0
  0
LINE
  8
DETAIL
  6
CONTINUOUS
 62
     5
 10
-68.399999499999808
 20
23.39999999999986
 30
0.0
 11
-68.399999499999808
 21
30.599999999999909
 31
0.0
  0
LINE
  8
DETAIL
  6
CONTINUOUS
 62
     5
 10
-68.399999499999808
 20
-23.400000000000091
 30
0.0
 11
-68.399999499999808
 21
-30.600000000000019
 31
0.0
  0
LINE
  8
DETAIL
  6
CONTINUOUS
 62
     5
 10
-68.399999499999808
 20
23.39999999999986
 30
0.0
 11
-75.599999499999853
 21
23.39999999999986
 31
0.0
  0
LINE
  8
DETAIL
  6
CONTINUOUS
 62
     5
 10
-68.399999499999808
 20
-23.400000000000091
 30
0.0
 11
-75.599999499999853
 21
-23.400000000000091
 31
0.0
  0
LINE
  8
DETAIL
  6
CONTINUOUS
 62
     5
 10
-59.399999499999808
 20
30.599999999999909
 30
0.0
 11
-66.599999499999853
 21
30.599999999999909
 31
0.0
  0
LINE
  8
DETAIL
  6
CONTINUOUS
 62
     5
 10
-59.399999499999808
 20
-30.600000000000019
 30
0.0
 11
-66.599999499999853
 21
-30.600000000000019
 31
0.0
  0
LINE
  8
DETAIL
  6
CONTINUOUS
 62
     5
 10
-66.599999499999853
 20
23.39999999999986
 30
0.0
 11
-66.599999499999853
 21
30.599999999999909
 31
0.0
  0
LINE
  8
DETAIL
  6
CONTINUOUS
 62
     5
 10
-66.599999499999853
 20
-23.400000000000091
 30
0.0
 11
-66.599999499999853
 21
-30.600000000000019
 31
0.0
  0
LINE
  8
DETAIL
  6
CONTINUOUS
 62
     5
 10
-59.399999499999808
 20
23.39999999999986
 30
0.0
 11
-59.399999499999808
 21
30.599999999999909
 31
0.0
  0
LINE
  8
DETAIL
  6
CONTINUOUS
 62
     5
 10
-59.399999499999808
 20
-23.400000000000091
 30
0.0
 11
-59.399999499999808
 21
-30.600000000000019
 31
0.0
  0
LINE
  8
DETAIL
  6
CONTINUOUS
 62
     5
 10
-59.399999499999808
 20
23.39999999999986
 30
0.0
 11
-66.599999499999853
 21
23.39999999999986
 31
0.0
  0
LINE
  8
DETAIL
  6
CONTINUOUS
 62
     5
 10
-59.399999499999808
 20
-23.400000000000091
 30
0.0
 11
-66.599999499999853
 21
-23.400000000000091
 31
0.0
  0
LINE
  8
DETAIL
  6
CONTINUOUS
 62
     5
 10
-86.399999499999808
 20
39.599999999999909
 30
0.0
 11
-93.599999499999853
 21
39.599999999999909
 31
0.0
  0
LINE
  8
DETAIL
  6
CONTINUOUS
 62
     5
 10
-86.399999499999808
 20
-39.600000000000023
 30
0.0
 11
-93.599999499999853
 21
-39.600000000000023
 31
0.0
  0
LINE
  8
DETAIL
  6
CONTINUOUS
 62
     5
 10
-93.599999499999853
 20
32.399999999999856
 30
0.0
 11
-93.599999499999853
 21
39.599999999999909
 31
0.0
  0
LINE
  8
DETAIL
  6
CONTINUOUS
 62
     5
 10
-93.599999499999853
 20
-32.400000000000091
 30
0.0
 11
-93.599999499999853
 21
-39.600000000000023
 31
0.0
  0
LINE
  8
DETAIL
  6
CONTINUOUS
 62
     5
 10
-86.399999499999808
 20
32.399999999999856
 30
0.0
 11
-86.399999499999808
 21
39.599999999999909
 31
0.0
  0
LINE
  8
DETAIL
  6
CONTINUOUS
 62
     5
 10
-86.399999499999808
 20
-32.400000000000091
 30
0.0
 11
-86.399999499999808
 21
-39.600000000000023
 31
0.0
  0
LINE
  8
DETAIL
  6
CONTINUOUS
 62
     5
 10
-86.399999499999808
 20
32.399999999999856
 30
0.0
 11
-93.599999499999853
 21
32.399999999999856
 31
0.0
  0
LINE
  8
DETAIL
  6
CONTINUOUS
 62
     5
 10
-86.399999499999808
 20
-32.400000000000091
 30
0.0
 11
-93.599999499999853
 21
-32.400000000000091
 31
0.0
  0
LINE
  8
DETAIL
  6
CONTINUOUS
 62
     5
 10
-77.399999499999808
 20
39.599999999999909
 30
0.0
 11
-84.599999499999853
 21
39.599999999999909
 31
0.0
  0
LINE
  8
DETAIL
  6
CONTINUOUS
 62
     5
 10
-77.399999499999808
 20
-39.600000000000023
 30
0.0
 11
-84.599999499999853
 21
-39.600000000000023
 31
0.0
  0
LINE
  8
DETAIL
  6
CONTINUOUS
 62
     5
 10
-84.599999499999853
 20
32.399999999999856
 30
0.0
 11
-84.599999499999853
 21
39.599999999999909
 31
0.0
  0
LINE
  8
DETAIL
  6
CONTINUOUS
 62
     5
 10
-84.599999499999853
 20
-32.400000000000091
 30
0.0
 11
-84.599999499999853
 21
-39.600000000000023
 31
0.0
  0
LINE
  8
DETAIL
  6
CONTINUOUS
 62
     5
 10
-77.399999499999808
 20
32.399999999999856
 30
0.0
 11
-77.399999499999808
 21
39.599999999999909
 31
0.0
  0
LINE
  8
DETAIL
  6
CONTINUOUS
 62
     5
 10
-77.399999499999808
 20
-32.400000000000091
 30
0.0
 11
-77.399999499999808
 21
-39.600000000000023
 31
0.0
  0
LINE
  8
DETAIL
  6
CONTINUOUS
 62
     5
 10
-77.399999499999808
 20
32.399999999999856
 30
0.0
 11
-84.599999499999853
 21
32.399999999999856
 31
0.0
  0
LINE
  8
DETAIL
  6
CONTINUOUS
 62
     5
 10
-77.399999499999808
 20
-32.400000000000091
 30
0.0
 11
-84.599999499999853
 21
-32.400000000000091
 31
0.0
  0
LINE
  8
DETAIL
  6
CONTINUOUS
 62
     5
 10
-68.399999499999808
 20
39.599999999999909
 30
0.0
 11
-75.599999499999853
 21
39.599999999999909
 31
0.0
  0
LINE
  8
DETAIL
  6
CONTINUOUS
 62
     5
 10
-68.399999499999808
 20
-39.600000000000023
 30
0.0
 11
-75.599999499999853
 21
-39.600000000000023
 31
0.0
  0
LINE
  8
DETAIL
  6
CONTINUOUS
 62
     5
 10
-75.599999499999853
 20
32.399999999999856
 30
0.0
 11
-75.599999499999853
 21
39.599999999999909
 31
0.0
  0
LINE
  8
DETAIL
  6
CONTINUOUS
 62
     5
 10
-75.599999499999853
 20
-32.400000000000091
 30
0.0
 11
-75.599999499999853
 21
-39.600000000000023
 31
0.0
  0
LINE
  8
DETAIL
  6
CONTINUOUS
 62
     5
 10
-68.399999499999808
 20
32.399999999999856
 30
0.0
 11
-68.399999499999808
 21
39.599999999999909
 31
0.0
  0
LINE
  8
DETAIL
  6
CONTINUOUS
 62
     5
 10
-68.399999499999808
 20
-32.400000000000091
 30
0.0
 11
-68.399999499999808
 21
-39.600000000000023
 31
0.0
  0
LINE
  8
DETAIL
  6
CONTINUOUS
 62
     5
 10
-68.399999499999808
 20
32.399999999999856
 30
0.0
 11
-75.599999499999853
 21
32.399999999999856
 31
0.0
  0
LINE
  8
DETAIL
  6
CONTINUOUS
 62
     5
 10
-68.399999499999808
 20
-32.400000000000091
 30
0.0
 11
-75.599999499999853
 21
-32.400000000000091
 31
0.0
  0
LINE
  8
DETAIL
  6
CONTINUOUS
 62
     5
 10
-59.399999499999808
 20
39.599999999999909
 30
0.0
 11
-66.599999499999853
 21
39.599999999999909
 31
0.0
  0
LINE
  8
DETAIL
  6
CONTINUOUS
 62
     5
 10
-59.399999499999808
 20
-39.600000000000023
 30
0.0
 11
-66.599999499999853
 21
-39.600000000000023
 31
0.0
  0
LINE
  8
DETAIL
  6
CONTINUOUS
 62
     5
 10
-66.599999499999853
 20
32.399999999999856
 30
0.0
 11
-66.599999499999853
 21
39.599999999999909
 31
0.0
  0
LINE
  8
DETAIL
  6
CONTINUOUS
 62
     5
 10
-66.599999499999853
 20
-32.400000000000091
 30
0.0
 11
-66.599999499999853
 21
-39.600000000000023
 31
0.0
  0
LINE
  8
DETAIL
  6
CONTINUOUS
 62
     5
 10
-59.399999499999808
 20
32.399999999999856
 30
0.0
 11
-59.399999499999808
 21
39.599999999999909
 31
0.0
  0
LINE
  8
DETAIL
  6
CONTINUOUS
 62
     5
 10
-59.399999499999808
 20
-32.400000000000091
 30
0.0
 11
-59.399999499999808
 21
-39.600000000000023
 31
0.0
  0
LINE
  8
DETAIL
  6
CONTINUOUS
 62
     5
 10
-59.399999499999808
 20
32.399999999999856
 30
0.0
 11
-66.599999499999853
 21
32.399999999999856
 31
0.0
  0
LINE
  8
DETAIL
  6
CONTINUOUS
 62
     5
 10
-59.399999499999808
 20
-32.400000000000091
 30
0.0
 11
-66.599999499999853
 21
-32.400000000000091
 31
0.0
  0
LINE
  8
DETAIL
  6
CONTINUOUS
 62
     5
 10
-50.399999499999808
 20
39.599999999999909
 30
0.0
 11
-57.599999499999853
 21
39.599999999999909
 31
0.0
  0
LINE
  8
DETAIL
  6
CONTINUOUS
 62
     5
 10
-50.399999499999808
 20
-39.600000000000023
 30
0.0
 11
-57.599999499999853
 21
-39.600000000000023
 31
0.0
  0
LINE
  8
DETAIL
  6
CONTINUOUS
 62
     5
 10
-57.599999499999853
 20
32.399999999999856
 30
0.0
 11
-57.599999499999853
 21
39.599999999999909
 31
0.0
  0
LINE
  8
DETAIL
  6
CONTINUOUS
 62
     5
 10
-57.599999499999853
 20
-32.400000000000091
 30
0.0
 11
-57.599999499999853
 21
-39.600000000000023
 31
0.0
  0
LINE
  8
DETAIL
  6
CONTINUOUS
 62
     5
 10
-50.399999499999808
 20
32.399999999999856
 30
0.0
 11
-50.399999499999808
 21
39.599999999999909
 31
0.0
  0
LINE
  8
DETAIL
  6
CONTINUOUS
 62
     5
 10
-50.399999499999808
 20
-32.400000000000091
 30
0.0
 11
-50.399999499999808
 21
-39.600000000000023
 31
0.0
  0
LINE
  8
DETAIL
  6
CONTINUOUS
 62
     5
 10
-50.399999499999808
 20
32.399999999999856
 30
0.0
 11
-57.599999499999853
 21
32.399999999999856
 31
0.0
  0
LINE
  8
DETAIL
  6
CONTINUOUS
 62
     5
 10
-50.399999499999808
 20
-32.400000000000091
 30
0.0
 11
-57.599999499999853
 21
-32.400000000000091
 31
0.0
  0
LINE
  8
DETAIL
  6
CONTINUOUS
 62
     5
 10
-86.399999499999808
 20
48.599999999999909
 30
0.0
 11
-93.599999499999853
 21
48.599999999999909
 31
0.0
  0
LINE
  8
DETAIL
  6
CONTINUOUS
 62
     5
 10
-86.399999499999808
 20
-48.600000000000023
 30
0.0
 11
-93.599999499999853
 21
-48.600000000000023
 31
0.0
  0
LINE
  8
DETAIL
  6
CONTINUOUS
 62
     5
 10
-93.599999499999853
 20
41.399999999999856
 30
0.0
 11
-93.599999499999853
 21
48.599999999999909
 31
0.0
  0
LINE
  8
DETAIL
  6
CONTINUOUS
 62
     5
 10
-93.599999499999853
 20
-41.400000000000091
 30
0.0
 11
-93.599999499999853
 21
-48.600000000000023
 31
0.0
  0
LINE
  8
DETAIL
  6
CONTINUOUS
 62
     5
 10
-86.399999499999808
 20
41.399999999999856
 30
0.0
 11
-86.399999499999808
 21
48.599999999999909
 31
0.0
  0
LINE
  8
DETAIL
  6
CONTINUOUS
 62
     5
 10
-86.399999499999808
 20
-41.400000000000091
 30
0.0
 11
-86.399999499999808
 21
-48.600000000000023
 31
0.0
  0
LINE
  8
DETAIL
  6
CONTINUOUS
 62
     5
 10
-86.399999499999808
 20
41.399999999999856
 30
0.0
 11
-93.599999499999853
 21
41.399999999999856
 31
0.0
  0
LINE
  8
DETAIL
  6
CONTINUOUS
 62
     5
 10
-86.399999499999808
 20
-41.400000000000091
 30
0.0
 11
-93.599999499999853
 21
-41.400000000000091
 31
0.0
  0
LINE
  8
DETAIL
  6
CONTINUOUS
 62
     5
 10
-77.399999499999808
 20
48.599999999999909
 30
0.0
 11
-84.599999499999853
 21
48.599999999999909
 31
0.0
  0
LINE
  8
DETAIL
  6
CONTINUOUS
 62
     5
 10
-77.399999499999808
 20
-48.600000000000023
 30
0.0
 11
-84.599999499999853
 21
-48.600000000000023
 31
0.0
  0
LINE
  8
DETAIL
  6
CONTINUOUS
 62
     5
 10
-84.599999499999853
 20
41.399999999999856
 30
0.0
 11
-84.599999499999853
 21
48.599999999999909
 31
0.0
  0
LINE
  8
DETAIL
  6
CONTINUOUS
 62
     5
 10
-84.599999499999853
 20
-41.400000000000091
 30
0.0
 11
-84.599999499999853
 21
-48.600000000000023
 31
0.0
  0
LINE
  8
DETAIL
  6
CONTINUOUS
 62
     5
 10
-77.399999499999808
 20
41.399999999999856
 30
0.0
 11
-77.399999499999808
 21
48.599999999999909
 31
0.0
  0
LINE
  8
DETAIL
  6
CONTINUOUS
 62
     5
 10
-77.399999499999808
 20
-41.400000000000091
 30
0.0
 11
-77.399999499999808
 21
-48.600000000000023
 31
0.0
  0
LINE
  8
DETAIL
  6
CONTINUOUS
 62
     5
 10
-77.399999499999808
 20
41.399999999999856
 30
0.0
 11
-84.599999499999853
 21
41.399999999999856
 31
0.0
  0
LINE
  8
DETAIL
  6
CONTINUOUS
 62
     5
 10
-77.399999499999808
 20
-41.400000000000091
 30
0.0
 11
-84.599999499999853
 21
-41.400000000000091
 31
0.0
  0
LINE
  8
DETAIL
  6
CONTINUOUS
 62
     5
 10
-68.399999499999808
 20
48.599999999999909
 30
0.0
 11
-75.599999499999853
 21
48.599999999999909
 31
0.0
  0
LINE
  8
DETAIL
  6
CONTINUOUS
 62
     5
 10
-68.399999499999808
 20
-48.600000000000023
 30
0.0
 11
-75.599999499999853
 21
-48.600000000000023
 31
0.0
  0
LINE
  8
DETAIL
  6
CONTINUOUS
 62
     5
 10
-75.599999499999853
 20
41.399999999999856
 30
0.0
 11
-75.599999499999853
 21
48.599999999999909
 31
0.0
  0
LINE
  8
DETAIL
  6
CONTINUOUS
 62
     5
 10
-75.599999499999853
 20
-41.400000000000091
 30
0.0
 11
-75.599999499999853
 21
-48.600000000000023
 31
0.0
  0
LINE
  8
DETAIL
  6
CONTINUOUS
 62
     5
 10
-68.399999499999808
 20
41.399999999999856
 30
0.0
 11
-68.399999499999808
 21
48.599999999999909
 31
0.0
  0
LINE
  8
DETAIL
  6
CONTINUOUS
 62
     5
 10
-68.399999499999808
 20
-41.400000000000091
 30
0.0
 11
-68.399999499999808
 21
-48.600000000000023
 31
0.0
  0
LINE
  8
DETAIL
  6
CONTINUOUS
 62
     5
 10
-68.399999499999808
 20
41.399999999999856
 30
0.0
 11
-75.599999499999853
 21
41.399999999999856
 31
0.0
  0
LINE
  8
DETAIL
  6
CONTINUOUS
 62
     5
 10
-68.399999499999808
 20
-41.400000000000091
 30
0.0
 11
-75.599999499999853
 21
-41.400000000000091
 31
0.0
  0
LINE
  8
DETAIL
  6
CONTINUOUS
 62
     5
 10
-59.399999499999808
 20
48.599999999999909
 30
0.0
 11
-66.599999499999853
 21
48.599999999999909
 31
0.0
  0
LINE
  8
DETAIL
  6
CONTINUOUS
 62
     5
 10
-59.399999499999808
 20
-48.600000000000023
 30
0.0
 11
-66.599999499999853
 21
-48.600000000000023
 31
0.0
  0
LINE
  8
DETAIL
  6
CONTINUOUS
 62
     5
 10
-66.599999499999853
 20
41.399999999999856
 30
0.0
 11
-66.599999499999853
 21
48.599999999999909
 31
0.0
  0
LINE
  8
DETAIL
  6
CONTINUOUS
 62
     5
 10
-66.599999499999853
 20
-41.400000000000091
 30
0.0
 11
-66.599999499999853
 21
-48.600000000000023
 31
0.0
  0
LINE
  8
DETAIL
  6
CONTINUOUS
 62
     5
 10
-59.399999499999808
 20
41.399999999999856
 30
0.0
 11
-59.399999499999808
 21
48.599999999999909
 31
0.0
  0
LINE
  8
DETAIL
  6
CONTINUOUS
 62
     5
 10
-59.399999499999808
 20
-41.400000000000091
 30
0.0
 11
-59.399999499999808
 21
-48.600000000000023
 31
0.0
  0
LINE
  8
DETAIL
  6
CONTINUOUS
 62
     5
 10
-59.399999499999808
 20
41.399999999999856
 30
0.0
 11
-66.599999499999853
 21
41.399999999999856
 31
0.0
  0
LINE
  8
DETAIL
  6
CONTINUOUS
 62
     5
 10
-59.399999499999808
 20
-41.400000000000091
 30
0.0
 11
-66.599999499999853
 21
-41.400000000000091
 31
0.0
  0
LINE
  8
DETAIL
  6
CONTINUOUS
 62
     5
 10
-50.399999499999808
 20
48.599999999999909
 30
0.0
 11
-57.599999499999853
 21
48.599999999999909
 31
0.0
  0
LINE
  8
DETAIL
  6
CONTINUOUS
 62
     5
 10
-50.399999499999808
 20
-48.600000000000023
 30
0.0
 11
-57.599999499999853
 21
-48.600000000000023
 31
0.0
  0
LINE
  8
DETAIL
  6
CONTINUOUS
 62
     5
 10
-57.599999499999853
 20
41.399999999999856
 30
0.0
 11
-57.599999499999853
 21
48.599999999999909
 31
0.0
  0
LINE
  8
DETAIL
  6
CONTINUOUS
 62
     5
 10
-57.599999499999853
 20
-41.400000000000091
 30
0.0
 11
-57.599999499999853
 21
-48.600000000000023
 31
0.0
  0
LINE
  8
DETAIL
  6
CONTINUOUS
 62
     5
 10
-50.399999499999808
 20
41.399999999999856
 30
0.0
 11
-50.399999499999808
 21
48.599999999999909
 31
0.0
  0
LINE
  8
DETAIL
  6
CONTINUOUS
 62
     5
 10
-50.399999499999808
 20
-41.400000000000091
 30
0.0
 11
-50.399999499999808
 21
-48.600000000000023
 31
0.0
  0
LINE
  8
DETAIL
  6
CONTINUOUS
 62
     5
 10
-50.399999499999808
 20
41.399999999999856
 30
0.0
 11
-57.599999499999853
 21
41.399999999999856
 31
0.0
  0
LINE
  8
DETAIL
  6
CONTINUOUS
 62
     5
 10
-50.399999499999808
 20
-41.400000000000091
 30
0.0
 11
-57.599999499999853
 21
-41.400000000000091
 31
0.0
  0
LINE
  8
DETAIL
  6
CONTINUOUS
 62
     5
 10
-41.399999499999808
 20
48.599999999999909
 30
0.0
 11
-48.599999499999853
 21
48.599999999999909
 31
0.0
  0
LINE
  8
DETAIL
  6
CONTINUOUS
 62
     5
 10
-41.399999499999808
 20
-48.600000000000023
 30
0.0
 11
-48.599999499999853
 21
-48.600000000000023
 31
0.0
  0
LINE
  8
DETAIL
  6
CONTINUOUS
 62
     5
 10
-48.599999499999853
 20
41.399999999999856
 30
0.0
 11
-48.599999499999853
 21
48.599999999999909
 31
0.0
  0
LINE
  8
DETAIL
  6
CONTINUOUS
 62
     5
 10
-48.599999499999853
 20
-41.400000000000091
 30
0.0
 11
-48.599999499999853
 21
-48.600000000000023
 31
0.0
  0
LINE
  8
DETAIL
  6
CONTINUOUS
 62
     5
 10
-41.399999499999808
 20
41.399999999999856
 30
0.0
 11
-41.399999499999808
 21
48.599999999999909
 31
0.0
  0
LINE
  8
DETAIL
  6
CONTINUOUS
 62
     5
 10
-41.399999499999808
 20
-41.400000000000091
 30
0.0
 11
-41.399999499999808
 21
-48.600000000000023
 31
0.0
  0
LINE
  8
DETAIL
  6
CONTINUOUS
 62
     5
 10
-41.399999499999808
 20
41.399999999999856
 30
0.0
 11
-48.599999499999853
 21
41.399999999999856
 31
0.0
  0
LINE
  8
DETAIL
  6
CONTINUOUS
 62
     5
 10
-41.399999499999808
 20
-41.400000000000091
 30
0.0
 11
-48.599999499999853
 21
-41.400000000000091
 31
0.0
  0
LINE
  8
DETAIL
  6
CONTINUOUS
 62
     5
 10
-86.399999499999808
 20
57.599999999999909
 30
0.0
 11
-93.599999499999853
 21
57.599999999999909
 31
0.0
  0
LINE
  8
DETAIL
  6
CONTINUOUS
 62
     5
 10
-86.399999499999808
 20
-57.600000000000023
 30
0.0
 11
-93.599999499999853
 21
-57.600000000000023
 31
0.0
  0
LINE
  8
DETAIL
  6
CONTINUOUS
 62
     5
 10
-93.599999499999853
 20
50.399999999999856
 30
0.0
 11
-93.599999499999853
 21
57.599999999999909
 31
0.0
  0
LINE
  8
DETAIL
  6
CONTINUOUS
 62
     5
 10
-93.599999499999853
 20
-50.400000000000091
 30
0.0
 11
-93.599999499999853
 21
-57.600000000000023
 31
0.0
  0
LINE
  8
DETAIL
  6
CONTINUOUS
 62
     5
 10
-86.399999499999808
 20
50.399999999999856
 30
0.0
 11
-86.399999499999808
 21
57.599999999999909
 31
0.0
  0
LINE
  8
DETAIL
  6
CONTINUOUS
 62
     5
 10
-86.399999499999808
 20
-50.400000000000091
 30
0.0
 11
-86.399999499999808
 21
-57.600000000000023
 31
0.0
  0
LINE
  8
DETAIL
  6
CONTINUOUS
 62
     5
 10
-86.399999499999808
 20
50.399999999999856
 30
0.0
 11
-93.599999499999853
 21
50.399999999999856
 31
0.0
  0
LINE
  8
DETAIL
  6
CONTINUOUS
 62
     5
 10
-86.399999499999808
 20
-50.400000000000091
 30
0.0
 11
-93.599999499999853
 21
-50.400000000000091
 31
0.0
  0
LINE
  8
DETAIL
  6
CONTINUOUS
 62
     5
 10
-77.399999499999808
 20
57.599999999999909
 30
0.0
 11
-84.599999499999853
 21
57.599999999999909
 31
0.0
  0
LINE
  8
DETAIL
  6
CONTINUOUS
 62
     5
 10
-77.399999499999808
 20
-57.600000000000023
 30
0.0
 11
-84.599999499999853
 21
-57.600000000000023
 31
0.0
  0
LINE
  8
DETAIL
  6
CONTINUOUS
 62
     5
 10
-84.599999499999853
 20
50.399999999999856
 30
0.0
 11
-84.599999499999853
 21
57.599999999999909
 31
0.0
  0
LINE
  8
DETAIL
  6
CONTINUOUS
 62
     5
 10
-84.599999499999853
 20
-50.400000000000091
 30
0.0
 11
-84.599999499999853
 21
-57.600000000000023
 31
0.0
  0
LINE
  8
DETAIL
  6
CONTINUOUS
 62
     5
 10
-77.399999499999808
 20
50.399999999999856
 30
0.0
 11
-77.399999499999808
 21
57.599999999999909
 31
0.0
  0
LINE
  8
DETAIL
  6
CONTINUOUS
 62
     5
 10
-77.399999499999808
 20
-50.400000000000091
 30
0.0
 11
-77.399999499999808
 21
-57.600000000000023
 31
0.0
  0
LINE
  8
DETAIL
  6
CONTINUOUS
 62
     5
 10
-77.399999499999808
 20
50.399999999999856
 30
0.0
 11
-84.599999499999853
 21
50.399999999999856
 31
0.0
  0
LINE
  8
DETAIL
  6
CONTINUOUS
 62
     5
 10
-77.399999499999808
 20
-50.400000000000091
 30
0.0
 11
-84.599999499999853
 21
-50.400000000000091
 31
0.0
  0
LINE
  8
DETAIL
  6
CONTINUOUS
 62
     5
 10
-68.399999499999808
 20
57.599999999999909
 30
0.0
 11
-75.599999499999853
 21
57.599999999999909
 31
0.0
  0
LINE
  8
DETAIL
  6
CONTINUOUS
 62
     5
 10
-68.399999499999808
 20
-57.600000000000023
 30
0.0
 11
-75.599999499999853
 21
-57.600000000000023
 31
0.0
  0
LINE
  8
DETAIL
  6
CONTINUOUS
 62
     5
 10
-75.599999499999853
 20
50.399999999999856
 30
0.0
 11
-75.599999499999853
 21
57.599999999999909
 31
0.0
  0
LINE
  8
DETAIL
  6
CONTINUOUS
 62
     5
 10
-75.599999499999853
 20
-50.400000000000091
 30
0.0
 11
-75.599999499999853
 21
-57.600000000000023
 31
0.0
  0
LINE
  8
DETAIL
  6
CONTINUOUS
 62
     5
 10
-68.399999499999808
 20
50.399999999999856
 30
0.0
 11
-68.399999499999808
 21
57.599999999999909
 31
0.0
  0
LINE
  8
DETAIL
  6
CONTINUOUS
 62
     5
 10
-68.399999499999808
 20
-50.400000000000091
 30
0.0
 11
-68.399999499999808
 21
-57.600000000000023
 31
0.0
  0
LINE
  8
DETAIL
  6
CONTINUOUS
 62
     5
 10
-68.399999499999808
 20
50.399999999999856
 30
0.0
 11
-75.599999499999853
 21
50.399999999999856
 31
0.0
  0
LINE
  8
DETAIL
  6
CONTINUOUS
 62
     5
 10
-68.399999499999808
 20
-50.400000000000091
 30
0.0
 11
-75.599999499999853
 21
-50.400000000000091
 31
0.0
  0
LINE
  8
DETAIL
  6
CONTINUOUS
 62
     5
 10
-59.399999499999808
 20
57.599999999999909
 30
0.0
 11
-66.599999499999853
 21
57.599999999999909
 31
0.0
  0
LINE
  8
DETAIL
  6
CONTINUOUS
 62
     5
 10
-59.399999499999808
 20
-57.600000000000023
 30
0.0
 11
-66.599999499999853
 21
-57.600000000000023
 31
0.0
  0
LINE
  8
DETAIL
  6
CONTINUOUS
 62
     5
 10
-66.599999499999853
 20
50.399999999999856
 30
0.0
 11
-66.599999499999853
 21
57.599999999999909
 31
0.0
  0
LINE
  8
DETAIL
  6
CONTINUOUS
 62
     5
 10
-66.599999499999853
 20
-50.400000000000091
 30
0.0
 11
-66.599999499999853
 21
-57.600000000000023
 31
0.0
  0
LINE
  8
DETAIL
  6
CONTINUOUS
 62
     5
 10
-59.399999499999808
 20
50.399999999999856
 30
0.0
 11
-59.399999499999808
 21
57.599999999999909
 31
0.0
  0
LINE
  8
DETAIL
  6
CONTINUOUS
 62
     5
 10
-59.399999499999808
 20
-50.400000000000091
 30
0.0
 11
-59.399999499999808
 21
-57.600000000000023
 31
0.0
  0
LINE
  8
DETAIL
  6
CONTINUOUS
 62
     5
 10
-59.399999499999808
 20
50.399999999999856
 30
0.0
 11
-66.599999499999853
 21
50.399999999999856
 31
0.0
  0
LINE
  8
DETAIL
  6
CONTINUOUS
 62
     5
 10
-59.399999499999808
 20
-50.400000000000091
 30
0.0
 11
-66.599999499999853
 21
-50.400000000000091
 31
0.0
  0
LINE
  8
DETAIL
  6
CONTINUOUS
 62
     5
 10
-50.399999499999808
 20
57.599999999999909
 30
0.0
 11
-57.599999499999853
 21
57.599999999999909
 31
0.0
  0
LINE
  8
DETAIL
  6
CONTINUOUS
 62
     5
 10
-50.399999499999808
 20
-57.600000000000023
 30
0.0
 11
-57.599999499999853
 21
-57.600000000000023
 31
0.0
  0
LINE
  8
DETAIL
  6
CONTINUOUS
 62
     5
 10
-57.599999499999853
 20
50.399999999999856
 30
0.0
 11
-57.599999499999853
 21
57.599999999999909
 31
0.0
  0
LINE
  8
DETAIL
  6
CONTINUOUS
 62
     5
 10
-57.599999499999853
 20
-50.400000000000091
 30
0.0
 11
-57.599999499999853
 21
-57.600000000000023
 31
0.0
  0
LINE
  8
DETAIL
  6
CONTINUOUS
 62
     5
 10
-50.399999499999808
 20
50.399999999999856
 30
0.0
 11
-50.399999499999808
 21
57.599999999999909
 31
0.0
  0
LINE
  8
DETAIL
  6
CONTINUOUS
 62
     5
 10
-50.399999499999808
 20
-50.400000000000091
 30
0.0
 11
-50.399999499999808
 21
-57.600000000000023
 31
0.0
  0
LINE
  8
DETAIL
  6
CONTINUOUS
 62
     5
 10
-50.399999499999808
 20
50.399999999999856
 30
0.0
 11
-57.599999499999853
 21
50.399999999999856
 31
0.0
  0
LINE
  8
DETAIL
  6
CONTINUOUS
 62
     5
 10
-50.399999499999808
 20
-50.400000000000091
 30
0.0
 11
-57.599999499999853
 21
-50.400000000000091
 31
0.0
  0
LINE
  8
DETAIL
  6
CONTINUOUS
 62
     5
 10
-41.399999499999808
 20
57.599999999999909
 30
0.0
 11
-48.599999499999853
 21
57.599999999999909
 31
0.0
  0
LINE
  8
DETAIL
  6
CONTINUOUS
 62
     5
 10
-41.399999499999808
 20
-57.600000000000023
 30
0.0
 11
-48.599999499999853
 21
-57.600000000000023
 31
0.0
  0
LINE
  8
DETAIL
  6
CONTINUOUS
 62
     5
 10
-48.599999499999853
 20
50.399999999999856
 30
0.0
 11
-48.599999499999853
 21
57.599999999999909
 31
0.0
  0
LINE
  8
DETAIL
  6
CONTINUOUS
 62
     5
 10
-48.599999499999853
 20
-50.400000000000091
 30
0.0
 11
-48.599999499999853
 21
-57.600000000000023
 31
0.0
  0
LINE
  8
DETAIL
  6
CONTINUOUS
 62
     5
 10
-41.399999499999808
 20
50.399999999999856
 30
0.0
 11
-41.399999499999808
 21
57.599999999999909
 31
0.0
  0
LINE
  8
DETAIL
  6
CONTINUOUS
 62
     5
 10
-41.399999499999808
 20
-50.400000000000091
 30
0.0
 11
-41.399999499999808
 21
-57.600000000000023
 31
0.0
  0
LINE
  8
DETAIL
  6
CONTINUOUS
 62
     5
 10
-41.399999499999808
 20
50.399999999999856
 30
0.0
 11
-48.599999499999853
 21
50.399999999999856
 31
0.0
  0
LINE
  8
DETAIL
  6
CONTINUOUS
 62
     5
 10
-41.399999499999808
 20
-50.400000000000091
 30
0.0
 11
-48.599999499999853
 21
-50.400000000000091
 31
0.0
  0
LINE
  8
DETAIL
  6
CONTINUOUS
 62
     5
 10
-39.599999499999853
 20
50.399999999999856
 30
0.0
 11
-39.599999499999853
 21
57.599999999999909
 31
0.0
  0
LINE
  8
DETAIL
  6
CONTINUOUS
 62
     5
 10
-39.599999499999853
 20
-50.400000000000091
 30
0.0
 11
-39.599999499999853
 21
-57.600000000000023
 31
0.0
  0
LINE
  8
DETAIL
  6
CONTINUOUS
 62
     5
 10
-86.399999499999808
 20
66.599999999999909
 30
0.0
 11
-93.599999499999853
 21
66.599999999999909
 31
0.0
  0
LINE
  8
DETAIL
  6
CONTINUOUS
 62
     5
 10
-86.399999499999808
 20
-66.600000000000023
 30
0.0
 11
-93.599999499999853
 21
-66.600000000000023
 31
0.0
  0
LINE
  8
DETAIL
  6
CONTINUOUS
 62
     5
 10
-93.599999499999853
 20
59.399999999999856
 30
0.0
 11
-93.599999499999853
 21
66.599999999999909
 31
0.0
  0
LINE
  8
DETAIL
  6
CONTINUOUS
 62
     5
 10
-93.599999499999853
 20
-59.400000000000091
 30
0.0
 11
-93.599999499999853
 21
-66.600000000000023
 31
0.0
  0
LINE
  8
DETAIL
  6
CONTINUOUS
 62
     5
 10
-86.399999499999808
 20
59.399999999999856
 30
0.0
 11
-86.399999499999808
 21
66.599999999999909
 31
0.0
  0
LINE
  8
DETAIL
  6
CONTINUOUS
 62
     5
 10
-86.399999499999808
 20
-59.400000000000091
 30
0.0
 11
-86.399999499999808
 21
-66.600000000000023
 31
0.0
  0
LINE
  8
DETAIL
  6
CONTINUOUS
 62
     5
 10
-86.399999499999808
 20
59.399999999999856
 30
0.0
 11
-93.599999499999853
 21
59.399999999999856
 31
0.0
  0
LINE
  8
DETAIL
  6
CONTINUOUS
 62
     5
 10
-86.399999499999808
 20
-59.400000000000091
 30
0.0
 11
-93.599999499999853
 21
-59.400000000000091
 31
0.0
  0
LINE
  8
DETAIL
  6
CONTINUOUS
 62
     5
 10
-77.399999499999808
 20
66.599999999999909
 30
0.0
 11
-84.599999499999853
 21
66.599999999999909
 31
0.0
  0
LINE
  8
DETAIL
  6
CONTINUOUS
 62
     5
 10
-77.399999499999808
 20
-66.600000000000023
 30
0.0
 11
-84.599999499999853
 21
-66.600000000000023
 31
0.0
  0
LINE
  8
DETAIL
  6
CONTINUOUS
 62
     5
 10
-84.599999499999853
 20
59.399999999999856
 30
0.0
 11
-84.599999499999853
 21
66.599999999999909
 31
0.0
  0
LINE
  8
DETAIL
  6
CONTINUOUS
 62
     5
 10
-84.599999499999853
 20
-59.400000000000091
 30
0.0
 11
-84.599999499999853
 21
-66.600000000000023
 31
0.0
  0
LINE
  8
DETAIL
  6
CONTINUOUS
 62
     5
 10
-77.399999499999808
 20
59.399999999999856
 30
0.0
 11
-77.399999499999808
 21
66.599999999999909
 31
0.0
  0
LINE
  8
DETAIL
  6
CONTINUOUS
 62
     5
 10
-77.399999499999808
 20
-59.400000000000091
 30
0.0
 11
-77.399999499999808
 21
-66.600000000000023
 31
0.0
  0
LINE
  8
DETAIL
  6
CONTINUOUS
 62
     5
 10
-77.399999499999808
 20
59.399999999999856
 30
0.0
 11
-84.599999499999853
 21
59.399999999999856
 31
0.0
  0
LINE
  8
DETAIL
  6
CONTINUOUS
 62
     5
 10
-77.399999499999808
 20
-59.400000000000091
 30
0.0
 11
-84.599999499999853
 21
-59.400000000000091
 31
0.0
  0
LINE
  8
DETAIL
  6
CONTINUOUS
 62
     5
 10
-68.399999499999808
 20
66.599999999999909
 30
0.0
 11
-75.599999499999853
 21
66.599999999999909
 31
0.0
  0
LINE
  8
DETAIL
  6
CONTINUOUS
 62
     5
 10
-68.399999499999808
 20
-66.600000000000023
 30
0.0
 11
-75.599999499999853
 21
-66.600000000000023
 31
0.0
  0
LINE
  8
DETAIL
  6
CONTINUOUS
 62
     5
 10
-75.599999499999853
 20
59.399999999999856
 30
0.0
 11
-75.599999499999853
 21
66.599999999999909
 31
0.0
  0
LINE
  8
DETAIL
  6
CONTINUOUS
 62
     5
 10
-75.599999499999853
 20
-59.400000000000091
 30
0.0
 11
-75.599999499999853
 21
-66.600000000000023
 31
0.0
  0
LINE
  8
DETAIL
  6
CONTINUOUS
 62
     5
 10
-68.399999499999808
 20
59.399999999999856
 30
0.0
 11
-68.399999499999808
 21
66.599999999999909
 31
0.0
  0
LINE
  8
DETAIL
  6
CONTINUOUS
 62
     5
 10
-68.399999499999808
 20
-59.400000000000091
 30
0.0
 11
-68.399999499999808
 21
-66.600000000000023
 31
0.0
  0
LINE
  8
DETAIL
  6
CONTINUOUS
 62
     5
 10
-68.399999499999808
 20
59.399999999999856
 30
0.0
 11
-75.599999499999853
 21
59.399999999999856
 31
0.0
  0
LINE
  8
DETAIL
  6
CONTINUOUS
 62
     5
 10
-68.399999499999808
 20
-59.400000000000091
 30
0.0
 11
-75.599999499999853
 21
-59.400000000000091
 31
0.0
  0
LINE
  8
DETAIL
  6
CONTINUOUS
 62
     5
 10
-59.399999499999808
 20
66.599999999999909
 30
0.0
 11
-66.599999499999853
 21
66.599999999999909
 31
0.0
  0
LINE
  8
DETAIL
  6
CONTINUOUS
 62
     5
 10
-59.399999499999808
 20
-66.600000000000023
 30
0.0
 11
-66.599999499999853
 21
-66.600000000000023
 31
0.0
  0
LINE
  8
DETAIL
  6
CONTINUOUS
 62
     5
 10
-66.599999499999853
 20
59.399999999999856
 30
0.0
 11
-66.599999499999853
 21
66.599999999999909
 31
0.0
  0
LINE
  8
DETAIL
  6
CONTINUOUS
 62
     5
 10
-66.599999499999853
 20
-59.400000000000091
 30
0.0
 11
-66.599999499999853
 21
-66.600000000000023
 31
0.0
  0
LINE
  8
DETAIL
  6
CONTINUOUS
 62
     5
 10
-59.399999499999808
 20
59.399999999999856
 30
0.0
 11
-59.399999499999808
 21
66.599999999999909
 31
0.0
  0
LINE
  8
DETAIL
  6
CONTINUOUS
 62
     5
 10
-59.399999499999808
 20
-59.400000000000091
 30
0.0
 11
-59.399999499999808
 21
-66.600000000000023
 31
0.0
  0
LINE
  8
DETAIL
  6
CONTINUOUS
 62
     5
 10
-59.399999499999808
 20
59.399999999999856
 30
0.0
 11
-66.599999499999853
 21
59.399999999999856
 31
0.0
  0
LINE
  8
DETAIL
  6
CONTINUOUS
 62
     5
 10
-59.399999499999808
 20
-59.400000000000091
 30
0.0
 11
-66.599999499999853
 21
-59.400000000000091
 31
0.0
  0
LINE
  8
DETAIL
  6
CONTINUOUS
 62
     5
 10
-50.399999499999808
 20
66.599999999999909
 30
0.0
 11
-57.599999499999853
 21
66.599999999999909
 31
0.0
  0
LINE
  8
DETAIL
  6
CONTINUOUS
 62
     5
 10
-50.399999499999808
 20
-66.600000000000023
 30
0.0
 11
-57.599999499999853
 21
-66.600000000000023
 31
0.0
  0
LINE
  8
DETAIL
  6
CONTINUOUS
 62
     5
 10
-57.599999499999853
 20
59.399999999999856
 30
0.0
 11
-57.599999499999853
 21
66.599999999999909
 31
0.0
  0
LINE
  8
DETAIL
  6
CONTINUOUS
 62
     5
 10
-57.599999499999853
 20
-59.400000000000091
 30
0.0
 11
-57.599999499999853
 21
-66.600000000000023
 31
0.0
  0
LINE
  8
DETAIL
  6
CONTINUOUS
 62
     5
 10
-50.399999499999808
 20
59.399999999999856
 30
0.0
 11
-50.399999499999808
 21
66.599999999999909
 31
0.0
  0
LINE
  8
DETAIL
  6
CONTINUOUS
 62
     5
 10
-50.399999499999808
 20
-59.400000000000091
 30
0.0
 11
-50.399999499999808
 21
-66.600000000000023
 31
0.0
  0
LINE
  8
DETAIL
  6
CONTINUOUS
 62
     5
 10
-50.399999499999808
 20
59.399999999999856
 30
0.0
 11
-57.599999499999853
 21
59.399999999999856
 31
0.0
  0
LINE
  8
DETAIL
  6
CONTINUOUS
 62
     5
 10
-50.399999499999808
 20
-59.400000000000091
 30
0.0
 11
-57.599999499999853
 21
-59.400000000000091
 31
0.0
  0
LINE
  8
DETAIL
  6
CONTINUOUS
 62
     5
 10
-41.399999499999808
 20
66.599999999999909
 30
0.0
 11
-48.599999499999853
 21
66.599999999999909
 31
0.0
  0
LINE
  8
DETAIL
  6
CONTINUOUS
 62
     5
 10
-41.399999499999808
 20
-66.600000000000023
 30
0.0
 11
-48.599999499999853
 21
-66.600000000000023
 31
0.0
  0
LINE
  8
DETAIL
  6
CONTINUOUS
 62
     5
 10
-48.599999499999853
 20
59.399999999999856
 30
0.0
 11
-48.599999499999853
 21
66.599999999999909
 31
0.0
  0
LINE
  8
DETAIL
  6
CONTINUOUS
 62
     5
 10
-48.599999499999853
 20
-59.400000000000091
 30
0.0
 11
-48.599999499999853
 21
-66.600000000000023
 31
0.0
  0
LINE
  8
DETAIL
  6
CONTINUOUS
 62
     5
 10
-41.399999499999808
 20
59.399999999999856
 30
0.0
 11
-41.399999499999808
 21
66.599999999999909
 31
0.0
  0
LINE
  8
DETAIL
  6
CONTINUOUS
 62
     5
 10
-41.399999499999808
 20
-59.400000000000091
 30
0.0
 11
-41.399999499999808
 21
-66.600000000000023
 31
0.0
  0
LINE
  8
DETAIL
  6
CONTINUOUS
 62
     5
 10
-41.399999499999808
 20
59.399999999999856
 30
0.0
 11
-48.599999499999853
 21
59.399999999999856
 31
0.0
  0
LINE
  8
DETAIL
  6
CONTINUOUS
 62
     5
 10
-41.399999499999808
 20
-59.400000000000091
 30
0.0
 11
-48.599999499999853
 21
-59.400000000000091
 31
0.0
  0
LINE
  8
DETAIL
  6
CONTINUOUS
 62
     5
 10
-39.599999499999853
 20
59.399999999999856
 30
0.0
 11
-39.599999499999853
 21
66.599999999999909
 31
0.0
  0
LINE
  8
DETAIL
  6
CONTINUOUS
 62
     5
 10
-39.599999499999853
 20
-59.400000000000091
 30
0.0
 11
-39.599999499999853
 21
-66.600000000000023
 31
0.0
  0
LINE
  8
DETAIL
  6
CONTINUOUS
 62
     5
 10
-93.599999499999853
 20
68.399999999999864
 30
0.0
 11
-93.599999499999853
 21
75.599999999999909
 31
0.0
  0
LINE
  8
DETAIL
  6
CONTINUOUS
 62
     5
 10
-93.599999499999853
 20
-68.400000000000091
 30
0.0
 11
-93.599999499999853
 21
-75.600000000000023
 31
0.0
  0
LINE
  8
DETAIL
  6
CONTINUOUS
 62
     5
 10
-86.399999499999808
 20
68.399999999999864
 30
0.0
 11
-86.399999499999808
 21
75.599999999999909
 31
0.0
  0
LINE
  8
DETAIL
  6
CONTINUOUS
 62
     5
 10
-86.399999499999808
 20
-68.400000000000091
 30
0.0
 11
-86.399999499999808
 21
-75.600000000000023
 31
0.0
  0
LINE
  8
DETAIL
  6
CONTINUOUS
 62
     5
 10
-86.399999499999808
 20
68.399999999999864
 30
0.0
 11
-93.599999499999853
 21
68.399999999999864
 31
0.0
  0
LINE
  8
DETAIL
  6
CONTINUOUS
 62
     5
 10
-86.399999499999808
 20
-68.400000000000091
 30
0.0
 11
-93.599999499999853
 21
-68.400000000000091
 31
0.0
  0
LINE
  8
DETAIL
  6
CONTINUOUS
 62
     5
 10
-84.599999499999853
 20
68.399999999999864
 30
0.0
 11
-84.599999499999853
 21
75.599999999999909
 31
0.0
  0
LINE
  8
DETAIL
  6
CONTINUOUS
 62
     5
 10
-84.599999499999853
 20
-68.400000000000091
 30
0.0
 11
-84.599999499999853
 21
-75.600000000000023
 31
0.0
  0
LINE
  8
DETAIL
  6
CONTINUOUS
 62
     5
 10
-77.399999499999808
 20
68.399999999999864
 30
0.0
 11
-77.399999499999808
 21
75.599999999999909
 31
0.0
  0
LINE
  8
DETAIL
  6
CONTINUOUS
 62
     5
 10
-77.399999499999808
 20
-68.400000000000091
 30
0.0
 11
-77.399999499999808
 21
-75.600000000000023
 31
0.0
  0
LINE
  8
DETAIL
  6
CONTINUOUS
 62
     5
 10
-77.399999499999808
 20
68.399999999999864
 30
0.0
 11
-84.599999499999853
 21
68.399999999999864
 31
0.0
  0
LINE
  8
DETAIL
  6
CONTINUOUS
 62
     5
 10
-77.399999499999808
 20
-68.400000000000091
 30
0.0
 11
-84.599999499999853
 21
-68.400000000000091
 31
0.0
  0
LINE
  8
DETAIL
  6
CONTINUOUS
 62
     5
 10
-75.599999499999853
 20
68.399999999999864
 30
0.0
 11
-75.599999499999853
 21
75.599999999999909
 31
0.0
  0
LINE
  8
DETAIL
  6
CONTINUOUS
 62
     5
 10
-75.599999499999853
 20
-68.400000000000091
 30
0.0
 11
-75.599999499999853
 21
-75.600000000000023
 31
0.0
  0
LINE
  8
DETAIL
  6
CONTINUOUS
 62
     5
 10
-68.399999499999808
 20
68.399999999999864
 30
0.0
 11
-68.399999499999808
 21
75.599999999999909
 31
0.0
  0
LINE
  8
DETAIL
  6
CONTINUOUS
 62
     5
 10
-68.399999499999808
 20
-68.400000000000091
 30
0.0
 11
-68.399999499999808
 21
-75.600000000000023
 31
0.0
  0
LINE
  8
DETAIL
  6
CONTINUOUS
 62
     5
 10
-68.399999499999808
 20
68.399999999999864
 30
0.0
 11
-75.599999499999853
 21
68.399999999999864
 31
0.0
  0
LINE
  8
DETAIL
  6
CONTINUOUS
 62
     5
 10
-68.399999499999808
 20
-68.400000000000091
 30
0.0
 11
-75.599999499999853
 21
-68.400000000000091
 31
0.0
  0
LINE
  8
DETAIL
  6
CONTINUOUS
 62
     5
 10
-66.599999499999853
 20
68.399999999999864
 30
0.0
 11
-66.599999499999853
 21
75.599999999999909
 31
0.0
  0
LINE
  8
DETAIL
  6
CONTINUOUS
 62
     5
 10
-66.599999499999853
 20
-68.400000000000091
 30
0.0
 11
-66.599999499999853
 21
-75.600000000000023
 31
0.0
  0
LINE
  8
DETAIL
  6
CONTINUOUS
 62
     5
 10
-59.399999499999808
 20
68.399999999999864
 30
0.0
 11
-59.399999499999808
 21
75.599999999999909
 31
0.0
  0
LINE
  8
DETAIL
  6
CONTINUOUS
 62
     5
 10
-59.399999499999808
 20
-68.400000000000091
 30
0.0
 11
-59.399999499999808
 21
-75.600000000000023
 31
0.0
  0
LINE
  8
DETAIL
  6
CONTINUOUS
 62
     5
 10
-59.399999499999808
 20
68.399999999999864
 30
0.0
 11
-66.599999499999853
 21
68.399999999999864
 31
0.0
  0
LINE
  8
DETAIL
  6
CONTINUOUS
 62
     5
 10
-59.399999499999808
 20
-68.400000000000091
 30
0.0
 11
-66.599999499999853
 21
-68.400000000000091
 31
0.0
  0
LINE
  8
DETAIL
  6
CONTINUOUS
 62
     5
 10
-57.599999499999853
 20
68.399999999999864
 30
0.0
 11
-57.599999499999853
 21
75.599999999999909
 31
0.0
  0
LINE
  8
DETAIL
  6
CONTINUOUS
 62
     5
 10
-57.599999499999853
 20
-68.400000000000091
 30
0.0
 11
-57.599999499999853
 21
-75.600000000000023
 31
0.0
  0
LINE
  8
DETAIL
  6
CONTINUOUS
 62
     5
 10
-50.399999499999808
 20
68.399999999999864
 30
0.0
 11
-50.399999499999808
 21
75.599999999999909
 31
0.0
  0
LINE
  8
DETAIL
  6
CONTINUOUS
 62
     5
 10
-50.399999499999808
 20
-68.400000000000091
 30
0.0
 11
-50.399999499999808
 21
-75.600000000000023
 31
0.0
  0
LINE
  8
DETAIL
  6
CONTINUOUS
 62
     5
 10
-50.399999499999808
 20
68.399999999999864
 30
0.0
 11
-57.599999499999853
 21
68.399999999999864
 31
0.0
  0
LINE
  8
DETAIL
  6
CONTINUOUS
 62
     5
 10
-50.399999499999808
 20
-68.400000000000091
 30
0.0
 11
-57.599999499999853
 21
-68.400000000000091
 31
0.0
  0
LINE
  8
DETAIL
  6
CONTINUOUS
 62
     5
 10
-48.599999499999853
 20
68.399999999999864
 30
0.0
 11
-48.599999499999853
 21
75.599999999999909
 31
0.0
  0
LINE
  8
DETAIL
  6
CONTINUOUS
 62
     5
 10
-48.599999499999853
 20
-68.400000000000091
 30
0.0
 11
-48.599999499999853
 21
-75.600000000000023
 31
0.0
  0
LINE
  8
DETAIL
  6
CONTINUOUS
 62
     5
 10
-41.399999499999808
 20
68.399999999999864
 30
0.0
 11
-41.399999499999808
 21
75.599999999999909
 31
0.0
  0
LINE
  8
DETAIL
  6
CONTINUOUS
 62
     5
 10
-41.399999499999808
 20
-68.400000000000091
 30
0.0
 11
-41.399999499999808
 21
-75.600000000000023
 31
0.0
  0
LINE
  8
DETAIL
  6
CONTINUOUS
 62
     5
 10
-41.399999499999808
 20
68.399999999999864
 30
0.0
 11
-48.599999499999853
 21
68.399999999999864
 31
0.0
  0
LINE
  8
DETAIL
  6
CONTINUOUS
 62
     5
 10
-41.399999499999808
 20
-68.400000000000091
 30
0.0
 11
-48.599999499999853
 21
-68.400000000000091
 31
0.0
  0
LINE
  8
DETAIL
  6
CONTINUOUS
 62
     5
 10
-39.599999499999853
 20
68.399999999999864
 30
0.0
 11
-39.599999499999853
 21
75.599999999999909
 31
0.0
  0
LINE
  8
DETAIL
  6
CONTINUOUS
 62
     5
 10
-39.599999499999853
 20
-68.400000000000091
 30
0.0
 11
-39.599999499999853
 21
-75.600000000000023
 31
0.0
  0
LINE
  8
DETAIL
  6
CONTINUOUS
 62
     5
 10
-59.399999499999808
 20
23.39999999999986
 30
0.0
 11
-66.599999499999853
 21
23.39999999999986
 31
0.0
  0
LINE
  8
DETAIL
  6
CONTINUOUS
 62
     5
 10
-59.399999499999808
 20
-23.400000000000091
 30
0.0
 11
-66.599999499999853
 21
-23.400000000000091
 31
0.0
  0
LINE
  8
DETAIL
  6
CONTINUOUS
 62
     5
 10
-59.399999499999808
 20
30.599999999999909
 30
0.0
 11
-59.399999499999808
 21
23.39999999999986
 31
0.0
  0
LINE
  8
DETAIL
  6
CONTINUOUS
 62
     5
 10
-59.399999499999808
 20
-30.600000000000019
 30
0.0
 11
-59.399999499999808
 21
-23.400000000000091
 31
0.0
  0
LINE
  8
DETAIL
  6
CONTINUOUS
 62
     5
 10
-77.399999499999808
 20
3.5999999999999091
 30
0.0
 11
-84.599999499999853
 21
3.5999999999999091
 31
0.0
  0
LINE
  8
DETAIL
  6
CONTINUOUS
 62
     5
 10
-77.399999499999808
 20
-3.600000000000136
 30
0.0
 11
-84.599999499999853
 21
-3.600000000000136
 31
0.0
  0
LINE
  8
DETAIL
  6
CONTINUOUS
 62
     5
 10
-68.399999499999808
 20
3.5999999999999091
 30
0.0
 11
-75.599999499999853
 21
3.5999999999999091
 31
0.0
  0
LINE
  8
DETAIL
  6
CONTINUOUS
 62
     5
 10
-68.399999499999808
 20
-3.600000000000136
 30
0.0
 11
-75.599999499999853
 21
-3.600000000000136
 31
0.0
  0
LINE
  8
DETAIL
  6
CONTINUOUS
 62
     5
 10
-59.399999499999808
 20
3.5999999999999091
 30
0.0
 11
-66.599999499999853
 21
3.5999999999999091
 31
0.0
  0
LINE
  8
DETAIL
  6
CONTINUOUS
 62
     5
 10
-59.399999499999808
 20
-3.600000000000136
 30
0.0
 11
-66.599999499999853
 21
-3.600000000000136
 31
0.0
  0
LINE
  8
DETAIL
  6
CONTINUOUS
 62
     5
 10
-50.399999499999808
 20
3.5999999999999091
 30
0.0
 11
-57.599999499999853
 21
3.5999999999999091
 31
0.0
  0
LINE
  8
DETAIL
  6
CONTINUOUS
 62
     5
 10
-50.399999499999808
 20
-3.600000000000136
 30
0.0
 11
-57.599999499999853
 21
-3.600000000000136
 31
0.0
  0
LINE
  8
DETAIL
  6
CONTINUOUS
 62
     5
 10
-41.399999499999808
 20
3.5999999999999091
 30
0.0
 11
-48.599999499999853
 21
3.5999999999999091
 31
0.0
  0
LINE
  8
DETAIL
  6
CONTINUOUS
 62
     5
 10
-41.399999499999808
 20
-3.600000000000136
 30
0.0
 11
-48.599999499999853
 21
-3.600000000000136
 31
0.0
  0
LINE
  8
DETAIL
  6
CONTINUOUS
 62
     5
 10
-32.399999499999808
 20
3.5999999999999091
 30
0.0
 11
-39.599999499999853
 21
3.5999999999999091
 31
0.0
  0
LINE
  8
DETAIL
  6
CONTINUOUS
 62
     5
 10
-32.399999499999808
 20
-3.600000000000136
 30
0.0
 11
-39.599999499999853
 21
-3.600000000000136
 31
0.0
  0
LINE
  8
DETAIL
  6
CONTINUOUS
 62
     5
 10
-23.399999499999812
 20
3.5999999999999091
 30
0.0
 11
-30.59999949999985
 21
3.5999999999999091
 31
0.0
  0
LINE
  8
DETAIL
  6
CONTINUOUS
 62
     5
 10
-23.399999499999812
 20
-3.600000000000136
 30
0.0
 11
-30.59999949999985
 21
-3.600000000000136
 31
0.0
  0
LINE
  8
DETAIL
  6
CONTINUOUS
 62
     5
 10
-14.39999949999981
 20
3.5999999999999091
 30
0.0
 11
-21.59999949999985
 21
3.5999999999999091
 31
0.0
  0
LINE
  8
DETAIL
  6
CONTINUOUS
 62
     5
 10
-14.39999949999981
 20
-3.600000000000136
 30
0.0
 11
-21.59999949999985
 21
-3.600000000000136
 31
0.0
  0
LINE
  8
DETAIL
  6
CONTINUOUS
 62
     5
 10
-5.399999499999808
 20
3.5999999999999091
 30
0.0
 11
-12.59999949999985
 21
3.5999999999999091
 31
0.0
  0
LINE
  8
DETAIL
  6
CONTINUOUS
 62
     5
 10
-5.399999499999808
 20
-3.600000000000136
 30
0.0
 11
-12.59999949999985
 21
-3.600000000000136
 31
0.0
  0
LINE
  8
DETAIL
  6
CONTINUOUS
 62
     5
 10
-68.399999499999808
 20
5.3999999999998636
 30
0.0
 11
-75.599999499999853
 21
5.3999999999998636
 31
0.0
  0
LINE
  8
DETAIL
  6
CONTINUOUS
 62
     5
 10
-68.399999499999808
 20
-5.4000000000000909
 30
0.0
 11
-75.599999499999853
 21
-5.4000000000000909
 31
0.0
  0
LINE
  8
DETAIL
  6
CONTINUOUS
 62
     5
 10
-68.399999499999808
 20
12.599999999999911
 30
0.0
 11
-75.599999499999853
 21
12.599999999999911
 31
0.0
  0
LINE
  8
DETAIL
  6
CONTINUOUS
 62
     5
 10
-68.399999499999808
 20
-12.60000000000014
 30
0.0
 11
-75.599999499999853
 21
-12.60000000000014
 31
0.0
  0
LINE
  8
DETAIL
  6
CONTINUOUS
 62
     5
 10
-75.599999499999853
 20
5.3999999999998636
 30
0.0
 11
-75.599999499999853
 21
12.599999999999911
 31
0.0
  0
LINE
  8
DETAIL
  6
CONTINUOUS
 62
     5
 10
-75.599999499999853
 20
-5.4000000000000909
 30
0.0
 11
-75.599999499999853
 21
-12.60000000000014
 31
0.0
  0
LINE
  8
DETAIL
  6
CONTINUOUS
 62
     5
 10
-68.399999499999808
 20
5.3999999999998636
 30
0.0
 11
-68.399999499999808
 21
12.599999999999911
 31
0.0
  0
LINE
  8
DETAIL
  6
CONTINUOUS
 62
     5
 10
-68.399999499999808
 20
-5.4000000000000909
 30
0.0
 11
-68.399999499999808
 21
-12.60000000000014
 31
0.0
  0
LINE
  8
DETAIL
  6
CONTINUOUS
 62
     5
 10
-59.399999499999808
 20
5.3999999999998636
 30
0.0
 11
-66.599999499999853
 21
5.3999999999998636
 31
0.0
  0
LINE
  8
DETAIL
  6
CONTINUOUS
 62
     5
 10
-59.399999499999808
 20
-5.4000000000000909
 30
0.0
 11
-66.599999499999853
 21
-5.4000000000000909
 31
0.0
  0
LINE
  8
DETAIL
  6
CONTINUOUS
 62
     5
 10
-59.399999499999808
 20
12.599999999999911
 30
0.0
 11
-66.599999499999853
 21
12.599999999999911
 31
0.0
  0
LINE
  8
DETAIL
  6
CONTINUOUS
 62
     5
 10
-59.399999499999808
 20
-12.60000000000014
 30
0.0
 11
-66.599999499999853
 21
-12.60000000000014
 31
0.0
  0
LINE
  8
DETAIL
  6
CONTINUOUS
 62
     5
 10
-66.599999499999853
 20
5.3999999999998636
 30
0.0
 11
-66.599999499999853
 21
12.599999999999911
 31
0.0
  0
LINE
  8
DETAIL
  6
CONTINUOUS
 62
     5
 10
-66.599999499999853
 20
-5.4000000000000909
 30
0.0
 11
-66.599999499999853
 21
-12.60000000000014
 31
0.0
  0
LINE
  8
DETAIL
  6
CONTINUOUS
 62
     5
 10
-59.399999499999808
 20
5.3999999999998636
 30
0.0
 11
-59.399999499999808
 21
12.599999999999911
 31
0.0
  0
LINE
  8
DETAIL
  6
CONTINUOUS
 62
     5
 10
-59.399999499999808
 20
-5.4000000000000909
 30
0.0
 11
-59.399999499999808
 21
-12.60000000000014
 31
0.0
  0
LINE
  8
DETAIL
  6
CONTINUOUS
 62
     5
 10
-50.399999499999808
 20
5.3999999999998636
 30
0.0
 11
-57.599999499999853
 21
5.3999999999998636
 31
0.0
  0
LINE
  8
DETAIL
  6
CONTINUOUS
 62
     5
 10
-50.399999499999808
 20
-5.4000000000000909
 30
0.0
 11
-57.599999499999853
 21
-5.4000000000000909
 31
0.0
  0
LINE
  8
DETAIL
  6
CONTINUOUS
 62
     5
 10
-50.399999499999808
 20
12.599999999999911
 30
0.0
 11
-57.599999499999853
 21
12.599999999999911
 31
0.0
  0
LINE
  8
DETAIL
  6
CONTINUOUS
 62
     5
 10
-50.399999499999808
 20
-12.60000000000014
 30
0.0
 11
-57.599999499999853
 21
-12.60000000000014
 31
0.0
  0
LINE
  8
DETAIL
  6
CONTINUOUS
 62
     5
 10
-57.599999499999853
 20
5.3999999999998636
 30
0.0
 11
-57.599999499999853
 21
12.599999999999911
 31
0.0
  0
LINE
  8
DETAIL
  6
CONTINUOUS
 62
     5
 10
-57.599999499999853
 20
-5.4000000000000909
 30
0.0
 11
-57.599999499999853
 21
-12.60000000000014
 31
0.0
  0
LINE
  8
DETAIL
  6
CONTINUOUS
 62
     5
 10
-50.399999499999808
 20
5.3999999999998636
 30
0.0
 11
-50.399999499999808
 21
12.599999999999911
 31
0.0
  0
LINE
  8
DETAIL
  6
CONTINUOUS
 62
     5
 10
-50.399999499999808
 20
-5.4000000000000909
 30
0.0
 11
-50.399999499999808
 21
-12.60000000000014
 31
0.0
  0
LINE
  8
DETAIL
  6
CONTINUOUS
 62
     5
 10
-41.399999499999808
 20
5.3999999999998636
 30
0.0
 11
-48.599999499999853
 21
5.3999999999998636
 31
0.0
  0
LINE
  8
DETAIL
  6
CONTINUOUS
 62
     5
 10
-41.399999499999808
 20
-5.4000000000000909
 30
0.0
 11
-48.599999499999853
 21
-5.4000000000000909
 31
0.0
  0
LINE
  8
DETAIL
  6
CONTINUOUS
 62
     5
 10
-41.399999499999808
 20
12.599999999999911
 30
0.0
 11
-48.599999499999853
 21
12.599999999999911
 31
0.0
  0
LINE
  8
DETAIL
  6
CONTINUOUS
 62
     5
 10
-41.399999499999808
 20
-12.60000000000014
 30
0.0
 11
-48.599999499999853
 21
-12.60000000000014
 31
0.0
  0
LINE
  8
DETAIL
  6
CONTINUOUS
 62
     5
 10
-48.599999499999853
 20
5.3999999999998636
 30
0.0
 11
-48.599999499999853
 21
12.599999999999911
 31
0.0
  0
LINE
  8
DETAIL
  6
CONTINUOUS
 62
     5
 10
-48.599999499999853
 20
-5.4000000000000909
 30
0.0
 11
-48.599999499999853
 21
-12.60000000000014
 31
0.0
  0
LINE
  8
DETAIL
  6
CONTINUOUS
 62
     5
 10
-41.399999499999808
 20
5.3999999999998636
 30
0.0
 11
-41.399999499999808
 21
12.599999999999911
 31
0.0
  0
LINE
  8
DETAIL
  6
CONTINUOUS
 62
     5
 10
-41.399999499999808
 20
-5.4000000000000909
 30
0.0
 11
-41.399999499999808
 21
-12.60000000000014
 31
0.0
  0
LINE
  8
DETAIL
  6
CONTINUOUS
 62
     5
 10
-32.399999499999808
 20
5.3999999999998636
 30
0.0
 11
-39.599999499999853
 21
5.3999999999998636
 31
0.0
  0
LINE
  8
DETAIL
  6
CONTINUOUS
 62
     5
 10
-32.399999499999808
 20
-5.4000000000000909
 30
0.0
 11
-39.599999499999853
 21
-5.4000000000000909
 31
0.0
  0
LINE
  8
DETAIL
  6
CONTINUOUS
 62
     5
 10
-32.399999499999808
 20
12.599999999999911
 30
0.0
 11
-39.599999499999853
 21
12.599999999999911
 31
0.0
  0
LINE
  8
DETAIL
  6
CONTINUOUS
 62
     5
 10
-32.399999499999808
 20
-12.60000000000014
 30
0.0
 11
-39.599999499999853
 21
-12.60000000000014
 31
0.0
  0
LINE
  8
DETAIL
  6
CONTINUOUS
 62
     5
 10
-39.599999499999853
 20
5.3999999999998636
 30
0.0
 11
-39.599999499999853
 21
12.599999999999911
 31
0.0
  0
LINE
  8
DETAIL
  6
CONTINUOUS
 62
     5
 10
-39.599999499999853
 20
-5.4000000000000909
 30
0.0
 11
-39.599999499999853
 21
-12.60000000000014
 31
0.0
  0
LINE
  8
DETAIL
  6
CONTINUOUS
 62
     5
 10
-32.399999499999808
 20
5.3999999999998636
 30
0.0
 11
-32.399999499999808
 21
12.599999999999911
 31
0.0
  0
LINE
  8
DETAIL
  6
CONTINUOUS
 62
     5
 10
-32.399999499999808
 20
-5.4000000000000909
 30
0.0
 11
-32.399999499999808
 21
-12.60000000000014
 31
0.0
  0
LINE
  8
DETAIL
  6
CONTINUOUS
 62
     5
 10
-23.399999499999812
 20
5.3999999999998636
 30
0.0
 11
-30.59999949999985
 21
5.3999999999998636
 31
0.0
  0
LINE
  8
DETAIL
  6
CONTINUOUS
 62
     5
 10
-23.399999499999812
 20
-5.4000000000000909
 30
0.0
 11
-30.59999949999985
 21
-5.4000000000000909
 31
0.0
  0
LINE
  8
DETAIL
  6
CONTINUOUS
 62
     5
 10
-23.399999499999812
 20
12.599999999999911
 30
0.0
 11
-30.59999949999985
 21
12.599999999999911
 31
0.0
  0
LINE
  8
DETAIL
  6
CONTINUOUS
 62
     5
 10
-23.399999499999812
 20
-12.60000000000014
 30
0.0
 11
-30.59999949999985
 21
-12.60000000000014
 31
0.0
  0
LINE
  8
DETAIL
  6
CONTINUOUS
 62
     5
 10
-30.59999949999985
 20
5.3999999999998636
 30
0.0
 11
-30.59999949999985
 21
12.599999999999911
 31
0.0
  0
LINE
  8
DETAIL
  6
CONTINUOUS
 62
     5
 10
-30.59999949999985
 20
-5.4000000000000909
 30
0.0
 11
-30.59999949999985
 21
-12.60000000000014
 31
0.0
  0
LINE
  8
DETAIL
  6
CONTINUOUS
 62
     5
 10
-23.399999499999812
 20
5.3999999999998636
 30
0.0
 11
-23.399999499999812
 21
12.599999999999911
 31
0.0
  0
LINE
  8
DETAIL
  6
CONTINUOUS
 62
     5
 10
-23.399999499999812
 20
-5.4000000000000909
 30
0.0
 11
-23.399999499999812
 21
-12.60000000000014
 31
0.0
  0
LINE
  8
DETAIL
  6
CONTINUOUS
 62
     5
 10
-14.39999949999981
 20
5.3999999999998636
 30
0.0
 11
-21.59999949999985
 21
5.3999999999998636
 31
0.0
  0
LINE
  8
DETAIL
  6
CONTINUOUS
 62
     5
 10
-14.39999949999981
 20
-5.4000000000000909
 30
0.0
 11
-21.59999949999985
 21
-5.4000000000000909
 31
0.0
  0
LINE
  8
DETAIL
  6
CONTINUOUS
 62
     5
 10
-14.39999949999981
 20
12.599999999999911
 30
0.0
 11
-21.59999949999985
 21
12.599999999999911
 31
0.0
  0
LINE
  8
DETAIL
  6
CONTINUOUS
 62
     5
 10
-14.39999949999981
 20
-12.60000000000014
 30
0.0
 11
-21.59999949999985
 21
-12.60000000000014
 31
0.0
  0
LINE
  8
DETAIL
  6
CONTINUOUS
 62
     5
 10
-21.59999949999985
 20
5.3999999999998636
 30
0.0
 11
-21.59999949999985
 21
12.599999999999911
 31
0.0
  0
LINE
  8
DETAIL
  6
CONTINUOUS
 62
     5
 10
-21.59999949999985
 20
-5.4000000000000909
 30
0.0
 11
-21.59999949999985
 21
-12.60000000000014
 31
0.0
  0
LINE
  8
DETAIL
  6
CONTINUOUS
 62
     5
 10
-14.39999949999981
 20
5.3999999999998636
 30
0.0
 11
-14.39999949999981
 21
12.599999999999911
 31
0.0
  0
LINE
  8
DETAIL
  6
CONTINUOUS
 62
     5
 10
-14.39999949999981
 20
-5.4000000000000909
 30
0.0
 11
-14.39999949999981
 21
-12.60000000000014
 31
0.0
  0
LINE
  8
DETAIL
  6
CONTINUOUS
 62
     5
 10
-5.399999499999808
 20
5.3999999999998636
 30
0.0
 11
-12.59999949999985
 21
5.3999999999998636
 31
0.0
  0
LINE
  8
DETAIL
  6
CONTINUOUS
 62
     5
 10
-5.399999499999808
 20
-5.4000000000000909
 30
0.0
 11
-12.59999949999985
 21
-5.4000000000000909
 31
0.0
  0
LINE
  8
DETAIL
  6
CONTINUOUS
 62
     5
 10
-5.399999499999808
 20
12.599999999999911
 30
0.0
 11
-12.59999949999985
 21
12.599999999999911
 31
0.0
  0
LINE
  8
DETAIL
  6
CONTINUOUS
 62
     5
 10
-5.399999499999808
 20
-12.60000000000014
 30
0.0
 11
-12.59999949999985
 21
-12.60000000000014
 31
0.0
  0
LINE
  8
DETAIL
  6
CONTINUOUS
 62
     5
 10
-12.59999949999985
 20
5.3999999999998636
 30
0.0
 11
-12.59999949999985
 21
12.599999999999911
 31
0.0
  0
LINE
  8
DETAIL
  6
CONTINUOUS
 62
     5
 10
-12.59999949999985
 20
-5.4000000000000909
 30
0.0
 11
-12.59999949999985
 21
-12.60000000000014
 31
0.0
  0
LINE
  8
DETAIL
  6
CONTINUOUS
 62
     5
 10
-5.399999499999808
 20
5.3999999999998636
 30
0.0
 11
-5.399999499999808
 21
12.599999999999911
 31
0.0
  0
LINE
  8
DETAIL
  6
CONTINUOUS
 62
     5
 10
-5.399999499999808
 20
-5.4000000000000909
 30
0.0
 11
-5.399999499999808
 21
-12.60000000000014
 31
0.0
  0
LINE
  8
DETAIL
  6
CONTINUOUS
 62
     5
 10
-59.399999499999808
 20
21.599999999999909
 30
0.0
 11
-66.599999499999853
 21
21.599999999999909
 31
0.0
  0
LINE
  8
DETAIL
  6
CONTINUOUS
 62
     5
 10
-59.399999499999808
 20
-21.60000000000014
 30
0.0
 11
-66.599999499999853
 21
-21.60000000000014
 31
0.0
  0
LINE
  8
DETAIL
  6
CONTINUOUS
 62
     5
 10
-66.599999499999853
 20
14.39999999999986
 30
0.0
 11
-66.599999499999853
 21
21.599999999999909
 31
0.0
  0
LINE
  8
DETAIL
  6
CONTINUOUS
 62
     5
 10
-66.599999499999853
 20
-14.400000000000089
 30
0.0
 11
-66.599999499999853
 21
-21.60000000000014
 31
0.0
  0
LINE
  8
DETAIL
  6
CONTINUOUS
 62
     5
 10
-59.399999499999808
 20
14.39999999999986
 30
0.0
 11
-59.399999499999808
 21
21.599999999999909
 31
0.0
  0
LINE
  8
DETAIL
  6
CONTINUOUS
 62
     5
 10
-59.399999499999808
 20
-14.400000000000089
 30
0.0
 11
-59.399999499999808
 21
-21.60000000000014
 31
0.0
  0
LINE
  8
DETAIL
  6
CONTINUOUS
 62
     5
 10
-59.399999499999808
 20
14.39999999999986
 30
0.0
 11
-66.599999499999853
 21
14.39999999999986
 31
0.0
  0
LINE
  8
DETAIL
  6
CONTINUOUS
 62
     5
 10
-59.399999499999808
 20
-14.400000000000089
 30
0.0
 11
-66.599999499999853
 21
-14.400000000000089
 31
0.0
  0
LINE
  8
DETAIL
  6
CONTINUOUS
 62
     5
 10
-50.399999499999808
 20
21.599999999999909
 30
0.0
 11
-57.599999499999853
 21
21.599999999999909
 31
0.0
  0
LINE
  8
DETAIL
  6
CONTINUOUS
 62
     5
 10
-50.399999499999808
 20
-21.60000000000014
 30
0.0
 11
-57.599999499999853
 21
-21.60000000000014
 31
0.0
  0
LINE
  8
DETAIL
  6
CONTINUOUS
 62
     5
 10
-57.599999499999853
 20
14.39999999999986
 30
0.0
 11
-57.599999499999853
 21
21.599999999999909
 31
0.0
  0
LINE
  8
DETAIL
  6
CONTINUOUS
 62
     5
 10
-57.599999499999853
 20
-14.400000000000089
 30
0.0
 11
-57.599999499999853
 21
-21.60000000000014
 31
0.0
  0
LINE
  8
DETAIL
  6
CONTINUOUS
 62
     5
 10
-50.399999499999808
 20
14.39999999999986
 30
0.0
 11
-50.399999499999808
 21
21.599999999999909
 31
0.0
  0
LINE
  8
DETAIL
  6
CONTINUOUS
 62
     5
 10
-50.399999499999808
 20
-14.400000000000089
 30
0.0
 11
-50.399999499999808
 21
-21.60000000000014
 31
0.0
  0
LINE
  8
DETAIL
  6
CONTINUOUS
 62
     5
 10
-50.399999499999808
 20
14.39999999999986
 30
0.0
 11
-57.599999499999853
 21
14.39999999999986
 31
0.0
  0
LINE
  8
DETAIL
  6
CONTINUOUS
 62
     5
 10
-50.399999499999808
 20
-14.400000000000089
 30
0.0
 11
-57.599999499999853
 21
-14.400000000000089
 31
0.0
  0
LINE
  8
DETAIL
  6
CONTINUOUS
 62
     5
 10
-41.399999499999808
 20
21.599999999999909
 30
0.0
 11
-48.599999499999853
 21
21.599999999999909
 31
0.0
  0
LINE
  8
DETAIL
  6
CONTINUOUS
 62
     5
 10
-41.399999499999808
 20
-21.60000000000014
 30
0.0
 11
-48.599999499999853
 21
-21.60000000000014
 31
0.0
  0
LINE
  8
DETAIL
  6
CONTINUOUS
 62
     5
 10
-48.599999499999853
 20
14.39999999999986
 30
0.0
 11
-48.599999499999853
 21
21.599999999999909
 31
0.0
  0
LINE
  8
DETAIL
  6
CONTINUOUS
 62
     5
 10
-48.599999499999853
 20
-14.400000000000089
 30
0.0
 11
-48.599999499999853
 21
-21.60000000000014
 31
0.0
  0
LINE
  8
DETAIL
  6
CONTINUOUS
 62
     5
 10
-41.399999499999808
 20
14.39999999999986
 30
0.0
 11
-41.399999499999808
 21
21.599999999999909
 31
0.0
  0
LINE
  8
DETAIL
  6
CONTINUOUS
 62
     5
 10
-41.399999499999808
 20
-14.400000000000089
 30
0.0
 11
-41.399999499999808
 21
-21.60000000000014
 31
0.0
  0
LINE
  8
DETAIL
  6
CONTINUOUS
 62
     5
 10
-41.399999499999808
 20
14.39999999999986
 30
0.0
 11
-48.599999499999853
 21
14.39999999999986
 31
0.0
  0
LINE
  8
DETAIL
  6
CONTINUOUS
 62
     5
 10
-41.399999499999808
 20
-14.400000000000089
 30
0.0
 11
-48.599999499999853
 21
-14.400000000000089
 31
0.0
  0
LINE
  8
DETAIL
  6
CONTINUOUS
 62
     5
 10
-32.399999499999808
 20
21.599999999999909
 30
0.0
 11
-39.599999499999853
 21
21.599999999999909
 31
0.0
  0
LINE
  8
DETAIL
  6
CONTINUOUS
 62
     5
 10
-32.399999499999808
 20
-21.60000000000014
 30
0.0
 11
-39.599999499999853
 21
-21.60000000000014
 31
0.0
  0
LINE
  8
DETAIL
  6
CONTINUOUS
 62
     5
 10
-39.599999499999853
 20
14.39999999999986
 30
0.0
 11
-39.599999499999853
 21
21.599999999999909
 31
0.0
  0
LINE
  8
DETAIL
  6
CONTINUOUS
 62
     5
 10
-39.599999499999853
 20
-14.400000000000089
 30
0.0
 11
-39.599999499999853
 21
-21.60000000000014
 31
0.0
  0
LINE
  8
DETAIL
  6
CONTINUOUS
 62
     5
 10
-32.399999499999808
 20
14.39999999999986
 30
0.0
 11
-32.399999499999808
 21
21.599999999999909
 31
0.0
  0
LINE
  8
DETAIL
  6
CONTINUOUS
 62
     5
 10
-32.399999499999808
 20
-14.400000000000089
 30
0.0
 11
-32.399999499999808
 21
-21.60000000000014
 31
0.0
  0
LINE
  8
DETAIL
  6
CONTINUOUS
 62
     5
 10
-32.399999499999808
 20
14.39999999999986
 30
0.0
 11
-39.599999499999853
 21
14.39999999999986
 31
0.0
  0
LINE
  8
DETAIL
  6
CONTINUOUS
 62
     5
 10
-32.399999499999808
 20
-14.400000000000089
 30
0.0
 11
-39.599999499999853
 21
-14.400000000000089
 31
0.0
  0
LINE
  8
DETAIL
  6
CONTINUOUS
 62
     5
 10
-23.399999499999812
 20
21.599999999999909
 30
0.0
 11
-30.59999949999985
 21
21.599999999999909
 31
0.0
  0
LINE
  8
DETAIL
  6
CONTINUOUS
 62
     5
 10
-23.399999499999812
 20
-21.60000000000014
 30
0.0
 11
-30.59999949999985
 21
-21.60000000000014
 31
0.0
  0
LINE
  8
DETAIL
  6
CONTINUOUS
 62
     5
 10
-30.59999949999985
 20
14.39999999999986
 30
0.0
 11
-30.59999949999985
 21
21.599999999999909
 31
0.0
  0
LINE
  8
DETAIL
  6
CONTINUOUS
 62
     5
 10
-30.59999949999985
 20
-14.400000000000089
 30
0.0
 11
-30.59999949999985
 21
-21.60000000000014
 31
0.0
  0
LINE
  8
DETAIL
  6
CONTINUOUS
 62
     5
 10
-23.399999499999812
 20
14.39999999999986
 30
0.0
 11
-23.399999499999812
 21
21.599999999999909
 31
0.0
  0
LINE
  8
DETAIL
  6
CONTINUOUS
 62
     5
 10
-23.399999499999812
 20
-14.400000000000089
 30
0.0
 11
-23.399999499999812
 21
-21.60000000000014
 31
0.0
  0
LINE
  8
DETAIL
  6
CONTINUOUS
 62
     5
 10
-23.399999499999812
 20
14.39999999999986
 30
0.0
 11
-30.59999949999985
 21
14.39999999999986
 31
0.0
  0
LINE
  8
DETAIL
  6
CONTINUOUS
 62
     5
 10
-23.399999499999812
 20
-14.400000000000089
 30
0.0
 11
-30.59999949999985
 21
-14.400000000000089
 31
0.0
  0
LINE
  8
DETAIL
  6
CONTINUOUS
 62
     5
 10
-14.39999949999981
 20
21.599999999999909
 30
0.0
 11
-21.59999949999985
 21
21.599999999999909
 31
0.0
  0
LINE
  8
DETAIL
  6
CONTINUOUS
 62
     5
 10
-14.39999949999981
 20
-21.60000000000014
 30
0.0
 11
-21.59999949999985
 21
-21.60000000000014
 31
0.0
  0
LINE
  8
DETAIL
  6
CONTINUOUS
 62
     5
 10
-21.59999949999985
 20
14.39999999999986
 30
0.0
 11
-21.59999949999985
 21
21.599999999999909
 31
0.0
  0
LINE
  8
DETAIL
  6
CONTINUOUS
 62
     5
 10
-21.59999949999985
 20
-14.400000000000089
 30
0.0
 11
-21.59999949999985
 21
-21.60000000000014
 31
0.0
  0
LINE
  8
DETAIL
  6
CONTINUOUS
 62
     5
 10
-14.39999949999981
 20
14.39999999999986
 30
0.0
 11
-14.39999949999981
 21
21.599999999999909
 31
0.0
  0
LINE
  8
DETAIL
  6
CONTINUOUS
 62
     5
 10
-14.39999949999981
 20
-14.400000000000089
 30
0.0
 11
-14.39999949999981
 21
-21.60000000000014
 31
0.0
  0
LINE
  8
DETAIL
  6
CONTINUOUS
 62
     5
 10
-14.39999949999981
 20
14.39999999999986
 30
0.0
 11
-21.59999949999985
 21
14.39999999999986
 31
0.0
  0
LINE
  8
DETAIL
  6
CONTINUOUS
 62
     5
 10
-14.39999949999981
 20
-14.400000000000089
 30
0.0
 11
-21.59999949999985
 21
-14.400000000000089
 31
0.0
  0
LINE
  8
DETAIL
  6
CONTINUOUS
 62
     5
 10
-5.399999499999808
 20
21.599999999999909
 30
0.0
 11
-12.59999949999985
 21
21.599999999999909
 31
0.0
  0
LINE
  8
DETAIL
  6
CONTINUOUS
 62
     5
 10
-5.399999499999808
 20
-21.60000000000014
 30
0.0
 11
-12.59999949999985
 21
-21.60000000000014
 31
0.0
  0
LINE
  8
DETAIL
  6
CONTINUOUS
 62
     5
 10
-12.59999949999985
 20
14.39999999999986
 30
0.0
 11
-12.59999949999985
 21
21.599999999999909
 31
0.0
  0
LINE
  8
DETAIL
  6
CONTINUOUS
 62
     5
 10
-12.59999949999985
 20
-14.400000000000089
 30
0.0
 11
-12.59999949999985
 21
-21.60000000000014
 31
0.0
  0
LINE
  8
DETAIL
  6
CONTINUOUS
 62
     5
 10
-5.399999499999808
 20
14.39999999999986
 30
0.0
 11
-5.399999499999808
 21
21.599999999999909
 31
0.0
  0
LINE
  8
DETAIL
  6
CONTINUOUS
 62
     5
 10
-5.399999499999808
 20
-14.400000000000089
 30
0.0
 11
-5.399999499999808
 21
-21.60000000000014
 31
0.0
  0
LINE
  8
DETAIL
  6
CONTINUOUS
 62
     5
 10
-5.399999499999808
 20
14.39999999999986
 30
0.0
 11
-12.59999949999985
 21
14.39999999999986
 31
0.0
  0
LINE
  8
DETAIL
  6
CONTINUOUS
 62
     5
 10
-5.399999499999808
 20
-14.400000000000089
 30
0.0
 11
-12.59999949999985
 21
-14.400000000000089
 31
0.0
  0
LINE
  8
DETAIL
  6
CONTINUOUS
 62
     5
 10
-50.399999499999808
 20
30.599999999999909
 30
0.0
 11
-57.599999499999853
 21
30.599999999999909
 31
0.0
  0
LINE
  8
DETAIL
  6
CONTINUOUS
 62
     5
 10
-50.399999499999808
 20
-30.600000000000019
 30
0.0
 11
-57.599999499999853
 21
-30.600000000000019
 31
0.0
  0
LINE
  8
DETAIL
  6
CONTINUOUS
 62
     5
 10
-57.599999499999853
 20
23.39999999999986
 30
0.0
 11
-57.599999499999853
 21
30.599999999999909
 31
0.0
  0
LINE
  8
DETAIL
  6
CONTINUOUS
 62
     5
 10
-57.599999499999853
 20
-23.400000000000091
 30
0.0
 11
-57.599999499999853
 21
-30.600000000000019
 31
0.0
  0
LINE
  8
DETAIL
  6
CONTINUOUS
 62
     5
 10
-50.399999499999808
 20
23.39999999999986
 30
0.0
 11
-50.399999499999808
 21
30.599999999999909
 31
0.0
  0
LINE
  8
DETAIL
  6
CONTINUOUS
 62
     5
 10
-50.399999499999808
 20
-23.400000000000091
 30
0.0
 11
-50.399999499999808
 21
-30.600000000000019
 31
0.0
  0
LINE
  8
DETAIL
  6
CONTINUOUS
 62
     5
 10
-50.399999499999808
 20
23.39999999999986
 30
0.0
 11
-57.599999499999853
 21
23.39999999999986
 31
0.0
  0
LINE
  8
DETAIL
  6
CONTINUOUS
 62
     5
 10
-50.399999499999808
 20
-23.400000000000091
 30
0.0
 11
-57.599999499999853
 21
-23.400000000000091
 31
0.0
  0
LINE
  8
DETAIL
  6
CONTINUOUS
 62
     5
 10
-50.399999499999808
 20
23.39999999999986
 30
0.0
 11
-57.599999499999853
 21
23.39999999999986
 31
0.0
  0
LINE
  8
DETAIL
  6
CONTINUOUS
 62
     5
 10
-50.399999499999808
 20
-23.400000000000091
 30
0.0
 11
-57.599999499999853
 21
-23.400000000000091
 31
0.0
  0
LINE
  8
DETAIL
  6
CONTINUOUS
 62
     5
 10
-50.399999499999808
 20
30.599999999999909
 30
0.0
 11
-50.399999499999808
 21
23.39999999999986
 31
0.0
  0
LINE
  8
DETAIL
  6
CONTINUOUS
 62
     5
 10
-50.399999499999808
 20
-30.600000000000019
 30
0.0
 11
-50.399999499999808
 21
-23.400000000000091
 31
0.0
  0
LINE
  8
DETAIL
  6
CONTINUOUS
 62
     5
 10
-41.399999499999808
 20
30.599999999999909
 30
0.0
 11
-48.599999499999853
 21
30.599999999999909
 31
0.0
  0
LINE
  8
DETAIL
  6
CONTINUOUS
 62
     5
 10
-41.399999499999808
 20
-30.600000000000019
 30
0.0
 11
-48.599999499999853
 21
-30.600000000000019
 31
0.0
  0
LINE
  8
DETAIL
  6
CONTINUOUS
 62
     5
 10
-48.599999499999853
 20
23.39999999999986
 30
0.0
 11
-48.599999499999853
 21
30.599999999999909
 31
0.0
  0
LINE
  8
DETAIL
  6
CONTINUOUS
 62
     5
 10
-48.599999499999853
 20
-23.400000000000091
 30
0.0
 11
-48.599999499999853
 21
-30.600000000000019
 31
0.0
  0
LINE
  8
DETAIL
  6
CONTINUOUS
 62
     5
 10
-41.399999499999808
 20
23.39999999999986
 30
0.0
 11
-41.399999499999808
 21
30.599999999999909
 31
0.0
  0
LINE
  8
DETAIL
  6
CONTINUOUS
 62
     5
 10
-41.399999499999808
 20
-23.400000000000091
 30
0.0
 11
-41.399999499999808
 21
-30.600000000000019
 31
0.0
  0
LINE
  8
DETAIL
  6
CONTINUOUS
 62
     5
 10
-41.399999499999808
 20
23.39999999999986
 30
0.0
 11
-48.599999499999853
 21
23.39999999999986
 31
0.0
  0
LINE
  8
DETAIL
  6
CONTINUOUS
 62
     5
 10
-41.399999499999808
 20
-23.400000000000091
 30
0.0
 11
-48.599999499999853
 21
-23.400000000000091
 31
0.0
  0
LINE
  8
DETAIL
  6
CONTINUOUS
 62
     5
 10
-41.399999499999808
 20
23.39999999999986
 30
0.0
 11
-48.599999499999853
 21
23.39999999999986
 31
0.0
  0
LINE
  8
DETAIL
  6
CONTINUOUS
 62
     5
 10
-41.399999499999808
 20
-23.400000000000091
 30
0.0
 11
-48.599999499999853
 21
-23.400000000000091
 31
0.0
  0
LINE
  8
DETAIL
  6
CONTINUOUS
 62
     5
 10
-41.399999499999808
 20
30.599999999999909
 30
0.0
 11
-41.399999499999808
 21
23.39999999999986
 31
0.0
  0
LINE
  8
DETAIL
  6
CONTINUOUS
 62
     5
 10
-41.399999499999808
 20
-30.600000000000019
 30
0.0
 11
-41.399999499999808
 21
-23.400000000000091
 31
0.0
  0
LINE
  8
DETAIL
  6
CONTINUOUS
 62
     5
 10
-32.399999499999808
 20
30.599999999999909
 30
0.0
 11
-39.599999499999853
 21
30.599999999999909
 31
0.0
  0
LINE
  8
DETAIL
  6
CONTINUOUS
 62
     5
 10
-32.399999499999808
 20
-30.600000000000019
 30
0.0
 11
-39.599999499999853
 21
-30.600000000000019
 31
0.0
  0
LINE
  8
DETAIL
  6
CONTINUOUS
 62
     5
 10
-39.599999499999853
 20
23.39999999999986
 30
0.0
 11
-39.599999499999853
 21
30.599999999999909
 31
0.0
  0
LINE
  8
DETAIL
  6
CONTINUOUS
 62
     5
 10
-39.599999499999853
 20
-23.400000000000091
 30
0.0
 11
-39.599999499999853
 21
-30.600000000000019
 31
0.0
  0
LINE
  8
DETAIL
  6
CONTINUOUS
 62
     5
 10
-32.399999499999808
 20
23.39999999999986
 30
0.0
 11
-32.399999499999808
 21
30.599999999999909
 31
0.0
  0
LINE
  8
DETAIL
  6
CONTINUOUS
 62
     5
 10
-32.399999499999808
 20
-23.400000000000091
 30
0.0
 11
-32.399999499999808
 21
-30.600000000000019
 31
0.0
  0
LINE
  8
DETAIL
  6
CONTINUOUS
 62
     5
 10
-32.399999499999808
 20
23.39999999999986
 30
0.0
 11
-39.599999499999853
 21
23.39999999999986
 31
0.0
  0
LINE
  8
DETAIL
  6
CONTINUOUS
 62
     5
 10
-32.399999499999808
 20
-23.400000000000091
 30
0.0
 11
-39.599999499999853
 21
-23.400000000000091
 31
0.0
  0
LINE
  8
DETAIL
  6
CONTINUOUS
 62
     5
 10
-32.399999499999808
 20
23.39999999999986
 30
0.0
 11
-39.599999499999853
 21
23.39999999999986
 31
0.0
  0
LINE
  8
DETAIL
  6
CONTINUOUS
 62
     5
 10
-32.399999499999808
 20
-23.400000000000091
 30
0.0
 11
-39.599999499999853
 21
-23.400000000000091
 31
0.0
  0
LINE
  8
DETAIL
  6
CONTINUOUS
 62
     5
 10
-32.399999499999808
 20
30.599999999999909
 30
0.0
 11
-32.399999499999808
 21
23.39999999999986
 31
0.0
  0
LINE
  8
DETAIL
  6
CONTINUOUS
 62
     5
 10
-32.399999499999808
 20
-30.600000000000019
 30
0.0
 11
-32.399999499999808
 21
-23.400000000000091
 31
0.0
  0
LINE
  8
DETAIL
  6
CONTINUOUS
 62
     5
 10
-23.399999499999812
 20
30.599999999999909
 30
0.0
 11
-30.59999949999985
 21
30.599999999999909
 31
0.0
  0
LINE
  8
DETAIL
  6
CONTINUOUS
 62
     5
 10
-23.399999499999812
 20
-30.600000000000019
 30
0.0
 11
-30.59999949999985
 21
-30.600000000000019
 31
0.0
  0
LINE
  8
DETAIL
  6
CONTINUOUS
 62
     5
 10
-30.59999949999985
 20
23.39999999999986
 30
0.0
 11
-30.59999949999985
 21
30.599999999999909
 31
0.0
  0
LINE
  8
DETAIL
  6
CONTINUOUS
 62
     5
 10
-30.59999949999985
 20
-23.400000000000091
 30
0.0
 11
-30.59999949999985
 21
-30.600000000000019
 31
0.0
  0
LINE
  8
DETAIL
  6
CONTINUOUS
 62
     5
 10
-23.399999499999812
 20
23.39999999999986
 30
0.0
 11
-23.399999499999812
 21
30.599999999999909
 31
0.0
  0
LINE
  8
DETAIL
  6
CONTINUOUS
 62
     5
 10
-23.399999499999812
 20
-23.400000000000091
 30
0.0
 11
-23.399999499999812
 21
-30.600000000000019
 31
0.0
  0
LINE
  8
DETAIL
  6
CONTINUOUS
 62
     5
 10
-23.399999499999812
 20
23.39999999999986
 30
0.0
 11
-30.59999949999985
 21
23.39999999999986
 31
0.0
  0
LINE
  8
DETAIL
  6
CONTINUOUS
 62
     5
 10
-23.399999499999812
 20
-23.400000000000091
 30
0.0
 11
-30.59999949999985
 21
-23.400000000000091
 31
0.0
  0
LINE
  8
DETAIL
  6
CONTINUOUS
 62
     5
 10
-23.399999499999812
 20
23.39999999999986
 30
0.0
 11
-30.59999949999985
 21
23.39999999999986
 31
0.0
  0
LINE
  8
DETAIL
  6
CONTINUOUS
 62
     5
 10
-23.399999499999812
 20
-23.400000000000091
 30
0.0
 11
-30.59999949999985
 21
-23.400000000000091
 31
0.0
  0
LINE
  8
DETAIL
  6
CONTINUOUS
 62
     5
 10
-23.399999499999812
 20
30.599999999999909
 30
0.0
 11
-23.399999499999812
 21
23.39999999999986
 31
0.0
  0
LINE
  8
DETAIL
  6
CONTINUOUS
 62
     5
 10
-23.399999499999812
 20
-30.600000000000019
 30
0.0
 11
-23.399999499999812
 21
-23.400000000000091
 31
0.0
  0
LINE
  8
DETAIL
  6
CONTINUOUS
 62
     5
 10
-14.39999949999981
 20
30.599999999999909
 30
0.0
 11
-21.59999949999985
 21
30.599999999999909
 31
0.0
  0
LINE
  8
DETAIL
  6
CONTINUOUS
 62
     5
 10
-14.39999949999981
 20
-30.600000000000019
 30
0.0
 11
-21.59999949999985
 21
-30.600000000000019
 31
0.0
  0
LINE
  8
DETAIL
  6
CONTINUOUS
 62
     5
 10
-21.59999949999985
 20
23.39999999999986
 30
0.0
 11
-21.59999949999985
 21
30.599999999999909
 31
0.0
  0
LINE
  8
DETAIL
  6
CONTINUOUS
 62
     5
 10
-21.59999949999985
 20
-23.400000000000091
 30
0.0
 11
-21.59999949999985
 21
-30.600000000000019
 31
0.0
  0
LINE
  8
DETAIL
  6
CONTINUOUS
 62
     5
 10
-14.39999949999981
 20
23.39999999999986
 30
0.0
 11
-14.39999949999981
 21
30.599999999999909
 31
0.0
  0
LINE
  8
DETAIL
  6
CONTINUOUS
 62
     5
 10
-14.39999949999981
 20
-23.400000000000091
 30
0.0
 11
-14.39999949999981
 21
-30.600000000000019
 31
0.0
  0
LINE
  8
DETAIL
  6
CONTINUOUS
 62
     5
 10
-14.39999949999981
 20
23.39999999999986
 30
0.0
 11
-21.59999949999985
 21
23.39999999999986
 31
0.0
  0
LINE
  8
DETAIL
  6
CONTINUOUS
 62
     5
 10
-14.39999949999981
 20
-23.400000000000091
 30
0.0
 11
-21.59999949999985
 21
-23.400000000000091
 31
0.0
  0
LINE
  8
DETAIL
  6
CONTINUOUS
 62
     5
 10
-14.39999949999981
 20
23.39999999999986
 30
0.0
 11
-21.59999949999985
 21
23.39999999999986
 31
0.0
  0
LINE
  8
DETAIL
  6
CONTINUOUS
 62
     5
 10
-14.39999949999981
 20
-23.400000000000091
 30
0.0
 11
-21.59999949999985
 21
-23.400000000000091
 31
0.0
  0
LINE
  8
DETAIL
  6
CONTINUOUS
 62
     5
 10
-14.39999949999981
 20
30.599999999999909
 30
0.0
 11
-14.39999949999981
 21
23.39999999999986
 31
0.0
  0
LINE
  8
DETAIL
  6
CONTINUOUS
 62
     5
 10
-14.39999949999981
 20
-30.600000000000019
 30
0.0
 11
-14.39999949999981
 21
-23.400000000000091
 31
0.0
  0
LINE
  8
DETAIL
  6
CONTINUOUS
 62
     5
 10
-5.399999499999808
 20
30.599999999999909
 30
0.0
 11
-12.59999949999985
 21
30.599999999999909
 31
0.0
  0
LINE
  8
DETAIL
  6
CONTINUOUS
 62
     5
 10
-5.399999499999808
 20
-30.600000000000019
 30
0.0
 11
-12.59999949999985
 21
-30.600000000000019
 31
0.0
  0
LINE
  8
DETAIL
  6
CONTINUOUS
 62
     5
 10
-12.59999949999985
 20
23.39999999999986
 30
0.0
 11
-12.59999949999985
 21
30.599999999999909
 31
0.0
  0
LINE
  8
DETAIL
  6
CONTINUOUS
 62
     5
 10
-12.59999949999985
 20
-23.400000000000091
 30
0.0
 11
-12.59999949999985
 21
-30.600000000000019
 31
0.0
  0
LINE
  8
DETAIL
  6
CONTINUOUS
 62
     5
 10
-5.399999499999808
 20
23.39999999999986
 30
0.0
 11
-5.399999499999808
 21
30.599999999999909
 31
0.0
  0
LINE
  8
DETAIL
  6
CONTINUOUS
 62
     5
 10
-5.399999499999808
 20
-23.400000000000091
 30
0.0
 11
-5.399999499999808
 21
-30.600000000000019
 31
0.0
  0
LINE
  8
DETAIL
  6
CONTINUOUS
 62
     5
 10
-5.399999499999808
 20
23.39999999999986
 30
0.0
 11
-12.59999949999985
 21
23.39999999999986
 31
0.0
  0
LINE
  8
DETAIL
  6
CONTINUOUS
 62
     5
 10
-5.399999499999808
 20
-23.400000000000091
 30
0.0
 11
-12.59999949999985
 21
-23.400000000000091
 31
0.0
  0
LINE
  8
DETAIL
  6
CONTINUOUS
 62
     5
 10
-5.399999499999808
 20
23.39999999999986
 30
0.0
 11
-12.59999949999985
 21
23.39999999999986
 31
0.0
  0
LINE
  8
DETAIL
  6
CONTINUOUS
 62
     5
 10
-5.399999499999808
 20
-23.400000000000091
 30
0.0
 11
-12.59999949999985
 21
-23.400000000000091
 31
0.0
  0
LINE
  8
DETAIL
  6
CONTINUOUS
 62
     5
 10
-5.399999499999808
 20
30.599999999999909
 30
0.0
 11
-5.399999499999808
 21
23.39999999999986
 31
0.0
  0
LINE
  8
DETAIL
  6
CONTINUOUS
 62
     5
 10
-5.399999499999808
 20
-30.600000000000019
 30
0.0
 11
-5.399999499999808
 21
-23.400000000000091
 31
0.0
  0
LINE
  8
DETAIL
  6
CONTINUOUS
 62
     5
 10
-41.399999499999808
 20
39.599999999999909
 30
0.0
 11
-48.599999499999853
 21
39.599999999999909
 31
0.0
  0
LINE
  8
DETAIL
  6
CONTINUOUS
 62
     5
 10
-41.399999499999808
 20
-39.600000000000023
 30
0.0
 11
-48.599999499999853
 21
-39.600000000000023
 31
0.0
  0
LINE
  8
DETAIL
  6
CONTINUOUS
 62
     5
 10
-48.599999499999853
 20
32.399999999999856
 30
0.0
 11
-48.599999499999853
 21
39.599999999999909
 31
0.0
  0
LINE
  8
DETAIL
  6
CONTINUOUS
 62
     5
 10
-48.599999499999853
 20
-32.400000000000091
 30
0.0
 11
-48.599999499999853
 21
-39.600000000000023
 31
0.0
  0
LINE
  8
DETAIL
  6
CONTINUOUS
 62
     5
 10
-41.399999499999808
 20
32.399999999999856
 30
0.0
 11
-41.399999499999808
 21
39.599999999999909
 31
0.0
  0
LINE
  8
DETAIL
  6
CONTINUOUS
 62
     5
 10
-41.399999499999808
 20
-32.400000000000091
 30
0.0
 11
-41.399999499999808
 21
-39.600000000000023
 31
0.0
  0
LINE
  8
DETAIL
  6
CONTINUOUS
 62
     5
 10
-41.399999499999808
 20
32.399999999999856
 30
0.0
 11
-48.599999499999853
 21
32.399999999999856
 31
0.0
  0
LINE
  8
DETAIL
  6
CONTINUOUS
 62
     5
 10
-41.399999499999808
 20
-32.400000000000091
 30
0.0
 11
-48.599999499999853
 21
-32.400000000000091
 31
0.0
  0
LINE
  8
DETAIL
  6
CONTINUOUS
 62
     5
 10
-32.399999499999808
 20
39.599999999999909
 30
0.0
 11
-39.599999499999853
 21
39.599999999999909
 31
0.0
  0
LINE
  8
DETAIL
  6
CONTINUOUS
 62
     5
 10
-32.399999499999808
 20
-39.600000000000023
 30
0.0
 11
-39.599999499999853
 21
-39.600000000000023
 31
0.0
  0
LINE
  8
DETAIL
  6
CONTINUOUS
 62
     5
 10
-39.599999499999853
 20
32.399999999999856
 30
0.0
 11
-39.599999499999853
 21
39.599999999999909
 31
0.0
  0
LINE
  8
DETAIL
  6
CONTINUOUS
 62
     5
 10
-39.599999499999853
 20
-32.400000000000091
 30
0.0
 11
-39.599999499999853
 21
-39.600000000000023
 31
0.0
  0
LINE
  8
DETAIL
  6
CONTINUOUS
 62
     5
 10
-32.399999499999808
 20
32.399999999999856
 30
0.0
 11
-32.399999499999808
 21
39.599999999999909
 31
0.0
  0
LINE
  8
DETAIL
  6
CONTINUOUS
 62
     5
 10
-32.399999499999808
 20
-32.400000000000091
 30
0.0
 11
-32.399999499999808
 21
-39.600000000000023
 31
0.0
  0
LINE
  8
DETAIL
  6
CONTINUOUS
 62
     5
 10
-32.399999499999808
 20
32.399999999999856
 30
0.0
 11
-39.599999499999853
 21
32.399999999999856
 31
0.0
  0
LINE
  8
DETAIL
  6
CONTINUOUS
 62
     5
 10
-32.399999499999808
 20
-32.400000000000091
 30
0.0
 11
-39.599999499999853
 21
-32.400000000000091
 31
0.0
  0
LINE
  8
DETAIL
  6
CONTINUOUS
 62
     5
 10
-23.399999499999812
 20
39.599999999999909
 30
0.0
 11
-30.59999949999985
 21
39.599999999999909
 31
0.0
  0
LINE
  8
DETAIL
  6
CONTINUOUS
 62
     5
 10
-23.399999499999812
 20
-39.600000000000023
 30
0.0
 11
-30.59999949999985
 21
-39.600000000000023
 31
0.0
  0
LINE
  8
DETAIL
  6
CONTINUOUS
 62
     5
 10
-30.59999949999985
 20
32.399999999999856
 30
0.0
 11
-30.59999949999985
 21
39.599999999999909
 31
0.0
  0
LINE
  8
DETAIL
  6
CONTINUOUS
 62
     5
 10
-30.59999949999985
 20
-32.400000000000091
 30
0.0
 11
-30.59999949999985
 21
-39.600000000000023
 31
0.0
  0
LINE
  8
DETAIL
  6
CONTINUOUS
 62
     5
 10
-23.399999499999812
 20
32.399999999999856
 30
0.0
 11
-23.399999499999812
 21
39.599999999999909
 31
0.0
  0
LINE
  8
DETAIL
  6
CONTINUOUS
 62
     5
 10
-23.399999499999812
 20
-32.400000000000091
 30
0.0
 11
-23.399999499999812
 21
-39.600000000000023
 31
0.0
  0
LINE
  8
DETAIL
  6
CONTINUOUS
 62
     5
 10
-23.399999499999812
 20
32.399999999999856
 30
0.0
 11
-30.59999949999985
 21
32.399999999999856
 31
0.0
  0
LINE
  8
DETAIL
  6
CONTINUOUS
 62
     5
 10
-23.399999499999812
 20
-32.400000000000091
 30
0.0
 11
-30.59999949999985
 21
-32.400000000000091
 31
0.0
  0
LINE
  8
DETAIL
  6
CONTINUOUS
 62
     5
 10
-14.39999949999981
 20
39.599999999999909
 30
0.0
 11
-21.59999949999985
 21
39.599999999999909
 31
0.0
  0
LINE
  8
DETAIL
  6
CONTINUOUS
 62
     5
 10
-14.39999949999981
 20
-39.600000000000023
 30
0.0
 11
-21.59999949999985
 21
-39.600000000000023
 31
0.0
  0
LINE
  8
DETAIL
  6
CONTINUOUS
 62
     5
 10
-21.59999949999985
 20
32.399999999999856
 30
0.0
 11
-21.59999949999985
 21
39.599999999999909
 31
0.0
  0
LINE
  8
DETAIL
  6
CONTINUOUS
 62
     5
 10
-21.59999949999985
 20
-32.400000000000091
 30
0.0
 11
-21.59999949999985
 21
-39.600000000000023
 31
0.0
  0
LINE
  8
DETAIL
  6
CONTINUOUS
 62
     5
 10
-14.39999949999981
 20
32.399999999999856
 30
0.0
 11
-14.39999949999981
 21
39.599999999999909
 31
0.0
  0
LINE
  8
DETAIL
  6
CONTINUOUS
 62
     5
 10
-14.39999949999981
 20
-32.400000000000091
 30
0.0
 11
-14.39999949999981
 21
-39.600000000000023
 31
0.0
  0
LINE
  8
DETAIL
  6
CONTINUOUS
 62
     5
 10
-14.39999949999981
 20
32.399999999999856
 30
0.0
 11
-21.59999949999985
 21
32.399999999999856
 31
0.0
  0
LINE
  8
DETAIL
  6
CONTINUOUS
 62
     5
 10
-14.39999949999981
 20
-32.400000000000091
 30
0.0
 11
-21.59999949999985
 21
-32.400000000000091
 31
0.0
  0
LINE
  8
DETAIL
  6
CONTINUOUS
 62
     5
 10
-5.399999499999808
 20
39.599999999999909
 30
0.0
 11
-12.59999949999985
 21
39.599999999999909
 31
0.0
  0
LINE
  8
DETAIL
  6
CONTINUOUS
 62
     5
 10
-5.399999499999808
 20
-39.600000000000023
 30
0.0
 11
-12.59999949999985
 21
-39.600000000000023
 31
0.0
  0
LINE
  8
DETAIL
  6
CONTINUOUS
 62
     5
 10
-12.59999949999985
 20
32.399999999999856
 30
0.0
 11
-12.59999949999985
 21
39.599999999999909
 31
0.0
  0
LINE
  8
DETAIL
  6
CONTINUOUS
 62
     5
 10
-12.59999949999985
 20
-32.400000000000091
 30
0.0
 11
-12.59999949999985
 21
-39.600000000000023
 31
0.0
  0
LINE
  8
DETAIL
  6
CONTINUOUS
 62
     5
 10
-5.399999499999808
 20
32.399999999999856
 30
0.0
 11
-5.399999499999808
 21
39.599999999999909
 31
0.0
  0
LINE
  8
DETAIL
  6
CONTINUOUS
 62
     5
 10
-5.399999499999808
 20
-32.400000000000091
 30
0.0
 11
-5.399999499999808
 21
-39.600000000000023
 31
0.0
  0
LINE
  8
DETAIL
  6
CONTINUOUS
 62
     5
 10
-5.399999499999808
 20
32.399999999999856
 30
0.0
 11
-12.59999949999985
 21
32.399999999999856
 31
0.0
  0
LINE
  8
DETAIL
  6
CONTINUOUS
 62
     5
 10
-5.399999499999808
 20
-32.400000000000091
 30
0.0
 11
-12.59999949999985
 21
-32.400000000000091
 31
0.0
  0
LINE
  8
DETAIL
  6
CONTINUOUS
 62
     5
 10
-32.399999499999808
 20
48.599999999999909
 30
0.0
 11
-39.599999499999853
 21
48.599999999999909
 31
0.0
  0
LINE
  8
DETAIL
  6
CONTINUOUS
 62
     5
 10
-32.399999499999808
 20
-48.600000000000023
 30
0.0
 11
-39.599999499999853
 21
-48.600000000000023
 31
0.0
  0
LINE
  8
DETAIL
  6
CONTINUOUS
 62
     5
 10
-39.599999499999853
 20
41.399999999999856
 30
0.0
 11
-39.599999499999853
 21
48.599999999999909
 31
0.0
  0
LINE
  8
DETAIL
  6
CONTINUOUS
 62
     5
 10
-39.599999499999853
 20
-41.400000000000091
 30
0.0
 11
-39.599999499999853
 21
-48.600000000000023
 31
0.0
  0
LINE
  8
DETAIL
  6
CONTINUOUS
 62
     5
 10
-32.399999499999808
 20
41.399999999999856
 30
0.0
 11
-32.399999499999808
 21
48.599999999999909
 31
0.0
  0
LINE
  8
DETAIL
  6
CONTINUOUS
 62
     5
 10
-32.399999499999808
 20
-41.400000000000091
 30
0.0
 11
-32.399999499999808
 21
-48.600000000000023
 31
0.0
  0
LINE
  8
DETAIL
  6
CONTINUOUS
 62
     5
 10
-32.399999499999808
 20
41.399999999999856
 30
0.0
 11
-39.599999499999853
 21
41.399999999999856
 31
0.0
  0
LINE
  8
DETAIL
  6
CONTINUOUS
 62
     5
 10
-32.399999499999808
 20
-41.400000000000091
 30
0.0
 11
-39.599999499999853
 21
-41.400000000000091
 31
0.0
  0
LINE
  8
DETAIL
  6
CONTINUOUS
 62
     5
 10
-23.399999499999812
 20
48.599999999999909
 30
0.0
 11
-30.59999949999985
 21
48.599999999999909
 31
0.0
  0
LINE
  8
DETAIL
  6
CONTINUOUS
 62
     5
 10
-23.399999499999812
 20
-48.600000000000023
 30
0.0
 11
-30.59999949999985
 21
-48.600000000000023
 31
0.0
  0
LINE
  8
DETAIL
  6
CONTINUOUS
 62
     5
 10
-30.59999949999985
 20
41.399999999999856
 30
0.0
 11
-30.59999949999985
 21
48.599999999999909
 31
0.0
  0
LINE
  8
DETAIL
  6
CONTINUOUS
 62
     5
 10
-30.59999949999985
 20
-41.400000000000091
 30
0.0
 11
-30.59999949999985
 21
-48.600000000000023
 31
0.0
  0
LINE
  8
DETAIL
  6
CONTINUOUS
 62
     5
 10
-23.399999499999812
 20
41.399999999999856
 30
0.0
 11
-23.399999499999812
 21
48.599999999999909
 31
0.0
  0
LINE
  8
DETAIL
  6
CONTINUOUS
 62
     5
 10
-23.399999499999812
 20
-41.400000000000091
 30
0.0
 11
-23.399999499999812
 21
-48.600000000000023
 31
0.0
  0
LINE
  8
DETAIL
  6
CONTINUOUS
 62
     5
 10
-23.399999499999812
 20
41.399999999999856
 30
0.0
 11
-30.59999949999985
 21
41.399999999999856
 31
0.0
  0
LINE
  8
DETAIL
  6
CONTINUOUS
 62
     5
 10
-23.399999499999812
 20
-41.400000000000091
 30
0.0
 11
-30.59999949999985
 21
-41.400000000000091
 31
0.0
  0
LINE
  8
DETAIL
  6
CONTINUOUS
 62
     5
 10
-14.39999949999981
 20
48.599999999999909
 30
0.0
 11
-21.59999949999985
 21
48.599999999999909
 31
0.0
  0
LINE
  8
DETAIL
  6
CONTINUOUS
 62
     5
 10
-14.39999949999981
 20
-48.600000000000023
 30
0.0
 11
-21.59999949999985
 21
-48.600000000000023
 31
0.0
  0
LINE
  8
DETAIL
  6
CONTINUOUS
 62
     5
 10
-21.59999949999985
 20
41.399999999999856
 30
0.0
 11
-21.59999949999985
 21
48.599999999999909
 31
0.0
  0
LINE
  8
DETAIL
  6
CONTINUOUS
 62
     5
 10
-21.59999949999985
 20
-41.400000000000091
 30
0.0
 11
-21.59999949999985
 21
-48.600000000000023
 31
0.0
  0
LINE
  8
DETAIL
  6
CONTINUOUS
 62
     5
 10
-14.39999949999981
 20
41.399999999999856
 30
0.0
 11
-14.39999949999981
 21
48.599999999999909
 31
0.0
  0
LINE
  8
DETAIL
  6
CONTINUOUS
 62
     5
 10
-14.39999949999981
 20
-41.400000000000091
 30
0.0
 11
-14.39999949999981
 21
-48.600000000000023
 31
0.0
  0
LINE
  8
DETAIL
  6
CONTINUOUS
 62
     5
 10
-14.39999949999981
 20
41.399999999999856
 30
0.0
 11
-21.59999949999985
 21
41.399999999999856
 31
0.0
  0
LINE
  8
DETAIL
  6
CONTINUOUS
 62
     5
 10
-14.39999949999981
 20
-41.400000000000091
 30
0.0
 11
-21.59999949999985
 21
-41.400000000000091
 31
0.0
  0
LINE
  8
DETAIL
  6
CONTINUOUS
 62
     5
 10
-5.399999499999808
 20
48.599999999999909
 30
0.0
 11
-12.59999949999985
 21
48.599999999999909
 31
0.0
  0
LINE
  8
DETAIL
  6
CONTINUOUS
 62
     5
 10
-5.399999499999808
 20
-48.600000000000023
 30
0.0
 11
-12.59999949999985
 21
-48.600000000000023
 31
0.0
  0
LINE
  8
DETAIL
  6
CONTINUOUS
 62
     5
 10
-12.59999949999985
 20
41.399999999999856
 30
0.0
 11
-12.59999949999985
 21
48.599999999999909
 31
0.0
  0
LINE
  8
DETAIL
  6
CONTINUOUS
 62
     5
 10
-12.59999949999985
 20
-41.400000000000091
 30
0.0
 11
-12.59999949999985
 21
-48.600000000000023
 31
0.0
  0
LINE
  8
DETAIL
  6
CONTINUOUS
 62
     5
 10
-5.399999499999808
 20
41.399999999999856
 30
0.0
 11
-5.399999499999808
 21
48.599999999999909
 31
0.0
  0
LINE
  8
DETAIL
  6
CONTINUOUS
 62
     5
 10
-5.399999499999808
 20
-41.400000000000091
 30
0.0
 11
-5.399999499999808
 21
-48.600000000000023
 31
0.0
  0
LINE
  8
DETAIL
  6
CONTINUOUS
 62
     5
 10
-5.399999499999808
 20
41.399999999999856
 30
0.0
 11
-12.59999949999985
 21
41.399999999999856
 31
0.0
  0
LINE
  8
DETAIL
  6
CONTINUOUS
 62
     5
 10
-5.399999499999808
 20
-41.400000000000091
 30
0.0
 11
-12.59999949999985
 21
-41.400000000000091
 31
0.0
  0
LINE
  8
DETAIL
  6
CONTINUOUS
 62
     5
 10
-23.399999499999812
 20
57.599999999999909
 30
0.0
 11
-30.59999949999985
 21
57.599999999999909
 31
0.0
  0
LINE
  8
DETAIL
  6
CONTINUOUS
 62
     5
 10
-23.399999499999812
 20
-57.600000000000023
 30
0.0
 11
-30.59999949999985
 21
-57.600000000000023
 31
0.0
  0
LINE
  8
DETAIL
  6
CONTINUOUS
 62
     5
 10
-23.399999499999812
 20
50.399999999999856
 30
0.0
 11
-23.399999499999812
 21
57.599999999999909
 31
0.0
  0
LINE
  8
DETAIL
  6
CONTINUOUS
 62
     5
 10
-23.399999499999812
 20
-50.400000000000091
 30
0.0
 11
-23.399999499999812
 21
-57.600000000000023
 31
0.0
  0
LINE
  8
DETAIL
  6
CONTINUOUS
 62
     5
 10
-23.399999499999812
 20
50.399999999999856
 30
0.0
 11
-30.59999949999985
 21
50.399999999999856
 31
0.0
  0
LINE
  8
DETAIL
  6
CONTINUOUS
 62
     5
 10
-23.399999499999812
 20
-50.400000000000091
 30
0.0
 11
-30.59999949999985
 21
-50.400000000000091
 31
0.0
  0
LINE
  8
DETAIL
  6
CONTINUOUS
 62
     5
 10
-23.399999499999812
 20
50.399999999999856
 30
0.0
 11
-30.59999949999985
 21
50.399999999999856
 31
0.0
  0
LINE
  8
DETAIL
  6
CONTINUOUS
 62
     5
 10
-23.399999499999812
 20
-50.400000000000091
 30
0.0
 11
-30.59999949999985
 21
-50.400000000000091
 31
0.0
  0
LINE
  8
DETAIL
  6
CONTINUOUS
 62
     5
 10
-23.399999499999812
 20
57.599999999999909
 30
0.0
 11
-23.399999499999812
 21
50.399999999999856
 31
0.0
  0
LINE
  8
DETAIL
  6
CONTINUOUS
 62
     5
 10
-23.399999499999812
 20
-57.600000000000023
 30
0.0
 11
-23.399999499999812
 21
-50.400000000000091
 31
0.0
  0
LINE
  8
DETAIL
  6
CONTINUOUS
 62
     5
 10
-30.59999949999985
 20
50.399999999999856
 30
0.0
 11
-30.59999949999985
 21
57.599999999999909
 31
0.0
  0
LINE
  8
DETAIL
  6
CONTINUOUS
 62
     5
 10
-30.59999949999985
 20
-50.400000000000091
 30
0.0
 11
-30.59999949999985
 21
-57.600000000000023
 31
0.0
  0
LINE
  8
DETAIL
  6
CONTINUOUS
 62
     5
 10
-14.39999949999981
 20
57.599999999999909
 30
0.0
 11
-21.59999949999985
 21
57.599999999999909
 31
0.0
  0
LINE
  8
DETAIL
  6
CONTINUOUS
 62
     5
 10
-14.39999949999981
 20
-57.600000000000023
 30
0.0
 11
-21.59999949999985
 21
-57.600000000000023
 31
0.0
  0
LINE
  8
DETAIL
  6
CONTINUOUS
 62
     5
 10
-14.39999949999981
 20
50.399999999999856
 30
0.0
 11
-14.39999949999981
 21
57.599999999999909
 31
0.0
  0
LINE
  8
DETAIL
  6
CONTINUOUS
 62
     5
 10
-14.39999949999981
 20
-50.400000000000091
 30
0.0
 11
-14.39999949999981
 21
-57.600000000000023
 31
0.0
  0
LINE
  8
DETAIL
  6
CONTINUOUS
 62
     5
 10
-14.39999949999981
 20
50.399999999999856
 30
0.0
 11
-21.59999949999985
 21
50.399999999999856
 31
0.0
  0
LINE
  8
DETAIL
  6
CONTINUOUS
 62
     5
 10
-14.39999949999981
 20
-50.400000000000091
 30
0.0
 11
-21.59999949999985
 21
-50.400000000000091
 31
0.0
  0
LINE
  8
DETAIL
  6
CONTINUOUS
 62
     5
 10
-14.39999949999981
 20
50.399999999999856
 30
0.0
 11
-21.59999949999985
 21
50.399999999999856
 31
0.0
  0
LINE
  8
DETAIL
  6
CONTINUOUS
 62
     5
 10
-14.39999949999981
 20
-50.400000000000091
 30
0.0
 11
-21.59999949999985
 21
-50.400000000000091
 31
0.0
  0
LINE
  8
DETAIL
  6
CONTINUOUS
 62
     5
 10
-14.39999949999981
 20
57.599999999999909
 30
0.0
 11
-14.39999949999981
 21
50.399999999999856
 31
0.0
  0
LINE
  8
DETAIL
  6
CONTINUOUS
 62
     5
 10
-14.39999949999981
 20
-57.600000000000023
 30
0.0
 11
-14.39999949999981
 21
-50.400000000000091
 31
0.0
  0
LINE
  8
DETAIL
  6
CONTINUOUS
 62
     5
 10
-21.59999949999985
 20
50.399999999999856
 30
0.0
 11
-21.59999949999985
 21
57.599999999999909
 31
0.0
  0
LINE
  8
DETAIL
  6
CONTINUOUS
 62
     5
 10
-21.59999949999985
 20
-50.400000000000091
 30
0.0
 11
-21.59999949999985
 21
-57.600000000000023
 31
0.0
  0
LINE
  8
DETAIL
  6
CONTINUOUS
 62
     5
 10
-5.399999499999808
 20
57.599999999999909
 30
0.0
 11
-12.59999949999985
 21
57.599999999999909
 31
0.0
  0
LINE
  8
DETAIL
  6
CONTINUOUS
 62
     5
 10
-5.399999499999808
 20
-57.600000000000023
 30
0.0
 11
-12.59999949999985
 21
-57.600000000000023
 31
0.0
  0
LINE
  8
DETAIL
  6
CONTINUOUS
 62
     5
 10
-5.399999499999808
 20
50.399999999999856
 30
0.0
 11
-5.399999499999808
 21
57.599999999999909
 31
0.0
  0
LINE
  8
DETAIL
  6
CONTINUOUS
 62
     5
 10
-5.399999499999808
 20
-50.400000000000091
 30
0.0
 11
-5.399999499999808
 21
-57.600000000000023
 31
0.0
  0
LINE
  8
DETAIL
  6
CONTINUOUS
 62
     5
 10
-5.399999499999808
 20
50.399999999999856
 30
0.0
 11
-12.59999949999985
 21
50.399999999999856
 31
0.0
  0
LINE
  8
DETAIL
  6
CONTINUOUS
 62
     5
 10
-5.399999499999808
 20
-50.400000000000091
 30
0.0
 11
-12.59999949999985
 21
-50.400000000000091
 31
0.0
  0
LINE
  8
DETAIL
  6
CONTINUOUS
 62
     5
 10
-5.399999499999808
 20
50.399999999999856
 30
0.0
 11
-12.59999949999985
 21
50.399999999999856
 31
0.0
  0
LINE
  8
DETAIL
  6
CONTINUOUS
 62
     5
 10
-5.399999499999808
 20
-50.400000000000091
 30
0.0
 11
-12.59999949999985
 21
-50.400000000000091
 31
0.0
  0
LINE
  8
DETAIL
  6
CONTINUOUS
 62
     5
 10
-5.399999499999808
 20
57.599999999999909
 30
0.0
 11
-5.399999499999808
 21
50.399999999999856
 31
0.0
  0
LINE
  8
DETAIL
  6
CONTINUOUS
 62
     5
 10
-5.399999499999808
 20
-57.600000000000023
 30
0.0
 11
-5.399999499999808
 21
-50.400000000000091
 31
0.0
  0
LINE
  8
DETAIL
  6
CONTINUOUS
 62
     5
 10
-12.59999949999985
 20
50.399999999999856
 30
0.0
 11
-12.59999949999985
 21
57.599999999999909
 31
0.0
  0
LINE
  8
DETAIL
  6
CONTINUOUS
 62
     5
 10
-12.59999949999985
 20
-50.400000000000091
 30
0.0
 11
-12.59999949999985
 21
-57.600000000000023
 31
0.0
  0
LINE
  8
DETAIL
  6
CONTINUOUS
 62
     5
 10
-14.39999949999981
 20
66.599999999999909
 30
0.0
 11
-21.59999949999985
 21
66.599999999999909
 31
0.0
  0
LINE
  8
DETAIL
  6
CONTINUOUS
 62
     5
 10
-14.39999949999981
 20
-66.600000000000023
 30
0.0
 11
-21.59999949999985
 21
-66.600000000000023
 31
0.0
  0
LINE
  8
DETAIL
  6
CONTINUOUS
 62
     5
 10
-21.59999949999985
 20
59.399999999999856
 30
0.0
 11
-21.59999949999985
 21
66.599999999999909
 31
0.0
  0
LINE
  8
DETAIL
  6
CONTINUOUS
 62
     5
 10
-21.59999949999985
 20
-59.400000000000091
 30
0.0
 11
-21.59999949999985
 21
-66.600000000000023
 31
0.0
  0
LINE
  8
DETAIL
  6
CONTINUOUS
 62
     5
 10
-14.39999949999981
 20
59.399999999999856
 30
0.0
 11
-14.39999949999981
 21
66.599999999999909
 31
0.0
  0
LINE
  8
DETAIL
  6
CONTINUOUS
 62
     5
 10
-14.39999949999981
 20
-59.400000000000091
 30
0.0
 11
-14.39999949999981
 21
-66.600000000000023
 31
0.0
  0
LINE
  8
DETAIL
  6
CONTINUOUS
 62
     5
 10
-14.39999949999981
 20
59.399999999999856
 30
0.0
 11
-21.59999949999985
 21
59.399999999999856
 31
0.0
  0
LINE
  8
DETAIL
  6
CONTINUOUS
 62
     5
 10
-14.39999949999981
 20
-59.400000000000091
 30
0.0
 11
-21.59999949999985
 21
-59.400000000000091
 31
0.0
  0
LINE
  8
DETAIL
  6
CONTINUOUS
 62
     5
 10
-5.399999499999808
 20
66.599999999999909
 30
0.0
 11
-12.59999949999985
 21
66.599999999999909
 31
0.0
  0
LINE
  8
DETAIL
  6
CONTINUOUS
 62
     5
 10
-5.399999499999808
 20
-66.600000000000023
 30
0.0
 11
-12.59999949999985
 21
-66.600000000000023
 31
0.0
  0
LINE
  8
DETAIL
  6
CONTINUOUS
 62
     5
 10
-12.59999949999985
 20
59.399999999999856
 30
0.0
 11
-12.59999949999985
 21
66.599999999999909
 31
0.0
  0
LINE
  8
DETAIL
  6
CONTINUOUS
 62
     5
 10
-12.59999949999985
 20
-59.400000000000091
 30
0.0
 11
-12.59999949999985
 21
-66.600000000000023
 31
0.0
  0
LINE
  8
DETAIL
  6
CONTINUOUS
 62
     5
 10
-5.399999499999808
 20
59.399999999999856
 30
0.0
 11
-5.399999499999808
 21
66.599999999999909
 31
0.0
  0
LINE
  8
DETAIL
  6
CONTINUOUS
 62
     5
 10
-5.399999499999808
 20
-59.400000000000091
 30
0.0
 11
-5.399999499999808
 21
-66.600000000000023
 31
0.0
  0
LINE
  8
DETAIL
  6
CONTINUOUS
 62
     5
 10
-5.399999499999808
 20
59.399999999999856
 30
0.0
 11
-12.59999949999985
 21
59.399999999999856
 31
0.0
  0
LINE
  8
DETAIL
  6
CONTINUOUS
 62
     5
 10
-5.399999499999808
 20
-59.400000000000091
 30
0.0
 11
-12.59999949999985
 21
-59.400000000000091
 31
0.0
  0
LINE
  8
DETAIL
  6
CONTINUOUS
 62
     5
 10
-12.59999949999985
 20
68.399999999999864
 30
0.0
 11
-12.59999949999985
 21
75.599999999999909
 31
0.0
  0
LINE
  8
DETAIL
  6
CONTINUOUS
 62
     5
 10
-12.59999949999985
 20
-68.400000000000091
 30
0.0
 11
-12.59999949999985
 21
-75.600000000000023
 31
0.0
  0
LINE
  8
DETAIL
  6
CONTINUOUS
 62
     5
 10
-5.399999499999808
 20
68.399999999999864
 30
0.0
 11
-5.399999499999808
 21
75.599999999999909
 31
0.0
  0
LINE
  8
DETAIL
  6
CONTINUOUS
 62
     5
 10
-5.399999499999808
 20
-68.400000000000091
 30
0.0
 11
-5.399999499999808
 21
-75.600000000000023
 31
0.0
  0
LINE
  8
DETAIL
  6
CONTINUOUS
 62
     5
 10
-5.399999499999808
 20
68.399999999999864
 30
0.0
 11
-12.59999949999985
 21
68.399999999999864
 31
0.0
  0
LINE
  8
DETAIL
  6
CONTINUOUS
 62
     5
 10
-5.399999499999808
 20
-68.400000000000091
 30
0.0
 11
-12.59999949999985
 21
-68.400000000000091
 31
0.0
  0
LINE
  8
DETAIL
  6
CONTINUOUS
 62
     5
 10
-5.399999499999808
 20
68.399999999999864
 30
0.0
 11
-12.59999949999985
 21
68.399999999999864
 31
0.0
  0
LINE
  8
DETAIL
  6
CONTINUOUS
 62
     5
 10
-5.399999499999808
 20
-68.400000000000091
 30
0.0
 11
-12.59999949999985
 21
-68.400000000000091
 31
0.0
  0
LINE
  8
DETAIL
  6
CONTINUOUS
 62
     5
 10
-5.399999499999808
 20
75.599999999999909
 30
0.0
 11
-5.399999499999808
 21
68.399999999999864
 31
0.0
  0
LINE
  8
DETAIL
  6
CONTINUOUS
 62
     5
 10
-5.399999499999808
 20
-75.600000000000023
 30
0.0
 11
-5.399999499999808
 21
-68.400000000000091
 31
0.0
  0
LINE
  8
DETAIL
  6
CONTINUOUS
 62
     5
 10
-3.599999499999853
 20
68.399999999999864
 30
0.0
 11
-3.599999499999853
 21
75.599999999999909
 31
0.0
  0
LINE
  8
DETAIL
  6
CONTINUOUS
 62
     5
 10
-3.599999499999853
 20
-68.400000000000091
 30
0.0
 11
-3.599999499999853
 21
-75.600000000000023
 31
0.0
  0
LINE
  8
DETAIL
  6
CONTINUOUS
 62
     5
 10
3.600000500000192
 20
68.399999999999864
 30
0.0
 11
-3.599999499999853
 21
68.399999999999864
 31
0.0
  0
LINE
  8
DETAIL
  6
CONTINUOUS
 62
     5
 10
3.600000500000192
 20
-68.400000000000091
 30
0.0
 11
-3.599999499999853
 21
-68.400000000000091
 31
0.0
  0
LINE
  8
DETAIL
  6
CONTINUOUS
 62
     5
 10
-3.599999499999853
 20
59.399999999999856
 30
0.0
 11
-3.599999499999853
 21
66.599999999999909
 31
0.0
  0
LINE
  8
DETAIL
  6
CONTINUOUS
 62
     5
 10
-3.599999499999853
 20
-59.400000000000091
 30
0.0
 11
-3.599999499999853
 21
-66.600000000000023
 31
0.0
  0
LINE
  8
DETAIL
  6
CONTINUOUS
 62
     5
 10
3.600000500000192
 20
59.399999999999856
 30
0.0
 11
-3.599999499999853
 21
59.399999999999856
 31
0.0
  0
LINE
  8
DETAIL
  6
CONTINUOUS
 62
     5
 10
3.600000500000192
 20
-59.400000000000091
 30
0.0
 11
-3.599999499999853
 21
-59.400000000000091
 31
0.0
  0
LINE
  8
DETAIL
  6
CONTINUOUS
 62
     5
 10
3.600000500000192
 20
66.599999999999909
 30
0.0
 11
-3.599999499999853
 21
66.599999999999909
 31
0.0
  0
LINE
  8
DETAIL
  6
CONTINUOUS
 62
     5
 10
3.600000500000192
 20
-66.600000000000023
 30
0.0
 11
-3.599999499999853
 21
-66.600000000000023
 31
0.0
  0
LINE
  8
DETAIL
  6
CONTINUOUS
 62
     5
 10
-3.599999499999853
 20
50.399999999999856
 30
0.0
 11
-3.599999499999853
 21
57.599999999999909
 31
0.0
  0
LINE
  8
DETAIL
  6
CONTINUOUS
 62
     5
 10
-3.599999499999853
 20
-50.400000000000091
 30
0.0
 11
-3.599999499999853
 21
-57.600000000000023
 31
0.0
  0
LINE
  8
DETAIL
  6
CONTINUOUS
 62
     5
 10
3.600000500000192
 20
50.399999999999856
 30
0.0
 11
-3.599999499999853
 21
50.399999999999856
 31
0.0
  0
LINE
  8
DETAIL
  6
CONTINUOUS
 62
     5
 10
3.600000500000192
 20
-50.400000000000091
 30
0.0
 11
-3.599999499999853
 21
-50.400000000000091
 31
0.0
  0
LINE
  8
DETAIL
  6
CONTINUOUS
 62
     5
 10
3.600000500000192
 20
57.599999999999909
 30
0.0
 11
-3.599999499999853
 21
57.599999999999909
 31
0.0
  0
LINE
  8
DETAIL
  6
CONTINUOUS
 62
     5
 10
3.600000500000192
 20
-57.600000000000023
 30
0.0
 11
-3.599999499999853
 21
-57.600000000000023
 31
0.0
  0
LINE
  8
DETAIL
  6
CONTINUOUS
 62
     5
 10
-3.599999499999853
 20
41.399999999999856
 30
0.0
 11
-3.599999499999853
 21
48.599999999999909
 31
0.0
  0
LINE
  8
DETAIL
  6
CONTINUOUS
 62
     5
 10
-3.599999499999853
 20
-41.400000000000091
 30
0.0
 11
-3.599999499999853
 21
-48.600000000000023
 31
0.0
  0
LINE
  8
DETAIL
  6
CONTINUOUS
 62
     5
 10
3.600000500000192
 20
41.399999999999856
 30
0.0
 11
-3.599999499999853
 21
41.399999999999856
 31
0.0
  0
LINE
  8
DETAIL
  6
CONTINUOUS
 62
     5
 10
3.600000500000192
 20
-41.400000000000091
 30
0.0
 11
-3.599999499999853
 21
-41.400000000000091
 31
0.0
  0
LINE
  8
DETAIL
  6
CONTINUOUS
 62
     5
 10
3.600000500000192
 20
48.599999999999909
 30
0.0
 11
-3.599999499999853
 21
48.599999999999909
 31
0.0
  0
LINE
  8
DETAIL
  6
CONTINUOUS
 62
     5
 10
3.600000500000192
 20
-48.600000000000023
 30
0.0
 11
-3.599999499999853
 21
-48.600000000000023
 31
0.0
  0
LINE
  8
DETAIL
  6
CONTINUOUS
 62
     5
 10
-3.599999499999853
 20
32.399999999999856
 30
0.0
 11
-3.599999499999853
 21
39.599999999999909
 31
0.0
  0
LINE
  8
DETAIL
  6
CONTINUOUS
 62
     5
 10
-3.599999499999853
 20
-32.400000000000091
 30
0.0
 11
-3.599999499999853
 21
-39.600000000000023
 31
0.0
  0
LINE
  8
DETAIL
  6
CONTINUOUS
 62
     5
 10
3.600000500000192
 20
32.399999999999856
 30
0.0
 11
-3.599999499999853
 21
32.399999999999856
 31
0.0
  0
LINE
  8
DETAIL
  6
CONTINUOUS
 62
     5
 10
3.600000500000192
 20
-32.400000000000091
 30
0.0
 11
-3.599999499999853
 21
-32.400000000000091
 31
0.0
  0
LINE
  8
DETAIL
  6
CONTINUOUS
 62
     5
 10
3.600000500000192
 20
39.599999999999909
 30
0.0
 11
-3.599999499999853
 21
39.599999999999909
 31
0.0
  0
LINE
  8
DETAIL
  6
CONTINUOUS
 62
     5
 10
3.600000500000192
 20
-39.600000000000023
 30
0.0
 11
-3.599999499999853
 21
-39.600000000000023
 31
0.0
  0
LINE
  8
DETAIL
  6
CONTINUOUS
 62
     5
 10
-3.599999499999853
 20
23.39999999999986
 30
0.0
 11
-3.599999499999853
 21
30.599999999999909
 31
0.0
  0
LINE
  8
DETAIL
  6
CONTINUOUS
 62
     5
 10
-3.599999499999853
 20
-23.400000000000091
 30
0.0
 11
-3.599999499999853
 21
-30.600000000000019
 31
0.0
  0
LINE
  8
DETAIL
  6
CONTINUOUS
 62
     5
 10
3.600000500000192
 20
23.39999999999986
 30
0.0
 11
-3.599999499999853
 21
23.39999999999986
 31
0.0
  0
LINE
  8
DETAIL
  6
CONTINUOUS
 62
     5
 10
3.600000500000192
 20
-23.400000000000091
 30
0.0
 11
-3.599999499999853
 21
-23.400000000000091
 31
0.0
  0
LINE
  8
DETAIL
  6
CONTINUOUS
 62
     5
 10
3.600000500000192
 20
30.599999999999909
 30
0.0
 11
-3.599999499999853
 21
30.599999999999909
 31
0.0
  0
LINE
  8
DETAIL
  6
CONTINUOUS
 62
     5
 10
3.600000500000192
 20
-30.600000000000019
 30
0.0
 11
-3.599999499999853
 21
-30.600000000000019
 31
0.0
  0
LINE
  8
DETAIL
  6
CONTINUOUS
 62
     5
 10
-3.599999499999853
 20
14.39999999999986
 30
0.0
 11
-3.599999499999853
 21
21.599999999999909
 31
0.0
  0
LINE
  8
DETAIL
  6
CONTINUOUS
 62
     5
 10
-3.599999499999853
 20
-14.400000000000089
 30
0.0
 11
-3.599999499999853
 21
-21.60000000000014
 31
0.0
  0
LINE
  8
DETAIL
  6
CONTINUOUS
 62
     5
 10
3.600000500000192
 20
14.39999999999986
 30
0.0
 11
-3.599999499999853
 21
14.39999999999986
 31
0.0
  0
LINE
  8
DETAIL
  6
CONTINUOUS
 62
     5
 10
3.600000500000192
 20
-14.400000000000089
 30
0.0
 11
-3.599999499999853
 21
-14.400000000000089
 31
0.0
  0
LINE
  8
DETAIL
  6
CONTINUOUS
 62
     5
 10
3.600000500000192
 20
21.599999999999909
 30
0.0
 11
-3.599999499999853
 21
21.599999999999909
 31
0.0
  0
LINE
  8
DETAIL
  6
CONTINUOUS
 62
     5
 10
3.600000500000192
 20
-21.60000000000014
 30
0.0
 11
-3.599999499999853
 21
-21.60000000000014
 31
0.0
  0
LINE
  8
DETAIL
  6
CONTINUOUS
 62
     5
 10
-3.599999499999853
 20
5.3999999999998636
 30
0.0
 11
-3.599999499999853
 21
12.599999999999911
 31
0.0
  0
LINE
  8
DETAIL
  6
CONTINUOUS
 62
     5
 10
-3.599999499999853
 20
-5.4000000000000909
 30
0.0
 11
-3.599999499999853
 21
-12.60000000000014
 31
0.0
  0
LINE
  8
DETAIL
  6
CONTINUOUS
 62
     5
 10
3.600000500000192
 20
5.3999999999998636
 30
0.0
 11
-3.599999499999853
 21
5.3999999999998636
 31
0.0
  0
LINE
  8
DETAIL
  6
CONTINUOUS
 62
     5
 10
3.600000500000192
 20
-5.4000000000000909
 30
0.0
 11
-3.599999499999853
 21
-5.4000000000000909
 31
0.0
  0
LINE
  8
DETAIL
  6
CONTINUOUS
 62
     5
 10
3.600000500000192
 20
12.599999999999911
 30
0.0
 11
-3.599999499999853
 21
12.599999999999911
 31
0.0
  0
LINE
  8
DETAIL
  6
CONTINUOUS
 62
     5
 10
3.600000500000192
 20
-12.60000000000014
 30
0.0
 11
-3.599999499999853
 21
-12.60000000000014
 31
0.0
  0
LINE
  8
DETAIL
  6
CONTINUOUS
 62
     5
 10
3.600000500000192
 20
3.5999999999999091
 30
0.0
 11
-3.599999499999853
 21
3.5999999999999091
 31
0.0
  0
LINE
  8
DETAIL
  6
CONTINUOUS
 62
     5
 10
3.600000500000192
 20
-3.600000000000136
 30
0.0
 11
-3.599999499999853
 21
-3.600000000000136
 31
0.0
  0
LINE
  8
DETAIL
  6
CONTINUOUS
 62
     5
 10
93.600000500000192
 20
3.5999999999999091
 30
0.0
 11
93.600000500000192
 21
0.0
 31
0.0
  0
LINE
  8
DETAIL
  6
CONTINUOUS
 62
     5
 10
93.600000500000192
 20
-3.600000000000136
 30
0.0
 11
93.600000500000192
 21
0.0
 31
0.0
  0
LINE
  8
DETAIL
  6
CONTINUOUS
 62
     5
 10
86.400000500000147
 20
3.5999999999999091
 30
0.0
 11
86.400000500000147
 21
0.0
 31
0.0
  0
LINE
  8
DETAIL
  6
CONTINUOUS
 62
     5
 10
86.400000500000147
 20
-3.600000000000136
 30
0.0
 11
86.400000500000147
 21
0.0
 31
0.0
  0
LINE
  8
DETAIL
  6
CONTINUOUS
 62
     5
 10
101.0000005000001
 20
97.0
 30
0.0
 11
101.0000005000001
 21
0.0
 31
0.0
  0
LINE
  8
DETAIL
  6
CONTINUOUS
 62
     5
 10
101.0000005000001
 20
-97.0
 30
0.0
 11
101.0000005000001
 21
0.0
 31
0.0
  0
LINE
  8
DETAIL
  6
CONTINUOUS
 62
     5
 10
99.500000500000056
 20
95.5
 30
0.0
 11
99.500000500000056
 21
0.0
 31
0.0
  0
LINE
  8
DETAIL
  6
CONTINUOUS
 62
     5
 10
99.500000500000056
 20
-95.5
 30
0.0
 11
99.500000500000056
 21
0.0
 31
0.0
  0
LINE
  8
DETAIL
  6
CONTINUOUS
 62
     5
 10
84.600000500000192
 20
3.5999999999999091
 30
0.0
 11
84.600000500000192
 21
0.0
 31
0.0
  0
LINE
  8
DETAIL
  6
CONTINUOUS
 62
     5
 10
84.600000500000192
 20
-3.600000000000136
 30
0.0
 11
84.600000500000192
 21
0.0
 31
0.0
  0
LINE
  8
DETAIL
  6
CONTINUOUS
 62
     5
 10
77.400000500000147
 20
3.5999999999999091
 30
0.0
 11
77.400000500000147
 21
0.0
 31
0.0
  0
LINE
  8
DETAIL
  6
CONTINUOUS
 62
     5
 10
77.400000500000147
 20
-3.600000000000136
 30
0.0
 11
77.400000500000147
 21
0.0
 31
0.0
  0
LINE
  8
DETAIL
  6
CONTINUOUS
 62
     5
 10
75.600000500000192
 20
3.5999999999999091
 30
0.0
 11
75.600000500000192
 21
0.0
 31
0.0
  0
LINE
  8
DETAIL
  6
CONTINUOUS
 62
     5
 10
75.600000500000192
 20
-3.600000000000136
 30
0.0
 11
75.600000500000192
 21
0.0
 31
0.0
  0
LINE
  8
DETAIL
  6
CONTINUOUS
 62
     5
 10
68.400000500000147
 20
3.5999999999999091
 30
0.0
 11
68.400000500000147
 21
0.0
 31
0.0
  0
LINE
  8
DETAIL
  6
CONTINUOUS
 62
     5
 10
68.400000500000147
 20
-3.600000000000136
 30
0.0
 11
68.400000500000147
 21
0.0
 31
0.0
  0
LINE
  8
DETAIL
  6
CONTINUOUS
 62
     5
 10
66.600000500000192
 20
3.5999999999999091
 30
0.0
 11
66.600000500000192
 21
0.0
 31
0.0
  0
LINE
  8
DETAIL
  6
CONTINUOUS
 62
     5
 10
66.600000500000192
 20
-3.600000000000136
 30
0.0
 11
66.600000500000192
 21
0.0
 31
0.0
  0
LINE
  8
DETAIL
  6
CONTINUOUS
 62
     5
 10
59.400000500000147
 20
3.5999999999999091
 30
0.0
 11
59.400000500000147
 21
0.0
 31
0.0
  0
LINE
  8
DETAIL
  6
CONTINUOUS
 62
     5
 10
59.400000500000147
 20
-3.600000000000136
 30
0.0
 11
59.400000500000147
 21
0.0
 31
0.0
  0
LINE
  8
DETAIL
  6
CONTINUOUS
 62
     5
 10
57.600000500000192
 20
3.5999999999999091
 30
0.0
 11
57.600000500000192
 21
0.0
 31
0.0
  0
LINE
  8
DETAIL
  6
CONTINUOUS
 62
     5
 10
57.600000500000192
 20
-3.600000000000136
 30
0.0
 11
57.600000500000192
 21
0.0
 31
0.0
  0
LINE
  8
DETAIL
  6
CONTINUOUS
 62
     5
 10
50.400000500000147
 20
3.5999999999999091
 30
0.0
 11
50.400000500000147
 21
0.0
 31
0.0
  0
LINE
  8
DETAIL
  6
CONTINUOUS
 62
     5
 10
50.400000500000147
 20
-3.600000000000136
 30
0.0
 11
50.400000500000147
 21
0.0
 31
0.0
  0
LINE
  8
DETAIL
  6
CONTINUOUS
 62
     5
 10
48.600000500000192
 20
3.5999999999999091
 30
0.0
 11
48.600000500000192
 21
0.0
 31
0.0
  0
LINE
  8
DETAIL
  6
CONTINUOUS
 62
     5
 10
48.600000500000192
 20
-3.600000000000136
 30
0.0
 11
48.600000500000192
 21
0.0
 31
0.0
  0
LINE
  8
DETAIL
  6
CONTINUOUS
 62
     5
 10
41.400000500000147
 20
3.5999999999999091
 30
0.0
 11
41.400000500000147
 21
0.0
 31
0.0
  0
LINE
  8
DETAIL
  6
CONTINUOUS
 62
     5
 10
41.400000500000147
 20
-3.600000000000136
 30
0.0
 11
41.400000500000147
 21
0.0
 31
0.0
  0
LINE
  8
DETAIL
  6
CONTINUOUS
 62
     5
 10
39.600000500000192
 20
3.5999999999999091
 30
0.0
 11
39.600000500000192
 21
0.0
 31
0.0
  0
LINE
  8
DETAIL
  6
CONTINUOUS
 62
     5
 10
39.600000500000192
 20
-3.600000000000136
 30
0.0
 11
39.600000500000192
 21
0.0
 31
0.0
  0
LINE
  8
DETAIL
  6
CONTINUOUS
 62
     5
 10
32.400000500000147
 20
3.5999999999999091
 30
0.0
 11
32.400000500000147
 21
0.0
 31
0.0
  0
LINE
  8
DETAIL
  6
CONTINUOUS
 62
     5
 10
32.400000500000147
 20
-3.600000000000136
 30
0.0
 11
32.400000500000147
 21
0.0
 31
0.0
  0
LINE
  8
DETAIL
  6
CONTINUOUS
 62
     5
 10
30.600000500000188
 20
3.5999999999999091
 30
0.0
 11
30.600000500000188
 21
0.0
 31
0.0
  0
LINE
  8
DETAIL
  6
CONTINUOUS
 62
     5
 10
30.600000500000188
 20
-3.600000000000136
 30
0.0
 11
30.600000500000188
 21
0.0
 31
0.0
  0
LINE
  8
DETAIL
  6
CONTINUOUS
 62
     5
 10
23.40000050000015
 20
3.5999999999999091
 30
0.0
 11
23.40000050000015
 21
0.0
 31
0.0
  0
LINE
  8
DETAIL
  6
CONTINUOUS
 62
     5
 10
23.40000050000015
 20
-3.600000000000136
 30
0.0
 11
23.40000050000015
 21
0.0
 31
0.0
  0
LINE
  8
DETAIL
  6
CONTINUOUS
 62
     5
 10
21.600000500000188
 20
3.5999999999999091
 30
0.0
 11
21.600000500000188
 21
0.0
 31
0.0
  0
LINE
  8
DETAIL
  6
CONTINUOUS
 62
     5
 10
21.600000500000188
 20
-3.600000000000136
 30
0.0
 11
21.600000500000188
 21
0.0
 31
0.0
  0
LINE
  8
DETAIL
  6
CONTINUOUS
 62
     5
 10
14.40000050000015
 20
3.5999999999999091
 30
0.0
 11
14.40000050000015
 21
0.0
 31
0.0
  0
LINE
  8
DETAIL
  6
CONTINUOUS
 62
     5
 10
14.40000050000015
 20
-3.600000000000136
 30
0.0
 11
14.40000050000015
 21
0.0
 31
0.0
  0
LINE
  8
DETAIL
  6
CONTINUOUS
 62
     5
 10
12.60000050000019
 20
3.5999999999999091
 30
0.0
 11
12.60000050000019
 21
0.0
 31
0.0
  0
LINE
  8
DETAIL
  6
CONTINUOUS
 62
     5
 10
12.60000050000019
 20
-3.600000000000136
 30
0.0
 11
12.60000050000019
 21
0.0
 31
0.0
  0
LINE
  8
DETAIL
  6
CONTINUOUS
 62
     5
 10
5.4000005000001474
 20
3.5999999999999091
 30
0.0
 11
5.4000005000001474
 21
0.0
 31
0.0
  0
LINE
  8
DETAIL
  6
CONTINUOUS
 62
     5
 10
5.4000005000001474
 20
-3.600000000000136
 30
0.0
 11
5.4000005000001474
 21
0.0
 31
0.0
  0
LINE
  8
DETAIL
  6
CONTINUOUS
 62
     5
 10
3.600000500000192
 20
3.5999999999999091
 30
0.0
 11
3.600000500000192
 21
0.0
 31
0.0
  0
LINE
  8
DETAIL
  6
CONTINUOUS
 62
     5
 10
3.600000500000192
 20
-3.600000000000136
 30
0.0
 11
3.600000500000192
 21
0.0
 31
0.0
  0
LINE
  8
DETAIL
  6
CONTINUOUS
 62
     5
 10
32.400000500000147
 20
57.599999999999909
 30
0.0
 11
39.600000500000192
 21
57.599999999999909
 31
0.0
  0
LINE
  8
DETAIL
  6
CONTINUOUS
 62
     5
 10
32.400000500000147
 20
-57.600000000000023
 30
0.0
 11
39.600000500000192
 21
-57.600000000000023
 31
0.0
  0
LINE
  8
DETAIL
  6
CONTINUOUS
 62
     5
 10
32.400000500000147
 20
50.399999999999856
 30
0.0
 11
32.400000500000147
 21
57.599999999999909
 31
0.0
  0
LINE
  8
DETAIL
  6
CONTINUOUS
 62
     5
 10
32.400000500000147
 20
-50.400000000000091
 30
0.0
 11
32.400000500000147
 21
-57.600000000000023
 31
0.0
  0
LINE
  8
DETAIL
  6
CONTINUOUS
 62
     5
 10
32.400000500000147
 20
50.399999999999856
 30
0.0
 11
39.600000500000192
 21
50.399999999999856
 31
0.0
  0
LINE
  8
DETAIL
  6
CONTINUOUS
 62
     5
 10
32.400000500000147
 20
-50.400000000000091
 30
0.0
 11
39.600000500000192
 21
-50.400000000000091
 31
0.0
  0
LINE
  8
DETAIL
  6
CONTINUOUS
 62
     5
 10
23.40000050000015
 20
57.599999999999909
 30
0.0
 11
30.600000500000188
 21
57.599999999999909
 31
0.0
  0
LINE
  8
DETAIL
  6
CONTINUOUS
 62
     5
 10
23.40000050000015
 20
-57.600000000000023
 30
0.0
 11
30.600000500000188
 21
-57.600000000000023
 31
0.0
  0
LINE
  8
DETAIL
  6
CONTINUOUS
 62
     5
 10
32.400000500000147
 20
66.599999999999909
 30
0.0
 11
39.600000500000192
 21
66.599999999999909
 31
0.0
  0
LINE
  8
DETAIL
  6
CONTINUOUS
 62
     5
 10
32.400000500000147
 20
-66.600000000000023
 30
0.0
 11
39.600000500000192
 21
-66.600000000000023
 31
0.0
  0
LINE
  8
DETAIL
  6
CONTINUOUS
 62
     5
 10
32.400000500000147
 20
59.399999999999856
 30
0.0
 11
32.400000500000147
 21
66.599999999999909
 31
0.0
  0
LINE
  8
DETAIL
  6
CONTINUOUS
 62
     5
 10
32.400000500000147
 20
-59.400000000000091
 30
0.0
 11
32.400000500000147
 21
-66.600000000000023
 31
0.0
  0
LINE
  8
DETAIL
  6
CONTINUOUS
 62
     5
 10
32.400000500000147
 20
59.399999999999856
 30
0.0
 11
39.600000500000192
 21
59.399999999999856
 31
0.0
  0
LINE
  8
DETAIL
  6
CONTINUOUS
 62
     5
 10
32.400000500000147
 20
-59.400000000000091
 30
0.0
 11
39.600000500000192
 21
-59.400000000000091
 31
0.0
  0
LINE
  8
DETAIL
  6
CONTINUOUS
 62
     5
 10
23.40000050000015
 20
66.599999999999909
 30
0.0
 11
30.600000500000188
 21
66.599999999999909
 31
0.0
  0
LINE
  8
DETAIL
  6
CONTINUOUS
 62
     5
 10
23.40000050000015
 20
-66.600000000000023
 30
0.0
 11
30.600000500000188
 21
-66.600000000000023
 31
0.0
  0
LINE
  8
DETAIL
  6
CONTINUOUS
 62
     5
 10
30.600000500000188
 20
59.399999999999856
 30
0.0
 11
30.600000500000188
 21
66.599999999999909
 31
0.0
  0
LINE
  8
DETAIL
  6
CONTINUOUS
 62
     5
 10
30.600000500000188
 20
-59.400000000000091
 30
0.0
 11
30.600000500000188
 21
-66.600000000000023
 31
0.0
  0
LINE
  8
DETAIL
  6
CONTINUOUS
 62
     5
 10
23.40000050000015
 20
59.399999999999856
 30
0.0
 11
23.40000050000015
 21
66.599999999999909
 31
0.0
  0
LINE
  8
DETAIL
  6
CONTINUOUS
 62
     5
 10
23.40000050000015
 20
-59.400000000000091
 30
0.0
 11
23.40000050000015
 21
-66.600000000000023
 31
0.0
  0
LINE
  8
DETAIL
  6
CONTINUOUS
 62
     5
 10
23.40000050000015
 20
59.399999999999856
 30
0.0
 11
30.600000500000188
 21
59.399999999999856
 31
0.0
  0
LINE
  8
DETAIL
  6
CONTINUOUS
 62
     5
 10
23.40000050000015
 20
-59.400000000000091
 30
0.0
 11
30.600000500000188
 21
-59.400000000000091
 31
0.0
  0
LINE
  8
DETAIL
  6
CONTINUOUS
 62
     5
 10
32.400000500000147
 20
68.399999999999864
 30
0.0
 11
32.400000500000147
 21
75.599999999999909
 31
0.0
  0
LINE
  8
DETAIL
  6
CONTINUOUS
 62
     5
 10
32.400000500000147
 20
-68.400000000000091
 30
0.0
 11
32.400000500000147
 21
-75.600000000000023
 31
0.0
  0
LINE
  8
DETAIL
  6
CONTINUOUS
 62
     5
 10
32.400000500000147
 20
68.399999999999864
 30
0.0
 11
39.600000500000192
 21
68.399999999999864
 31
0.0
  0
LINE
  8
DETAIL
  6
CONTINUOUS
 62
     5
 10
32.400000500000147
 20
-68.400000000000091
 30
0.0
 11
39.600000500000192
 21
-68.400000000000091
 31
0.0
  0
LINE
  8
DETAIL
  6
CONTINUOUS
 62
     5
 10
30.600000500000188
 20
68.399999999999864
 30
0.0
 11
30.600000500000188
 21
75.599999999999909
 31
0.0
  0
LINE
  8
DETAIL
  6
CONTINUOUS
 62
     5
 10
30.600000500000188
 20
-68.400000000000091
 30
0.0
 11
30.600000500000188
 21
-75.600000000000023
 31
0.0
  0
LINE
  8
DETAIL
  6
CONTINUOUS
 62
     5
 10
23.40000050000015
 20
68.399999999999864
 30
0.0
 11
23.40000050000015
 21
75.599999999999909
 31
0.0
  0
LINE
  8
DETAIL
  6
CONTINUOUS
 62
     5
 10
23.40000050000015
 20
-68.400000000000091
 30
0.0
 11
23.40000050000015
 21
-75.600000000000023
 31
0.0
  0
LINE
  8
DETAIL
  6
CONTINUOUS
 62
     5
 10
23.40000050000015
 20
68.399999999999864
 30
0.0
 11
30.600000500000188
 21
68.399999999999864
 31
0.0
  0
LINE
  8
DETAIL
  6
CONTINUOUS
 62
     5
 10
23.40000050000015
 20
-68.400000000000091
 30
0.0
 11
30.600000500000188
 21
-68.400000000000091
 31
0.0
  0
LINE
  8
DETAIL
  6
CONTINUOUS
 62
     5
 10
21.600000500000188
 20
68.399999999999864
 30
0.0
 11
21.600000500000188
 21
75.599999999999909
 31
0.0
  0
LINE
  8
DETAIL
  6
CONTINUOUS
 62
     5
 10
21.600000500000188
 20
-68.400000000000091
 30
0.0
 11
21.600000500000188
 21
-75.600000000000023
 31
0.0
  0
LINE
  8
DETAIL
  6
CONTINUOUS
 62
     5
 10
14.40000050000015
 20
68.399999999999864
 30
0.0
 11
14.40000050000015
 21
75.599999999999909
 31
0.0
  0
LINE
  8
DETAIL
  6
CONTINUOUS
 62
     5
 10
14.40000050000015
 20
-68.400000000000091
 30
0.0
 11
14.40000050000015
 21
-75.600000000000023
 31
0.0
  0
LINE
  8
DETAIL
  6
CONTINUOUS
 62
     5
 10
14.40000050000015
 20
68.399999999999864
 30
0.0
 11
21.600000500000188
 21
68.399999999999864
 31
0.0
  0
LINE
  8
DETAIL
  6
CONTINUOUS
 62
     5
 10
14.40000050000015
 20
-68.400000000000091
 30
0.0
 11
21.600000500000188
 21
-68.400000000000091
 31
0.0
  0
LINE
  8
DETAIL
  6
CONTINUOUS
 62
     5
 10
14.40000050000015
 20
68.399999999999864
 30
0.0
 11
21.600000500000188
 21
68.399999999999864
 31
0.0
  0
LINE
  8
DETAIL
  6
CONTINUOUS
 62
     5
 10
14.40000050000015
 20
-68.400000000000091
 30
0.0
 11
21.600000500000188
 21
-68.400000000000091
 31
0.0
  0
LINE
  8
DETAIL
  6
CONTINUOUS
 62
     5
 10
14.40000050000015
 20
75.599999999999909
 30
0.0
 11
14.40000050000015
 21
68.399999999999864
 31
0.0
  0
LINE
  8
DETAIL
  6
CONTINUOUS
 62
     5
 10
14.40000050000015
 20
-75.600000000000023
 30
0.0
 11
14.40000050000015
 21
-68.400000000000091
 31
0.0
  0
LINE
  8
DETAIL
  6
CONTINUOUS
 62
     5
 10
32.400000500000147
 20
59.399999999999856
 30
0.0
 11
39.600000500000192
 21
59.399999999999856
 31
0.0
  0
LINE
  8
DETAIL
  6
CONTINUOUS
 62
     5
 10
32.400000500000147
 20
-59.400000000000091
 30
0.0
 11
39.600000500000192
 21
-59.400000000000091
 31
0.0
  0
LINE
  8
DETAIL
  6
CONTINUOUS
 62
     5
 10
32.400000500000147
 20
50.399999999999856
 30
0.0
 11
39.600000500000192
 21
50.399999999999856
 31
0.0
  0
LINE
  8
DETAIL
  6
CONTINUOUS
 62
     5
 10
32.400000500000147
 20
-50.400000000000091
 30
0.0
 11
39.600000500000192
 21
-50.400000000000091
 31
0.0
  0
LINE
  8
DETAIL
  6
CONTINUOUS
 62
     5
 10
32.400000500000147
 20
57.599999999999909
 30
0.0
 11
32.400000500000147
 21
50.399999999999856
 31
0.0
  0
LINE
  8
DETAIL
  6
CONTINUOUS
 62
     5
 10
32.400000500000147
 20
-57.600000000000023
 30
0.0
 11
32.400000500000147
 21
-50.400000000000091
 31
0.0
  0
LINE
  8
DETAIL
  6
CONTINUOUS
 62
     5
 10
86.400000500000147
 20
3.5999999999999091
 30
0.0
 11
93.600000500000192
 21
3.5999999999999091
 31
0.0
  0
LINE
  8
DETAIL
  6
CONTINUOUS
 62
     5
 10
86.400000500000147
 20
-3.600000000000136
 30
0.0
 11
93.600000500000192
 21
-3.600000000000136
 31
0.0
  0
LINE
  8
DETAIL
  6
CONTINUOUS
 62
     5
 10
86.400000500000147
 20
12.599999999999911
 30
0.0
 11
93.600000500000192
 21
12.599999999999911
 31
0.0
  0
LINE
  8
DETAIL
  6
CONTINUOUS
 62
     5
 10
86.400000500000147
 20
-12.60000000000014
 30
0.0
 11
93.600000500000192
 21
-12.60000000000014
 31
0.0
  0
LINE
  8
DETAIL
  6
CONTINUOUS
 62
     5
 10
93.600000500000192
 20
5.3999999999998636
 30
0.0
 11
93.600000500000192
 21
12.599999999999911
 31
0.0
  0
LINE
  8
DETAIL
  6
CONTINUOUS
 62
     5
 10
93.600000500000192
 20
-5.4000000000000909
 30
0.0
 11
93.600000500000192
 21
-12.60000000000014
 31
0.0
  0
LINE
  8
DETAIL
  6
CONTINUOUS
 62
     5
 10
86.400000500000147
 20
5.3999999999998636
 30
0.0
 11
86.400000500000147
 21
12.599999999999911
 31
0.0
  0
LINE
  8
DETAIL
  6
CONTINUOUS
 62
     5
 10
86.400000500000147
 20
-5.4000000000000909
 30
0.0
 11
86.400000500000147
 21
-12.60000000000014
 31
0.0
  0
LINE
  8
DETAIL
  6
CONTINUOUS
 62
     5
 10
86.400000500000147
 20
5.3999999999998636
 30
0.0
 11
93.600000500000192
 21
5.3999999999998636
 31
0.0
  0
LINE
  8
DETAIL
  6
CONTINUOUS
 62
     5
 10
86.400000500000147
 20
-5.4000000000000909
 30
0.0
 11
93.600000500000192
 21
-5.4000000000000909
 31
0.0
  0
LINE
  8
DETAIL
  6
CONTINUOUS
 62
     5
 10
77.400000500000147
 20
12.599999999999911
 30
0.0
 11
84.600000500000192
 21
12.599999999999911
 31
0.0
  0
LINE
  8
DETAIL
  6
CONTINUOUS
 62
     5
 10
77.400000500000147
 20
-12.60000000000014
 30
0.0
 11
84.600000500000192
 21
-12.60000000000014
 31
0.0
  0
LINE
  8
DETAIL
  6
CONTINUOUS
 62
     5
 10
84.600000500000192
 20
5.3999999999998636
 30
0.0
 11
84.600000500000192
 21
12.599999999999911
 31
0.0
  0
LINE
  8
DETAIL
  6
CONTINUOUS
 62
     5
 10
84.600000500000192
 20
-5.4000000000000909
 30
0.0
 11
84.600000500000192
 21
-12.60000000000014
 31
0.0
  0
LINE
  8
DETAIL
  6
CONTINUOUS
 62
     5
 10
77.400000500000147
 20
5.3999999999998636
 30
0.0
 11
77.400000500000147
 21
12.599999999999911
 31
0.0
  0
LINE
  8
DETAIL
  6
CONTINUOUS
 62
     5
 10
77.400000500000147
 20
-5.4000000000000909
 30
0.0
 11
77.400000500000147
 21
-12.60000000000014
 31
0.0
  0
LINE
  8
DETAIL
  6
CONTINUOUS
 62
     5
 10
77.400000500000147
 20
5.3999999999998636
 30
0.0
 11
84.600000500000192
 21
5.3999999999998636
 31
0.0
  0
LINE
  8
DETAIL
  6
CONTINUOUS
 62
     5
 10
77.400000500000147
 20
-5.4000000000000909
 30
0.0
 11
84.600000500000192
 21
-5.4000000000000909
 31
0.0
  0
LINE
  8
DETAIL
  6
CONTINUOUS
 62
     5
 10
86.400000500000147
 20
21.599999999999909
 30
0.0
 11
93.600000500000192
 21
21.599999999999909
 31
0.0
  0
LINE
  8
DETAIL
  6
CONTINUOUS
 62
     5
 10
86.400000500000147
 20
-21.60000000000014
 30
0.0
 11
93.600000500000192
 21
-21.60000000000014
 31
0.0
  0
LINE
  8
DETAIL
  6
CONTINUOUS
 62
     5
 10
93.600000500000192
 20
14.39999999999986
 30
0.0
 11
93.600000500000192
 21
21.599999999999909
 31
0.0
  0
LINE
  8
DETAIL
  6
CONTINUOUS
 62
     5
 10
93.600000500000192
 20
-14.400000000000089
 30
0.0
 11
93.600000500000192
 21
-21.60000000000014
 31
0.0
  0
LINE
  8
DETAIL
  6
CONTINUOUS
 62
     5
 10
86.400000500000147
 20
14.39999999999986
 30
0.0
 11
86.400000500000147
 21
21.599999999999909
 31
0.0
  0
LINE
  8
DETAIL
  6
CONTINUOUS
 62
     5
 10
86.400000500000147
 20
-14.400000000000089
 30
0.0
 11
86.400000500000147
 21
-21.60000000000014
 31
0.0
  0
LINE
  8
DETAIL
  6
CONTINUOUS
 62
     5
 10
86.400000500000147
 20
14.39999999999986
 30
0.0
 11
93.600000500000192
 21
14.39999999999986
 31
0.0
  0
LINE
  8
DETAIL
  6
CONTINUOUS
 62
     5
 10
86.400000500000147
 20
-14.400000000000089
 30
0.0
 11
93.600000500000192
 21
-14.400000000000089
 31
0.0
  0
LINE
  8
DETAIL
  6
CONTINUOUS
 62
     5
 10
77.400000500000147
 20
21.599999999999909
 30
0.0
 11
84.600000500000192
 21
21.599999999999909
 31
0.0
  0
LINE
  8
DETAIL
  6
CONTINUOUS
 62
     5
 10
77.400000500000147
 20
-21.60000000000014
 30
0.0
 11
84.600000500000192
 21
-21.60000000000014
 31
0.0
  0
LINE
  8
DETAIL
  6
CONTINUOUS
 62
     5
 10
84.600000500000192
 20
14.39999999999986
 30
0.0
 11
84.600000500000192
 21
21.599999999999909
 31
0.0
  0
LINE
  8
DETAIL
  6
CONTINUOUS
 62
     5
 10
84.600000500000192
 20
-14.400000000000089
 30
0.0
 11
84.600000500000192
 21
-21.60000000000014
 31
0.0
  0
LINE
  8
DETAIL
  6
CONTINUOUS
 62
     5
 10
77.400000500000147
 20
14.39999999999986
 30
0.0
 11
77.400000500000147
 21
21.599999999999909
 31
0.0
  0
LINE
  8
DETAIL
  6
CONTINUOUS
 62
     5
 10
77.400000500000147
 20
-14.400000000000089
 30
0.0
 11
77.400000500000147
 21
-21.60000000000014
 31
0.0
  0
LINE
  8
DETAIL
  6
CONTINUOUS
 62
     5
 10
77.400000500000147
 20
14.39999999999986
 30
0.0
 11
84.600000500000192
 21
14.39999999999986
 31
0.0
  0
LINE
  8
DETAIL
  6
CONTINUOUS
 62
     5
 10
77.400000500000147
 20
-14.400000000000089
 30
0.0
 11
84.600000500000192
 21
-14.400000000000089
 31
0.0
  0
LINE
  8
DETAIL
  6
CONTINUOUS
 62
     5
 10
68.400000500000147
 20
21.599999999999909
 30
0.0
 11
75.600000500000192
 21
21.599999999999909
 31
0.0
  0
LINE
  8
DETAIL
  6
CONTINUOUS
 62
     5
 10
68.400000500000147
 20
-21.60000000000014
 30
0.0
 11
75.600000500000192
 21
-21.60000000000014
 31
0.0
  0
LINE
  8
DETAIL
  6
CONTINUOUS
 62
     5
 10
75.600000500000192
 20
14.39999999999986
 30
0.0
 11
75.600000500000192
 21
21.599999999999909
 31
0.0
  0
LINE
  8
DETAIL
  6
CONTINUOUS
 62
     5
 10
75.600000500000192
 20
-14.400000000000089
 30
0.0
 11
75.600000500000192
 21
-21.60000000000014
 31
0.0
  0
LINE
  8
DETAIL
  6
CONTINUOUS
 62
     5
 10
68.400000500000147
 20
14.39999999999986
 30
0.0
 11
68.400000500000147
 21
21.599999999999909
 31
0.0
  0
LINE
  8
DETAIL
  6
CONTINUOUS
 62
     5
 10
68.400000500000147
 20
-14.400000000000089
 30
0.0
 11
68.400000500000147
 21
-21.60000000000014
 31
0.0
  0
LINE
  8
DETAIL
  6
CONTINUOUS
 62
     5
 10
68.400000500000147
 20
14.39999999999986
 30
0.0
 11
75.600000500000192
 21
14.39999999999986
 31
0.0
  0
LINE
  8
DETAIL
  6
CONTINUOUS
 62
     5
 10
68.400000500000147
 20
-14.400000000000089
 30
0.0
 11
75.600000500000192
 21
-14.400000000000089
 31
0.0
  0
LINE
  8
DETAIL
  6
CONTINUOUS
 62
     5
 10
86.400000500000147
 20
30.599999999999909
 30
0.0
 11
93.600000500000192
 21
30.599999999999909
 31
0.0
  0
LINE
  8
DETAIL
  6
CONTINUOUS
 62
     5
 10
86.400000500000147
 20
-30.600000000000019
 30
0.0
 11
93.600000500000192
 21
-30.600000000000019
 31
0.0
  0
LINE
  8
DETAIL
  6
CONTINUOUS
 62
     5
 10
93.600000500000192
 20
23.39999999999986
 30
0.0
 11
93.600000500000192
 21
30.599999999999909
 31
0.0
  0
LINE
  8
DETAIL
  6
CONTINUOUS
 62
     5
 10
93.600000500000192
 20
-23.400000000000091
 30
0.0
 11
93.600000500000192
 21
-30.600000000000019
 31
0.0
  0
LINE
  8
DETAIL
  6
CONTINUOUS
 62
     5
 10
86.400000500000147
 20
23.39999999999986
 30
0.0
 11
86.400000500000147
 21
30.599999999999909
 31
0.0
  0
LINE
  8
DETAIL
  6
CONTINUOUS
 62
     5
 10
86.400000500000147
 20
-23.400000000000091
 30
0.0
 11
86.400000500000147
 21
-30.600000000000019
 31
0.0
  0
LINE
  8
DETAIL
  6
CONTINUOUS
 62
     5
 10
86.400000500000147
 20
23.39999999999986
 30
0.0
 11
93.600000500000192
 21
23.39999999999986
 31
0.0
  0
LINE
  8
DETAIL
  6
CONTINUOUS
 62
     5
 10
86.400000500000147
 20
-23.400000000000091
 30
0.0
 11
93.600000500000192
 21
-23.400000000000091
 31
0.0
  0
LINE
  8
DETAIL
  6
CONTINUOUS
 62
     5
 10
77.400000500000147
 20
30.599999999999909
 30
0.0
 11
84.600000500000192
 21
30.599999999999909
 31
0.0
  0
LINE
  8
DETAIL
  6
CONTINUOUS
 62
     5
 10
77.400000500000147
 20
-30.600000000000019
 30
0.0
 11
84.600000500000192
 21
-30.600000000000019
 31
0.0
  0
LINE
  8
DETAIL
  6
CONTINUOUS
 62
     5
 10
84.600000500000192
 20
23.39999999999986
 30
0.0
 11
84.600000500000192
 21
30.599999999999909
 31
0.0
  0
LINE
  8
DETAIL
  6
CONTINUOUS
 62
     5
 10
84.600000500000192
 20
-23.400000000000091
 30
0.0
 11
84.600000500000192
 21
-30.600000000000019
 31
0.0
  0
LINE
  8
DETAIL
  6
CONTINUOUS
 62
     5
 10
77.400000500000147
 20
23.39999999999986
 30
0.0
 11
77.400000500000147
 21
30.599999999999909
 31
0.0
  0
LINE
  8
DETAIL
  6
CONTINUOUS
 62
     5
 10
77.400000500000147
 20
-23.400000000000091
 30
0.0
 11
77.400000500000147
 21
-30.600000000000019
 31
0.0
  0
LINE
  8
DETAIL
  6
CONTINUOUS
 62
     5
 10
77.400000500000147
 20
23.39999999999986
 30
0.0
 11
84.600000500000192
 21
23.39999999999986
 31
0.0
  0
LINE
  8
DETAIL
  6
CONTINUOUS
 62
     5
 10
77.400000500000147
 20
-23.400000000000091
 30
0.0
 11
84.600000500000192
 21
-23.400000000000091
 31
0.0
  0
LINE
  8
DETAIL
  6
CONTINUOUS
 62
     5
 10
68.400000500000147
 20
30.599999999999909
 30
0.0
 11
75.600000500000192
 21
30.599999999999909
 31
0.0
  0
LINE
  8
DETAIL
  6
CONTINUOUS
 62
     5
 10
68.400000500000147
 20
-30.600000000000019
 30
0.0
 11
75.600000500000192
 21
-30.600000000000019
 31
0.0
  0
LINE
  8
DETAIL
  6
CONTINUOUS
 62
     5
 10
75.600000500000192
 20
23.39999999999986
 30
0.0
 11
75.600000500000192
 21
30.599999999999909
 31
0.0
  0
LINE
  8
DETAIL
  6
CONTINUOUS
 62
     5
 10
75.600000500000192
 20
-23.400000000000091
 30
0.0
 11
75.600000500000192
 21
-30.600000000000019
 31
0.0
  0
LINE
  8
DETAIL
  6
CONTINUOUS
 62
     5
 10
68.400000500000147
 20
23.39999999999986
 30
0.0
 11
68.400000500000147
 21
30.599999999999909
 31
0.0
  0
LINE
  8
DETAIL
  6
CONTINUOUS
 62
     5
 10
68.400000500000147
 20
-23.400000000000091
 30
0.0
 11
68.400000500000147
 21
-30.600000000000019
 31
0.0
  0
LINE
  8
DETAIL
  6
CONTINUOUS
 62
     5
 10
68.400000500000147
 20
23.39999999999986
 30
0.0
 11
75.600000500000192
 21
23.39999999999986
 31
0.0
  0
LINE
  8
DETAIL
  6
CONTINUOUS
 62
     5
 10
68.400000500000147
 20
-23.400000000000091
 30
0.0
 11
75.600000500000192
 21
-23.400000000000091
 31
0.0
  0
LINE
  8
DETAIL
  6
CONTINUOUS
 62
     5
 10
59.400000500000147
 20
30.599999999999909
 30
0.0
 11
66.600000500000192
 21
30.599999999999909
 31
0.0
  0
LINE
  8
DETAIL
  6
CONTINUOUS
 62
     5
 10
59.400000500000147
 20
-30.600000000000019
 30
0.0
 11
66.600000500000192
 21
-30.600000000000019
 31
0.0
  0
LINE
  8
DETAIL
  6
CONTINUOUS
 62
     5
 10
66.600000500000192
 20
23.39999999999986
 30
0.0
 11
66.600000500000192
 21
30.599999999999909
 31
0.0
  0
LINE
  8
DETAIL
  6
CONTINUOUS
 62
     5
 10
66.600000500000192
 20
-23.400000000000091
 30
0.0
 11
66.600000500000192
 21
-30.600000000000019
 31
0.0
  0
LINE
  8
DETAIL
  6
CONTINUOUS
 62
     5
 10
59.400000500000147
 20
23.39999999999986
 30
0.0
 11
59.400000500000147
 21
30.599999999999909
 31
0.0
  0
LINE
  8
DETAIL
  6
CONTINUOUS
 62
     5
 10
59.400000500000147
 20
-23.400000000000091
 30
0.0
 11
59.400000500000147
 21
-30.600000000000019
 31
0.0
  0
LINE
  8
DETAIL
  6
CONTINUOUS
 62
     5
 10
59.400000500000147
 20
23.39999999999986
 30
0.0
 11
66.600000500000192
 21
23.39999999999986
 31
0.0
  0
LINE
  8
DETAIL
  6
CONTINUOUS
 62
     5
 10
59.400000500000147
 20
-23.400000000000091
 30
0.0
 11
66.600000500000192
 21
-23.400000000000091
 31
0.0
  0
LINE
  8
DETAIL
  6
CONTINUOUS
 62
     5
 10
86.400000500000147
 20
39.599999999999909
 30
0.0
 11
93.600000500000192
 21
39.599999999999909
 31
0.0
  0
LINE
  8
DETAIL
  6
CONTINUOUS
 62
     5
 10
86.400000500000147
 20
-39.600000000000023
 30
0.0
 11
93.600000500000192
 21
-39.600000000000023
 31
0.0
  0
LINE
  8
DETAIL
  6
CONTINUOUS
 62
     5
 10
93.600000500000192
 20
32.399999999999856
 30
0.0
 11
93.600000500000192
 21
39.599999999999909
 31
0.0
  0
LINE
  8
DETAIL
  6
CONTINUOUS
 62
     5
 10
93.600000500000192
 20
-32.400000000000091
 30
0.0
 11
93.600000500000192
 21
-39.600000000000023
 31
0.0
  0
LINE
  8
DETAIL
  6
CONTINUOUS
 62
     5
 10
86.400000500000147
 20
32.399999999999856
 30
0.0
 11
86.400000500000147
 21
39.599999999999909
 31
0.0
  0
LINE
  8
DETAIL
  6
CONTINUOUS
 62
     5
 10
86.400000500000147
 20
-32.400000000000091
 30
0.0
 11
86.400000500000147
 21
-39.600000000000023
 31
0.0
  0
LINE
  8
DETAIL
  6
CONTINUOUS
 62
     5
 10
86.400000500000147
 20
32.399999999999856
 30
0.0
 11
93.600000500000192
 21
32.399999999999856
 31
0.0
  0
LINE
  8
DETAIL
  6
CONTINUOUS
 62
     5
 10
86.400000500000147
 20
-32.400000000000091
 30
0.0
 11
93.600000500000192
 21
-32.400000000000091
 31
0.0
  0
LINE
  8
DETAIL
  6
CONTINUOUS
 62
     5
 10
77.400000500000147
 20
39.599999999999909
 30
0.0
 11
84.600000500000192
 21
39.599999999999909
 31
0.0
  0
LINE
  8
DETAIL
  6
CONTINUOUS
 62
     5
 10
77.400000500000147
 20
-39.600000000000023
 30
0.0
 11
84.600000500000192
 21
-39.600000000000023
 31
0.0
  0
LINE
  8
DETAIL
  6
CONTINUOUS
 62
     5
 10
84.600000500000192
 20
32.399999999999856
 30
0.0
 11
84.600000500000192
 21
39.599999999999909
 31
0.0
  0
LINE
  8
DETAIL
  6
CONTINUOUS
 62
     5
 10
84.600000500000192
 20
-32.400000000000091
 30
0.0
 11
84.600000500000192
 21
-39.600000000000023
 31
0.0
  0
LINE
  8
DETAIL
  6
CONTINUOUS
 62
     5
 10
77.400000500000147
 20
32.399999999999856
 30
0.0
 11
77.400000500000147
 21
39.599999999999909
 31
0.0
  0
LINE
  8
DETAIL
  6
CONTINUOUS
 62
     5
 10
77.400000500000147
 20
-32.400000000000091
 30
0.0
 11
77.400000500000147
 21
-39.600000000000023
 31
0.0
  0
LINE
  8
DETAIL
  6
CONTINUOUS
 62
     5
 10
77.400000500000147
 20
32.399999999999856
 30
0.0
 11
84.600000500000192
 21
32.399999999999856
 31
0.0
  0
LINE
  8
DETAIL
  6
CONTINUOUS
 62
     5
 10
77.400000500000147
 20
-32.400000000000091
 30
0.0
 11
84.600000500000192
 21
-32.400000000000091
 31
0.0
  0
LINE
  8
DETAIL
  6
CONTINUOUS
 62
     5
 10
68.400000500000147
 20
39.599999999999909
 30
0.0
 11
75.600000500000192
 21
39.599999999999909
 31
0.0
  0
LINE
  8
DETAIL
  6
CONTINUOUS
 62
     5
 10
68.400000500000147
 20
-39.600000000000023
 30
0.0
 11
75.600000500000192
 21
-39.600000000000023
 31
0.0
  0
LINE
  8
DETAIL
  6
CONTINUOUS
 62
     5
 10
75.600000500000192
 20
32.399999999999856
 30
0.0
 11
75.600000500000192
 21
39.599999999999909
 31
0.0
  0
LINE
  8
DETAIL
  6
CONTINUOUS
 62
     5
 10
75.600000500000192
 20
-32.400000000000091
 30
0.0
 11
75.600000500000192
 21
-39.600000000000023
 31
0.0
  0
LINE
  8
DETAIL
  6
CONTINUOUS
 62
     5
 10
68.400000500000147
 20
32.399999999999856
 30
0.0
 11
68.400000500000147
 21
39.599999999999909
 31
0.0
  0
LINE
  8
DETAIL
  6
CONTINUOUS
 62
     5
 10
68.400000500000147
 20
-32.400000000000091
 30
0.0
 11
68.400000500000147
 21
-39.600000000000023
 31
0.0
  0
LINE
  8
DETAIL
  6
CONTINUOUS
 62
     5
 10
68.400000500000147
 20
32.399999999999856
 30
0.0
 11
75.600000500000192
 21
32.399999999999856
 31
0.0
  0
LINE
  8
DETAIL
  6
CONTINUOUS
 62
     5
 10
68.400000500000147
 20
-32.400000000000091
 30
0.0
 11
75.600000500000192
 21
-32.400000000000091
 31
0.0
  0
LINE
  8
DETAIL
  6
CONTINUOUS
 62
     5
 10
59.400000500000147
 20
39.599999999999909
 30
0.0
 11
66.600000500000192
 21
39.599999999999909
 31
0.0
  0
LINE
  8
DETAIL
  6
CONTINUOUS
 62
     5
 10
59.400000500000147
 20
-39.600000000000023
 30
0.0
 11
66.600000500000192
 21
-39.600000000000023
 31
0.0
  0
LINE
  8
DETAIL
  6
CONTINUOUS
 62
     5
 10
66.600000500000192
 20
32.399999999999856
 30
0.0
 11
66.600000500000192
 21
39.599999999999909
 31
0.0
  0
LINE
  8
DETAIL
  6
CONTINUOUS
 62
     5
 10
66.600000500000192
 20
-32.400000000000091
 30
0.0
 11
66.600000500000192
 21
-39.600000000000023
 31
0.0
  0
LINE
  8
DETAIL
  6
CONTINUOUS
 62
     5
 10
59.400000500000147
 20
32.399999999999856
 30
0.0
 11
59.400000500000147
 21
39.599999999999909
 31
0.0
  0
LINE
  8
DETAIL
  6
CONTINUOUS
 62
     5
 10
59.400000500000147
 20
-32.400000000000091
 30
0.0
 11
59.400000500000147
 21
-39.600000000000023
 31
0.0
  0
LINE
  8
DETAIL
  6
CONTINUOUS
 62
     5
 10
59.400000500000147
 20
32.399999999999856
 30
0.0
 11
66.600000500000192
 21
32.399999999999856
 31
0.0
  0
LINE
  8
DETAIL
  6
CONTINUOUS
 62
     5
 10
59.400000500000147
 20
-32.400000000000091
 30
0.0
 11
66.600000500000192
 21
-32.400000000000091
 31
0.0
  0
LINE
  8
DETAIL
  6
CONTINUOUS
 62
     5
 10
50.400000500000147
 20
39.599999999999909
 30
0.0
 11
57.600000500000192
 21
39.599999999999909
 31
0.0
  0
LINE
  8
DETAIL
  6
CONTINUOUS
 62
     5
 10
50.400000500000147
 20
-39.600000000000023
 30
0.0
 11
57.600000500000192
 21
-39.600000000000023
 31
0.0
  0
LINE
  8
DETAIL
  6
CONTINUOUS
 62
     5
 10
57.600000500000192
 20
32.399999999999856
 30
0.0
 11
57.600000500000192
 21
39.599999999999909
 31
0.0
  0
LINE
  8
DETAIL
  6
CONTINUOUS
 62
     5
 10
57.600000500000192
 20
-32.400000000000091
 30
0.0
 11
57.600000500000192
 21
-39.600000000000023
 31
0.0
  0
LINE
  8
DETAIL
  6
CONTINUOUS
 62
     5
 10
50.400000500000147
 20
32.399999999999856
 30
0.0
 11
50.400000500000147
 21
39.599999999999909
 31
0.0
  0
LINE
  8
DETAIL
  6
CONTINUOUS
 62
     5
 10
50.400000500000147
 20
-32.400000000000091
 30
0.0
 11
50.400000500000147
 21
-39.600000000000023
 31
0.0
  0
LINE
  8
DETAIL
  6
CONTINUOUS
 62
     5
 10
50.400000500000147
 20
32.399999999999856
 30
0.0
 11
57.600000500000192
 21
32.399999999999856
 31
0.0
  0
LINE
  8
DETAIL
  6
CONTINUOUS
 62
     5
 10
50.400000500000147
 20
-32.400000000000091
 30
0.0
 11
57.600000500000192
 21
-32.400000000000091
 31
0.0
  0
LINE
  8
DETAIL
  6
CONTINUOUS
 62
     5
 10
86.400000500000147
 20
48.599999999999909
 30
0.0
 11
93.600000500000192
 21
48.599999999999909
 31
0.0
  0
LINE
  8
DETAIL
  6
CONTINUOUS
 62
     5
 10
86.400000500000147
 20
-48.600000000000023
 30
0.0
 11
93.600000500000192
 21
-48.600000000000023
 31
0.0
  0
LINE
  8
DETAIL
  6
CONTINUOUS
 62
     5
 10
93.600000500000192
 20
41.399999999999856
 30
0.0
 11
93.600000500000192
 21
48.599999999999909
 31
0.0
  0
LINE
  8
DETAIL
  6
CONTINUOUS
 62
     5
 10
93.600000500000192
 20
-41.400000000000091
 30
0.0
 11
93.600000500000192
 21
-48.600000000000023
 31
0.0
  0
LINE
  8
DETAIL
  6
CONTINUOUS
 62
     5
 10
86.400000500000147
 20
41.399999999999856
 30
0.0
 11
86.400000500000147
 21
48.599999999999909
 31
0.0
  0
LINE
  8
DETAIL
  6
CONTINUOUS
 62
     5
 10
86.400000500000147
 20
-41.400000000000091
 30
0.0
 11
86.400000500000147
 21
-48.600000000000023
 31
0.0
  0
LINE
  8
DETAIL
  6
CONTINUOUS
 62
     5
 10
86.400000500000147
 20
41.399999999999856
 30
0.0
 11
93.600000500000192
 21
41.399999999999856
 31
0.0
  0
LINE
  8
DETAIL
  6
CONTINUOUS
 62
     5
 10
86.400000500000147
 20
-41.400000000000091
 30
0.0
 11
93.600000500000192
 21
-41.400000000000091
 31
0.0
  0
LINE
  8
DETAIL
  6
CONTINUOUS
 62
     5
 10
77.400000500000147
 20
48.599999999999909
 30
0.0
 11
84.600000500000192
 21
48.599999999999909
 31
0.0
  0
LINE
  8
DETAIL
  6
CONTINUOUS
 62
     5
 10
77.400000500000147
 20
-48.600000000000023
 30
0.0
 11
84.600000500000192
 21
-48.600000000000023
 31
0.0
  0
LINE
  8
DETAIL
  6
CONTINUOUS
 62
     5
 10
84.600000500000192
 20
41.399999999999856
 30
0.0
 11
84.600000500000192
 21
48.599999999999909
 31
0.0
  0
LINE
  8
DETAIL
  6
CONTINUOUS
 62
     5
 10
84.600000500000192
 20
-41.400000000000091
 30
0.0
 11
84.600000500000192
 21
-48.600000000000023
 31
0.0
  0
LINE
  8
DETAIL
  6
CONTINUOUS
 62
     5
 10
77.400000500000147
 20
41.399999999999856
 30
0.0
 11
77.400000500000147
 21
48.599999999999909
 31
0.0
  0
LINE
  8
DETAIL
  6
CONTINUOUS
 62
     5
 10
77.400000500000147
 20
-41.400000000000091
 30
0.0
 11
77.400000500000147
 21
-48.600000000000023
 31
0.0
  0
LINE
  8
DETAIL
  6
CONTINUOUS
 62
     5
 10
77.400000500000147
 20
41.399999999999856
 30
0.0
 11
84.600000500000192
 21
41.399999999999856
 31
0.0
  0
LINE
  8
DETAIL
  6
CONTINUOUS
 62
     5
 10
77.400000500000147
 20
-41.400000000000091
 30
0.0
 11
84.600000500000192
 21
-41.400000000000091
 31
0.0
  0
LINE
  8
DETAIL
  6
CONTINUOUS
 62
     5
 10
68.400000500000147
 20
48.599999999999909
 30
0.0
 11
75.600000500000192
 21
48.599999999999909
 31
0.0
  0
LINE
  8
DETAIL
  6
CONTINUOUS
 62
     5
 10
68.400000500000147
 20
-48.600000000000023
 30
0.0
 11
75.600000500000192
 21
-48.600000000000023
 31
0.0
  0
LINE
  8
DETAIL
  6
CONTINUOUS
 62
     5
 10
75.600000500000192
 20
41.399999999999856
 30
0.0
 11
75.600000500000192
 21
48.599999999999909
 31
0.0
  0
LINE
  8
DETAIL
  6
CONTINUOUS
 62
     5
 10
75.600000500000192
 20
-41.400000000000091
 30
0.0
 11
75.600000500000192
 21
-48.600000000000023
 31
0.0
  0
LINE
  8
DETAIL
  6
CONTINUOUS
 62
     5
 10
68.400000500000147
 20
41.399999999999856
 30
0.0
 11
68.400000500000147
 21
48.599999999999909
 31
0.0
  0
LINE
  8
DETAIL
  6
CONTINUOUS
 62
     5
 10
68.400000500000147
 20
-41.400000000000091
 30
0.0
 11
68.400000500000147
 21
-48.600000000000023
 31
0.0
  0
LINE
  8
DETAIL
  6
CONTINUOUS
 62
     5
 10
68.400000500000147
 20
41.399999999999856
 30
0.0
 11
75.600000500000192
 21
41.399999999999856
 31
0.0
  0
LINE
  8
DETAIL
  6
CONTINUOUS
 62
     5
 10
68.400000500000147
 20
-41.400000000000091
 30
0.0
 11
75.600000500000192
 21
-41.400000000000091
 31
0.0
  0
LINE
  8
DETAIL
  6
CONTINUOUS
 62
     5
 10
59.400000500000147
 20
48.599999999999909
 30
0.0
 11
66.600000500000192
 21
48.599999999999909
 31
0.0
  0
LINE
  8
DETAIL
  6
CONTINUOUS
 62
     5
 10
59.400000500000147
 20
-48.600000000000023
 30
0.0
 11
66.600000500000192
 21
-48.600000000000023
 31
0.0
  0
LINE
  8
DETAIL
  6
CONTINUOUS
 62
     5
 10
66.600000500000192
 20
41.399999999999856
 30
0.0
 11
66.600000500000192
 21
48.599999999999909
 31
0.0
  0
LINE
  8
DETAIL
  6
CONTINUOUS
 62
     5
 10
66.600000500000192
 20
-41.400000000000091
 30
0.0
 11
66.600000500000192
 21
-48.600000000000023
 31
0.0
  0
LINE
  8
DETAIL
  6
CONTINUOUS
 62
     5
 10
59.400000500000147
 20
41.399999999999856
 30
0.0
 11
59.400000500000147
 21
48.599999999999909
 31
0.0
  0
LINE
  8
DETAIL
  6
CONTINUOUS
 62
     5
 10
59.400000500000147
 20
-41.400000000000091
 30
0.0
 11
59.400000500000147
 21
-48.600000000000023
 31
0.0
  0
LINE
  8
DETAIL
  6
CONTINUOUS
 62
     5
 10
59.400000500000147
 20
41.399999999999856
 30
0.0
 11
66.600000500000192
 21
41.399999999999856
 31
0.0
  0
LINE
  8
DETAIL
  6
CONTINUOUS
 62
     5
 10
59.400000500000147
 20
-41.400000000000091
 30
0.0
 11
66.600000500000192
 21
-41.400000000000091
 31
0.0
  0
LINE
  8
DETAIL
  6
CONTINUOUS
 62
     5
 10
50.400000500000147
 20
48.599999999999909
 30
0.0
 11
57.600000500000192
 21
48.599999999999909
 31
0.0
  0
LINE
  8
DETAIL
  6
CONTINUOUS
 62
     5
 10
50.400000500000147
 20
-48.600000000000023
 30
0.0
 11
57.600000500000192
 21
-48.600000000000023
 31
0.0
  0
LINE
  8
DETAIL
  6
CONTINUOUS
 62
     5
 10
57.600000500000192
 20
41.399999999999856
 30
0.0
 11
57.600000500000192
 21
48.599999999999909
 31
0.0
  0
LINE
  8
DETAIL
  6
CONTINUOUS
 62
     5
 10
57.600000500000192
 20
-41.400000000000091
 30
0.0
 11
57.600000500000192
 21
-48.600000000000023
 31
0.0
  0
LINE
  8
DETAIL
  6
CONTINUOUS
 62
     5
 10
50.400000500000147
 20
41.399999999999856
 30
0.0
 11
50.400000500000147
 21
48.599999999999909
 31
0.0
  0
LINE
  8
DETAIL
  6
CONTINUOUS
 62
     5
 10
50.400000500000147
 20
-41.400000000000091
 30
0.0
 11
50.400000500000147
 21
-48.600000000000023
 31
0.0
  0
LINE
  8
DETAIL
  6
CONTINUOUS
 62
     5
 10
50.400000500000147
 20
41.399999999999856
 30
0.0
 11
57.600000500000192
 21
41.399999999999856
 31
0.0
  0
LINE
  8
DETAIL
  6
CONTINUOUS
 62
     5
 10
50.400000500000147
 20
-41.400000000000091
 30
0.0
 11
57.600000500000192
 21
-41.400000000000091
 31
0.0
  0
LINE
  8
DETAIL
  6
CONTINUOUS
 62
     5
 10
41.400000500000147
 20
48.599999999999909
 30
0.0
 11
48.600000500000192
 21
48.599999999999909
 31
0.0
  0
LINE
  8
DETAIL
  6
CONTINUOUS
 62
     5
 10
41.400000500000147
 20
-48.600000000000023
 30
0.0
 11
48.600000500000192
 21
-48.600000000000023
 31
0.0
  0
LINE
  8
DETAIL
  6
CONTINUOUS
 62
     5
 10
48.600000500000192
 20
41.399999999999856
 30
0.0
 11
48.600000500000192
 21
48.599999999999909
 31
0.0
  0
LINE
  8
DETAIL
  6
CONTINUOUS
 62
     5
 10
48.600000500000192
 20
-41.400000000000091
 30
0.0
 11
48.600000500000192
 21
-48.600000000000023
 31
0.0
  0
LINE
  8
DETAIL
  6
CONTINUOUS
 62
     5
 10
41.400000500000147
 20
41.399999999999856
 30
0.0
 11
41.400000500000147
 21
48.599999999999909
 31
0.0
  0
LINE
  8
DETAIL
  6
CONTINUOUS
 62
     5
 10
41.400000500000147
 20
-41.400000000000091
 30
0.0
 11
41.400000500000147
 21
-48.600000000000023
 31
0.0
  0
LINE
  8
DETAIL
  6
CONTINUOUS
 62
     5
 10
41.400000500000147
 20
41.399999999999856
 30
0.0
 11
48.600000500000192
 21
41.399999999999856
 31
0.0
  0
LINE
  8
DETAIL
  6
CONTINUOUS
 62
     5
 10
41.400000500000147
 20
-41.400000000000091
 30
0.0
 11
48.600000500000192
 21
-41.400000000000091
 31
0.0
  0
LINE
  8
DETAIL
  6
CONTINUOUS
 62
     5
 10
86.400000500000147
 20
57.599999999999909
 30
0.0
 11
93.600000500000192
 21
57.599999999999909
 31
0.0
  0
LINE
  8
DETAIL
  6
CONTINUOUS
 62
     5
 10
86.400000500000147
 20
-57.600000000000023
 30
0.0
 11
93.600000500000192
 21
-57.600000000000023
 31
0.0
  0
LINE
  8
DETAIL
  6
CONTINUOUS
 62
     5
 10
93.600000500000192
 20
50.399999999999856
 30
0.0
 11
93.600000500000192
 21
57.599999999999909
 31
0.0
  0
LINE
  8
DETAIL
  6
CONTINUOUS
 62
     5
 10
93.600000500000192
 20
-50.400000000000091
 30
0.0
 11
93.600000500000192
 21
-57.600000000000023
 31
0.0
  0
LINE
  8
DETAIL
  6
CONTINUOUS
 62
     5
 10
86.400000500000147
 20
50.399999999999856
 30
0.0
 11
86.400000500000147
 21
57.599999999999909
 31
0.0
  0
LINE
  8
DETAIL
  6
CONTINUOUS
 62
     5
 10
86.400000500000147
 20
-50.400000000000091
 30
0.0
 11
86.400000500000147
 21
-57.600000000000023
 31
0.0
  0
LINE
  8
DETAIL
  6
CONTINUOUS
 62
     5
 10
86.400000500000147
 20
50.399999999999856
 30
0.0
 11
93.600000500000192
 21
50.399999999999856
 31
0.0
  0
LINE
  8
DETAIL
  6
CONTINUOUS
 62
     5
 10
86.400000500000147
 20
-50.400000000000091
 30
0.0
 11
93.600000500000192
 21
-50.400000000000091
 31
0.0
  0
LINE
  8
DETAIL
  6
CONTINUOUS
 62
     5
 10
77.400000500000147
 20
57.599999999999909
 30
0.0
 11
84.600000500000192
 21
57.599999999999909
 31
0.0
  0
LINE
  8
DETAIL
  6
CONTINUOUS
 62
     5
 10
77.400000500000147
 20
-57.600000000000023
 30
0.0
 11
84.600000500000192
 21
-57.600000000000023
 31
0.0
  0
LINE
  8
DETAIL
  6
CONTINUOUS
 62
     5
 10
84.600000500000192
 20
50.399999999999856
 30
0.0
 11
84.600000500000192
 21
57.599999999999909
 31
0.0
  0
LINE
  8
DETAIL
  6
CONTINUOUS
 62
     5
 10
84.600000500000192
 20
-50.400000000000091
 30
0.0
 11
84.600000500000192
 21
-57.600000000000023
 31
0.0
  0
LINE
  8
DETAIL
  6
CONTINUOUS
 62
     5
 10
77.400000500000147
 20
50.399999999999856
 30
0.0
 11
77.400000500000147
 21
57.599999999999909
 31
0.0
  0
LINE
  8
DETAIL
  6
CONTINUOUS
 62
     5
 10
77.400000500000147
 20
-50.400000000000091
 30
0.0
 11
77.400000500000147
 21
-57.600000000000023
 31
0.0
  0
LINE
  8
DETAIL
  6
CONTINUOUS
 62
     5
 10
77.400000500000147
 20
50.399999999999856
 30
0.0
 11
84.600000500000192
 21
50.399999999999856
 31
0.0
  0
LINE
  8
DETAIL
  6
CONTINUOUS
 62
     5
 10
77.400000500000147
 20
-50.400000000000091
 30
0.0
 11
84.600000500000192
 21
-50.400000000000091
 31
0.0
  0
LINE
  8
DETAIL
  6
CONTINUOUS
 62
     5
 10
68.400000500000147
 20
57.599999999999909
 30
0.0
 11
75.600000500000192
 21
57.599999999999909
 31
0.0
  0
LINE
  8
DETAIL
  6
CONTINUOUS
 62
     5
 10
68.400000500000147
 20
-57.600000000000023
 30
0.0
 11
75.600000500000192
 21
-57.600000000000023
 31
0.0
  0
LINE
  8
DETAIL
  6
CONTINUOUS
 62
     5
 10
75.600000500000192
 20
50.399999999999856
 30
0.0
 11
75.600000500000192
 21
57.599999999999909
 31
0.0
  0
LINE
  8
DETAIL
  6
CONTINUOUS
 62
     5
 10
75.600000500000192
 20
-50.400000000000091
 30
0.0
 11
75.600000500000192
 21
-57.600000000000023
 31
0.0
  0
LINE
  8
DETAIL
  6
CONTINUOUS
 62
     5
 10
68.400000500000147
 20
50.399999999999856
 30
0.0
 11
68.400000500000147
 21
57.599999999999909
 31
0.0
  0
LINE
  8
DETAIL
  6
CONTINUOUS
 62
     5
 10
68.400000500000147
 20
-50.400000000000091
 30
0.0
 11
68.400000500000147
 21
-57.600000000000023
 31
0.0
  0
LINE
  8
DETAIL
  6
CONTINUOUS
 62
     5
 10
68.400000500000147
 20
50.399999999999856
 30
0.0
 11
75.600000500000192
 21
50.399999999999856
 31
0.0
  0
LINE
  8
DETAIL
  6
CONTINUOUS
 62
     5
 10
68.400000500000147
 20
-50.400000000000091
 30
0.0
 11
75.600000500000192
 21
-50.400000000000091
 31
0.0
  0
LINE
  8
DETAIL
  6
CONTINUOUS
 62
     5
 10
59.400000500000147
 20
57.599999999999909
 30
0.0
 11
66.600000500000192
 21
57.599999999999909
 31
0.0
  0
LINE
  8
DETAIL
  6
CONTINUOUS
 62
     5
 10
59.400000500000147
 20
-57.600000000000023
 30
0.0
 11
66.600000500000192
 21
-57.600000000000023
 31
0.0
  0
LINE
  8
DETAIL
  6
CONTINUOUS
 62
     5
 10
66.600000500000192
 20
50.399999999999856
 30
0.0
 11
66.600000500000192
 21
57.599999999999909
 31
0.0
  0
LINE
  8
DETAIL
  6
CONTINUOUS
 62
     5
 10
66.600000500000192
 20
-50.400000000000091
 30
0.0
 11
66.600000500000192
 21
-57.600000000000023
 31
0.0
  0
LINE
  8
DETAIL
  6
CONTINUOUS
 62
     5
 10
59.400000500000147
 20
50.399999999999856
 30
0.0
 11
59.400000500000147
 21
57.599999999999909
 31
0.0
  0
LINE
  8
DETAIL
  6
CONTINUOUS
 62
     5
 10
59.400000500000147
 20
-50.400000000000091
 30
0.0
 11
59.400000500000147
 21
-57.600000000000023
 31
0.0
  0
LINE
  8
DETAIL
  6
CONTINUOUS
 62
     5
 10
59.400000500000147
 20
50.399999999999856
 30
0.0
 11
66.600000500000192
 21
50.399999999999856
 31
0.0
  0
LINE
  8
DETAIL
  6
CONTINUOUS
 62
     5
 10
59.400000500000147
 20
-50.400000000000091
 30
0.0
 11
66.600000500000192
 21
-50.400000000000091
 31
0.0
  0
LINE
  8
DETAIL
  6
CONTINUOUS
 62
     5
 10
50.400000500000147
 20
57.599999999999909
 30
0.0
 11
57.600000500000192
 21
57.599999999999909
 31
0.0
  0
LINE
  8
DETAIL
  6
CONTINUOUS
 62
     5
 10
50.400000500000147
 20
-57.600000000000023
 30
0.0
 11
57.600000500000192
 21
-57.600000000000023
 31
0.0
  0
LINE
  8
DETAIL
  6
CONTINUOUS
 62
     5
 10
57.600000500000192
 20
50.399999999999856
 30
0.0
 11
57.600000500000192
 21
57.599999999999909
 31
0.0
  0
LINE
  8
DETAIL
  6
CONTINUOUS
 62
     5
 10
57.600000500000192
 20
-50.400000000000091
 30
0.0
 11
57.600000500000192
 21
-57.600000000000023
 31
0.0
  0
LINE
  8
DETAIL
  6
CONTINUOUS
 62
     5
 10
50.400000500000147
 20
50.399999999999856
 30
0.0
 11
50.400000500000147
 21
57.599999999999909
 31
0.0
  0
LINE
  8
DETAIL
  6
CONTINUOUS
 62
     5
 10
50.400000500000147
 20
-50.400000000000091
 30
0.0
 11
50.400000500000147
 21
-57.600000000000023
 31
0.0
  0
LINE
  8
DETAIL
  6
CONTINUOUS
 62
     5
 10
50.400000500000147
 20
50.399999999999856
 30
0.0
 11
57.600000500000192
 21
50.399999999999856
 31
0.0
  0
LINE
  8
DETAIL
  6
CONTINUOUS
 62
     5
 10
50.400000500000147
 20
-50.400000000000091
 30
0.0
 11
57.600000500000192
 21
-50.400000000000091
 31
0.0
  0
LINE
  8
DETAIL
  6
CONTINUOUS
 62
     5
 10
41.400000500000147
 20
57.599999999999909
 30
0.0
 11
48.600000500000192
 21
57.599999999999909
 31
0.0
  0
LINE
  8
DETAIL
  6
CONTINUOUS
 62
     5
 10
41.400000500000147
 20
-57.600000000000023
 30
0.0
 11
48.600000500000192
 21
-57.600000000000023
 31
0.0
  0
LINE
  8
DETAIL
  6
CONTINUOUS
 62
     5
 10
48.600000500000192
 20
50.399999999999856
 30
0.0
 11
48.600000500000192
 21
57.599999999999909
 31
0.0
  0
LINE
  8
DETAIL
  6
CONTINUOUS
 62
     5
 10
48.600000500000192
 20
-50.400000000000091
 30
0.0
 11
48.600000500000192
 21
-57.600000000000023
 31
0.0
  0
LINE
  8
DETAIL
  6
CONTINUOUS
 62
     5
 10
41.400000500000147
 20
50.399999999999856
 30
0.0
 11
41.400000500000147
 21
57.599999999999909
 31
0.0
  0
LINE
  8
DETAIL
  6
CONTINUOUS
 62
     5
 10
41.400000500000147
 20
-50.400000000000091
 30
0.0
 11
41.400000500000147
 21
-57.600000000000023
 31
0.0
  0
LINE
  8
DETAIL
  6
CONTINUOUS
 62
     5
 10
41.400000500000147
 20
50.399999999999856
 30
0.0
 11
48.600000500000192
 21
50.399999999999856
 31
0.0
  0
LINE
  8
DETAIL
  6
CONTINUOUS
 62
     5
 10
41.400000500000147
 20
-50.400000000000091
 30
0.0
 11
48.600000500000192
 21
-50.400000000000091
 31
0.0
  0
LINE
  8
DETAIL
  6
CONTINUOUS
 62
     5
 10
39.600000500000192
 20
50.399999999999856
 30
0.0
 11
39.600000500000192
 21
57.599999999999909
 31
0.0
  0
LINE
  8
DETAIL
  6
CONTINUOUS
 62
     5
 10
39.600000500000192
 20
-50.400000000000091
 30
0.0
 11
39.600000500000192
 21
-57.600000000000023
 31
0.0
  0
LINE
  8
DETAIL
  6
CONTINUOUS
 62
     5
 10
86.400000500000147
 20
66.599999999999909
 30
0.0
 11
93.600000500000192
 21
66.599999999999909
 31
0.0
  0
LINE
  8
DETAIL
  6
CONTINUOUS
 62
     5
 10
86.400000500000147
 20
-66.600000000000023
 30
0.0
 11
93.600000500000192
 21
-66.600000000000023
 31
0.0
  0
LINE
  8
DETAIL
  6
CONTINUOUS
 62
     5
 10
93.600000500000192
 20
59.399999999999856
 30
0.0
 11
93.600000500000192
 21
66.599999999999909
 31
0.0
  0
LINE
  8
DETAIL
  6
CONTINUOUS
 62
     5
 10
93.600000500000192
 20
-59.400000000000091
 30
0.0
 11
93.600000500000192
 21
-66.600000000000023
 31
0.0
  0
LINE
  8
DETAIL
  6
CONTINUOUS
 62
     5
 10
86.400000500000147
 20
59.399999999999856
 30
0.0
 11
86.400000500000147
 21
66.599999999999909
 31
0.0
  0
LINE
  8
DETAIL
  6
CONTINUOUS
 62
     5
 10
86.400000500000147
 20
-59.400000000000091
 30
0.0
 11
86.400000500000147
 21
-66.600000000000023
 31
0.0
  0
LINE
  8
DETAIL
  6
CONTINUOUS
 62
     5
 10
86.400000500000147
 20
59.399999999999856
 30
0.0
 11
93.600000500000192
 21
59.399999999999856
 31
0.0
  0
LINE
  8
DETAIL
  6
CONTINUOUS
 62
     5
 10
86.400000500000147
 20
-59.400000000000091
 30
0.0
 11
93.600000500000192
 21
-59.400000000000091
 31
0.0
  0
LINE
  8
DETAIL
  6
CONTINUOUS
 62
     5
 10
77.400000500000147
 20
66.599999999999909
 30
0.0
 11
84.600000500000192
 21
66.599999999999909
 31
0.0
  0
LINE
  8
DETAIL
  6
CONTINUOUS
 62
     5
 10
77.400000500000147
 20
-66.600000000000023
 30
0.0
 11
84.600000500000192
 21
-66.600000000000023
 31
0.0
  0
LINE
  8
DETAIL
  6
CONTINUOUS
 62
     5
 10
84.600000500000192
 20
59.399999999999856
 30
0.0
 11
84.600000500000192
 21
66.599999999999909
 31
0.0
  0
LINE
  8
DETAIL
  6
CONTINUOUS
 62
     5
 10
84.600000500000192
 20
-59.400000000000091
 30
0.0
 11
84.600000500000192
 21
-66.600000000000023
 31
0.0
  0
LINE
  8
DETAIL
  6
CONTINUOUS
 62
     5
 10
77.400000500000147
 20
59.399999999999856
 30
0.0
 11
77.400000500000147
 21
66.599999999999909
 31
0.0
  0
LINE
  8
DETAIL
  6
CONTINUOUS
 62
     5
 10
77.400000500000147
 20
-59.400000000000091
 30
0.0
 11
77.400000500000147
 21
-66.600000000000023
 31
0.0
  0
LINE
  8
DETAIL
  6
CONTINUOUS
 62
     5
 10
77.400000500000147
 20
59.399999999999856
 30
0.0
 11
84.600000500000192
 21
59.399999999999856
 31
0.0
  0
LINE
  8
DETAIL
  6
CONTINUOUS
 62
     5
 10
77.400000500000147
 20
-59.400000000000091
 30
0.0
 11
84.600000500000192
 21
-59.400000000000091
 31
0.0
  0
LINE
  8
DETAIL
  6
CONTINUOUS
 62
     5
 10
68.400000500000147
 20
66.599999999999909
 30
0.0
 11
75.600000500000192
 21
66.599999999999909
 31
0.0
  0
LINE
  8
DETAIL
  6
CONTINUOUS
 62
     5
 10
68.400000500000147
 20
-66.600000000000023
 30
0.0
 11
75.600000500000192
 21
-66.600000000000023
 31
0.0
  0
LINE
  8
DETAIL
  6
CONTINUOUS
 62
     5
 10
75.600000500000192
 20
59.399999999999856
 30
0.0
 11
75.600000500000192
 21
66.599999999999909
 31
0.0
  0
LINE
  8
DETAIL
  6
CONTINUOUS
 62
     5
 10
75.600000500000192
 20
-59.400000000000091
 30
0.0
 11
75.600000500000192
 21
-66.600000000000023
 31
0.0
  0
LINE
  8
DETAIL
  6
CONTINUOUS
 62
     5
 10
68.400000500000147
 20
59.399999999999856
 30
0.0
 11
68.400000500000147
 21
66.599999999999909
 31
0.0
  0
LINE
  8
DETAIL
  6
CONTINUOUS
 62
     5
 10
68.400000500000147
 20
-59.400000000000091
 30
0.0
 11
68.400000500000147
 21
-66.600000000000023
 31
0.0
  0
LINE
  8
DETAIL
  6
CONTINUOUS
 62
     5
 10
68.400000500000147
 20
59.399999999999856
 30
0.0
 11
75.600000500000192
 21
59.399999999999856
 31
0.0
  0
LINE
  8
DETAIL
  6
CONTINUOUS
 62
     5
 10
68.400000500000147
 20
-59.400000000000091
 30
0.0
 11
75.600000500000192
 21
-59.400000000000091
 31
0.0
  0
LINE
  8
DETAIL
  6
CONTINUOUS
 62
     5
 10
59.400000500000147
 20
66.599999999999909
 30
0.0
 11
66.600000500000192
 21
66.599999999999909
 31
0.0
  0
LINE
  8
DETAIL
  6
CONTINUOUS
 62
     5
 10
59.400000500000147
 20
-66.600000000000023
 30
0.0
 11
66.600000500000192
 21
-66.600000000000023
 31
0.0
  0
LINE
  8
DETAIL
  6
CONTINUOUS
 62
     5
 10
66.600000500000192
 20
59.399999999999856
 30
0.0
 11
66.600000500000192
 21
66.599999999999909
 31
0.0
  0
LINE
  8
DETAIL
  6
CONTINUOUS
 62
     5
 10
66.600000500000192
 20
-59.400000000000091
 30
0.0
 11
66.600000500000192
 21
-66.600000000000023
 31
0.0
  0
LINE
  8
DETAIL
  6
CONTINUOUS
 62
     5
 10
59.400000500000147
 20
59.399999999999856
 30
0.0
 11
59.400000500000147
 21
66.599999999999909
 31
0.0
  0
LINE
  8
DETAIL
  6
CONTINUOUS
 62
     5
 10
59.400000500000147
 20
-59.400000000000091
 30
0.0
 11
59.400000500000147
 21
-66.600000000000023
 31
0.0
  0
LINE
  8
DETAIL
  6
CONTINUOUS
 62
     5
 10
59.400000500000147
 20
59.399999999999856
 30
0.0
 11
66.600000500000192
 21
59.399999999999856
 31
0.0
  0
LINE
  8
DETAIL
  6
CONTINUOUS
 62
     5
 10
59.400000500000147
 20
-59.400000000000091
 30
0.0
 11
66.600000500000192
 21
-59.400000000000091
 31
0.0
  0
LINE
  8
DETAIL
  6
CONTINUOUS
 62
     5
 10
50.400000500000147
 20
66.599999999999909
 30
0.0
 11
57.600000500000192
 21
66.599999999999909
 31
0.0
  0
LINE
  8
DETAIL
  6
CONTINUOUS
 62
     5
 10
50.400000500000147
 20
-66.600000000000023
 30
0.0
 11
57.600000500000192
 21
-66.600000000000023
 31
0.0
  0
LINE
  8
DETAIL
  6
CONTINUOUS
 62
     5
 10
57.600000500000192
 20
59.399999999999856
 30
0.0
 11
57.600000500000192
 21
66.599999999999909
 31
0.0
  0
LINE
  8
DETAIL
  6
CONTINUOUS
 62
     5
 10
57.600000500000192
 20
-59.400000000000091
 30
0.0
 11
57.600000500000192
 21
-66.600000000000023
 31
0.0
  0
LINE
  8
DETAIL
  6
CONTINUOUS
 62
     5
 10
50.400000500000147
 20
59.399999999999856
 30
0.0
 11
50.400000500000147
 21
66.599999999999909
 31
0.0
  0
LINE
  8
DETAIL
  6
CONTINUOUS
 62
     5
 10
50.400000500000147
 20
-59.400000000000091
 30
0.0
 11
50.400000500000147
 21
-66.600000000000023
 31
0.0
  0
LINE
  8
DETAIL
  6
CONTINUOUS
 62
     5
 10
50.400000500000147
 20
59.399999999999856
 30
0.0
 11
57.600000500000192
 21
59.399999999999856
 31
0.0
  0
LINE
  8
DETAIL
  6
CONTINUOUS
 62
     5
 10
50.400000500000147
 20
-59.400000000000091
 30
0.0
 11
57.600000500000192
 21
-59.400000000000091
 31
0.0
  0
LINE
  8
DETAIL
  6
CONTINUOUS
 62
     5
 10
41.400000500000147
 20
66.599999999999909
 30
0.0
 11
48.600000500000192
 21
66.599999999999909
 31
0.0
  0
LINE
  8
DETAIL
  6
CONTINUOUS
 62
     5
 10
41.400000500000147
 20
-66.600000000000023
 30
0.0
 11
48.600000500000192
 21
-66.600000000000023
 31
0.0
  0
LINE
  8
DETAIL
  6
CONTINUOUS
 62
     5
 10
48.600000500000192
 20
59.399999999999856
 30
0.0
 11
48.600000500000192
 21
66.599999999999909
 31
0.0
  0
LINE
  8
DETAIL
  6
CONTINUOUS
 62
     5
 10
48.600000500000192
 20
-59.400000000000091
 30
0.0
 11
48.600000500000192
 21
-66.600000000000023
 31
0.0
  0
LINE
  8
DETAIL
  6
CONTINUOUS
 62
     5
 10
41.400000500000147
 20
59.399999999999856
 30
0.0
 11
41.400000500000147
 21
66.599999999999909
 31
0.0
  0
LINE
  8
DETAIL
  6
CONTINUOUS
 62
     5
 10
41.400000500000147
 20
-59.400000000000091
 30
0.0
 11
41.400000500000147
 21
-66.600000000000023
 31
0.0
  0
LINE
  8
DETAIL
  6
CONTINUOUS
 62
     5
 10
41.400000500000147
 20
59.399999999999856
 30
0.0
 11
48.600000500000192
 21
59.399999999999856
 31
0.0
  0
LINE
  8
DETAIL
  6
CONTINUOUS
 62
     5
 10
41.400000500000147
 20
-59.400000000000091
 30
0.0
 11
48.600000500000192
 21
-59.400000000000091
 31
0.0
  0
LINE
  8
DETAIL
  6
CONTINUOUS
 62
     5
 10
39.600000500000192
 20
59.399999999999856
 30
0.0
 11
39.600000500000192
 21
66.599999999999909
 31
0.0
  0
LINE
  8
DETAIL
  6
CONTINUOUS
 62
     5
 10
39.600000500000192
 20
-59.400000000000091
 30
0.0
 11
39.600000500000192
 21
-66.600000000000023
 31
0.0
  0
LINE
  8
DETAIL
  6
CONTINUOUS
 62
     5
 10
93.600000500000192
 20
68.399999999999864
 30
0.0
 11
93.600000500000192
 21
75.599999999999909
 31
0.0
  0
LINE
  8
DETAIL
  6
CONTINUOUS
 62
     5
 10
93.600000500000192
 20
-68.400000000000091
 30
0.0
 11
93.600000500000192
 21
-75.600000000000023
 31
0.0
  0
LINE
  8
DETAIL
  6
CONTINUOUS
 62
     5
 10
86.400000500000147
 20
68.399999999999864
 30
0.0
 11
86.400000500000147
 21
75.599999999999909
 31
0.0
  0
LINE
  8
DETAIL
  6
CONTINUOUS
 62
     5
 10
86.400000500000147
 20
-68.400000000000091
 30
0.0
 11
86.400000500000147
 21
-75.600000000000023
 31
0.0
  0
LINE
  8
DETAIL
  6
CONTINUOUS
 62
     5
 10
86.400000500000147
 20
68.399999999999864
 30
0.0
 11
93.600000500000192
 21
68.399999999999864
 31
0.0
  0
LINE
  8
DETAIL
  6
CONTINUOUS
 62
     5
 10
86.400000500000147
 20
-68.400000000000091
 30
0.0
 11
93.600000500000192
 21
-68.400000000000091
 31
0.0
  0
LINE
  8
DETAIL
  6
CONTINUOUS
 62
     5
 10
84.600000500000192
 20
68.399999999999864
 30
0.0
 11
84.600000500000192
 21
75.599999999999909
 31
0.0
  0
LINE
  8
DETAIL
  6
CONTINUOUS
 62
     5
 10
84.600000500000192
 20
-68.400000000000091
 30
0.0
 11
84.600000500000192
 21
-75.600000000000023
 31
0.0
  0
LINE
  8
DETAIL
  6
CONTINUOUS
 62
     5
 10
77.400000500000147
 20
68.399999999999864
 30
0.0
 11
77.400000500000147
 21
75.599999999999909
 31
0.0
  0
LINE
  8
DETAIL
  6
CONTINUOUS
 62
     5
 10
77.400000500000147
 20
-68.400000000000091
 30
0.0
 11
77.400000500000147
 21
-75.600000000000023
 31
0.0
  0
LINE
  8
DETAIL
  6
CONTINUOUS
 62
     5
 10
77.400000500000147
 20
68.399999999999864
 30
0.0
 11
84.600000500000192
 21
68.399999999999864
 31
0.0
  0
LINE
  8
DETAIL
  6
CONTINUOUS
 62
     5
 10
77.400000500000147
 20
-68.400000000000091
 30
0.0
 11
84.600000500000192
 21
-68.400000000000091
 31
0.0
  0
LINE
  8
DETAIL
  6
CONTINUOUS
 62
     5
 10
75.600000500000192
 20
68.399999999999864
 30
0.0
 11
75.600000500000192
 21
75.599999999999909
 31
0.0
  0
LINE
  8
DETAIL
  6
CONTINUOUS
 62
     5
 10
75.600000500000192
 20
-68.400000000000091
 30
0.0
 11
75.600000500000192
 21
-75.600000000000023
 31
0.0
  0
LINE
  8
DETAIL
  6
CONTINUOUS
 62
     5
 10
68.400000500000147
 20
68.399999999999864
 30
0.0
 11
68.400000500000147
 21
75.599999999999909
 31
0.0
  0
LINE
  8
DETAIL
  6
CONTINUOUS
 62
     5
 10
68.400000500000147
 20
-68.400000000000091
 30
0.0
 11
68.400000500000147
 21
-75.600000000000023
 31
0.0
  0
LINE
  8
DETAIL
  6
CONTINUOUS
 62
     5
 10
68.400000500000147
 20
68.399999999999864
 30
0.0
 11
75.600000500000192
 21
68.399999999999864
 31
0.0
  0
LINE
  8
DETAIL
  6
CONTINUOUS
 62
     5
 10
68.400000500000147
 20
-68.400000000000091
 30
0.0
 11
75.600000500000192
 21
-68.400000000000091
 31
0.0
  0
LINE
  8
DETAIL
  6
CONTINUOUS
 62
     5
 10
66.600000500000192
 20
68.399999999999864
 30
0.0
 11
66.600000500000192
 21
75.599999999999909
 31
0.0
  0
LINE
  8
DETAIL
  6
CONTINUOUS
 62
     5
 10
66.600000500000192
 20
-68.400000000000091
 30
0.0
 11
66.600000500000192
 21
-75.600000000000023
 31
0.0
  0
LINE
  8
DETAIL
  6
CONTINUOUS
 62
     5
 10
59.400000500000147
 20
68.399999999999864
 30
0.0
 11
59.400000500000147
 21
75.599999999999909
 31
0.0
  0
LINE
  8
DETAIL
  6
CONTINUOUS
 62
     5
 10
59.400000500000147
 20
-68.400000000000091
 30
0.0
 11
59.400000500000147
 21
-75.600000000000023
 31
0.0
  0
LINE
  8
DETAIL
  6
CONTINUOUS
 62
     5
 10
59.400000500000147
 20
68.399999999999864
 30
0.0
 11
66.600000500000192
 21
68.399999999999864
 31
0.0
  0
LINE
  8
DETAIL
  6
CONTINUOUS
 62
     5
 10
59.400000500000147
 20
-68.400000000000091
 30
0.0
 11
66.600000500000192
 21
-68.400000000000091
 31
0.0
  0
LINE
  8
DETAIL
  6
CONTINUOUS
 62
     5
 10
57.600000500000192
 20
68.399999999999864
 30
0.0
 11
57.600000500000192
 21
75.599999999999909
 31
0.0
  0
LINE
  8
DETAIL
  6
CONTINUOUS
 62
     5
 10
57.600000500000192
 20
-68.400000000000091
 30
0.0
 11
57.600000500000192
 21
-75.600000000000023
 31
0.0
  0
LINE
  8
DETAIL
  6
CONTINUOUS
 62
     5
 10
50.400000500000147
 20
68.399999999999864
 30
0.0
 11
50.400000500000147
 21
75.599999999999909
 31
0.0
  0
LINE
  8
DETAIL
  6
CONTINUOUS
 62
     5
 10
50.400000500000147
 20
-68.400000000000091
 30
0.0
 11
50.400000500000147
 21
-75.600000000000023
 31
0.0
  0
LINE
  8
DETAIL
  6
CONTINUOUS
 62
     5
 10
50.400000500000147
 20
68.399999999999864
 30
0.0
 11
57.600000500000192
 21
68.399999999999864
 31
0.0
  0
LINE
  8
DETAIL
  6
CONTINUOUS
 62
     5
 10
50.400000500000147
 20
-68.400000000000091
 30
0.0
 11
57.600000500000192
 21
-68.400000000000091
 31
0.0
  0
LINE
  8
DETAIL
  6
CONTINUOUS
 62
     5
 10
48.600000500000192
 20
68.399999999999864
 30
0.0
 11
48.600000500000192
 21
75.599999999999909
 31
0.0
  0
LINE
  8
DETAIL
  6
CONTINUOUS
 62
     5
 10
48.600000500000192
 20
-68.400000000000091
 30
0.0
 11
48.600000500000192
 21
-75.600000000000023
 31
0.0
  0
LINE
  8
DETAIL
  6
CONTINUOUS
 62
     5
 10
41.400000500000147
 20
68.399999999999864
 30
0.0
 11
41.400000500000147
 21
75.599999999999909
 31
0.0
  0
LINE
  8
DETAIL
  6
CONTINUOUS
 62
     5
 10
41.400000500000147
 20
-68.400000000000091
 30
0.0
 11
41.400000500000147
 21
-75.600000000000023
 31
0.0
  0
LINE
  8
DETAIL
  6
CONTINUOUS
 62
     5
 10
41.400000500000147
 20
68.399999999999864
 30
0.0
 11
48.600000500000192
 21
68.399999999999864
 31
0.0
  0
LINE
  8
DETAIL
  6
CONTINUOUS
 62
     5
 10
41.400000500000147
 20
-68.400000000000091
 30
0.0
 11
48.600000500000192
 21
-68.400000000000091
 31
0.0
  0
LINE
  8
DETAIL
  6
CONTINUOUS
 62
     5
 10
39.600000500000192
 20
68.399999999999864
 30
0.0
 11
39.600000500000192
 21
75.599999999999909
 31
0.0
  0
LINE
  8
DETAIL
  6
CONTINUOUS
 62
     5
 10
39.600000500000192
 20
-68.400000000000091
 30
0.0
 11
39.600000500000192
 21
-75.600000000000023
 31
0.0
  0
LINE
  8
DETAIL
  6
CONTINUOUS
 62
     5
 10
59.400000500000147
 20
23.39999999999986
 30
0.0
 11
66.600000500000192
 21
23.39999999999986
 31
0.0
  0
LINE
  8
DETAIL
  6
CONTINUOUS
 62
     5
 10
59.400000500000147
 20
-23.400000000000091
 30
0.0
 11
66.600000500000192
 21
-23.400000000000091
 31
0.0
  0
LINE
  8
DETAIL
  6
CONTINUOUS
 62
     5
 10
59.400000500000147
 20
30.599999999999909
 30
0.0
 11
59.400000500000147
 21
23.39999999999986
 31
0.0
  0
LINE
  8
DETAIL
  6
CONTINUOUS
 62
     5
 10
59.400000500000147
 20
-30.600000000000019
 30
0.0
 11
59.400000500000147
 21
-23.400000000000091
 31
0.0
  0
LINE
  8
DETAIL
  6
CONTINUOUS
 62
     5
 10
77.400000500000147
 20
3.5999999999999091
 30
0.0
 11
84.600000500000192
 21
3.5999999999999091
 31
0.0
  0
LINE
  8
DETAIL
  6
CONTINUOUS
 62
     5
 10
77.400000500000147
 20
-3.600000000000136
 30
0.0
 11
84.600000500000192
 21
-3.600000000000136
 31
0.0
  0
LINE
  8
DETAIL
  6
CONTINUOUS
 62
     5
 10
68.400000500000147
 20
3.5999999999999091
 30
0.0
 11
75.600000500000192
 21
3.5999999999999091
 31
0.0
  0
LINE
  8
DETAIL
  6
CONTINUOUS
 62
     5
 10
68.400000500000147
 20
-3.600000000000136
 30
0.0
 11
75.600000500000192
 21
-3.600000000000136
 31
0.0
  0
LINE
  8
DETAIL
  6
CONTINUOUS
 62
     5
 10
59.400000500000147
 20
3.5999999999999091
 30
0.0
 11
66.600000500000192
 21
3.5999999999999091
 31
0.0
  0
LINE
  8
DETAIL
  6
CONTINUOUS
 62
     5
 10
59.400000500000147
 20
-3.600000000000136
 30
0.0
 11
66.600000500000192
 21
-3.600000000000136
 31
0.0
  0
LINE
  8
DETAIL
  6
CONTINUOUS
 62
     5
 10
50.400000500000147
 20
3.5999999999999091
 30
0.0
 11
57.600000500000192
 21
3.5999999999999091
 31
0.0
  0
LINE
  8
DETAIL
  6
CONTINUOUS
 62
     5
 10
50.400000500000147
 20
-3.600000000000136
 30
0.0
 11
57.600000500000192
 21
-3.600000000000136
 31
0.0
  0
LINE
  8
DETAIL
  6
CONTINUOUS
 62
     5
 10
41.400000500000147
 20
3.5999999999999091
 30
0.0
 11
48.600000500000192
 21
3.5999999999999091
 31
0.0
  0
LINE
  8
DETAIL
  6
CONTINUOUS
 62
     5
 10
41.400000500000147
 20
-3.600000000000136
 30
0.0
 11
48.600000500000192
 21
-3.600000000000136
 31
0.0
  0
LINE
  8
DETAIL
  6
CONTINUOUS
 62
     5
 10
32.400000500000147
 20
3.5999999999999091
 30
0.0
 11
39.600000500000192
 21
3.5999999999999091
 31
0.0
  0
LINE
  8
DETAIL
  6
CONTINUOUS
 62
     5
 10
32.400000500000147
 20
-3.600000000000136
 30
0.0
 11
39.600000500000192
 21
-3.600000000000136
 31
0.0
  0
LINE
  8
DETAIL
  6
CONTINUOUS
 62
     5
 10
23.40000050000015
 20
3.5999999999999091
 30
0.0
 11
30.600000500000188
 21
3.5999999999999091
 31
0.0
  0
LINE
  8
DETAIL
  6
CONTINUOUS
 62
     5
 10
23.40000050000015
 20
-3.600000000000136
 30
0.0
 11
30.600000500000188
 21
-3.600000000000136
 31
0.0
  0
LINE
  8
DETAIL
  6
CONTINUOUS
 62
     5
 10
14.40000050000015
 20
3.5999999999999091
 30
0.0
 11
21.600000500000188
 21
3.5999999999999091
 31
0.0
  0
LINE
  8
DETAIL
  6
CONTINUOUS
 62
     5
 10
14.40000050000015
 20
-3.600000000000136
 30
0.0
 11
21.600000500000188
 21
-3.600000000000136
 31
0.0
  0
LINE
  8
DETAIL
  6
CONTINUOUS
 62
     5
 10
5.4000005000001474
 20
3.5999999999999091
 30
0.0
 11
12.60000050000019
 21
3.5999999999999091
 31
0.0
  0
LINE
  8
DETAIL
  6
CONTINUOUS
 62
     5
 10
5.4000005000001474
 20
-3.600000000000136
 30
0.0
 11
12.60000050000019
 21
-3.600000000000136
 31
0.0
  0
LINE
  8
DETAIL
  6
CONTINUOUS
 62
     5
 10
68.400000500000147
 20
5.3999999999998636
 30
0.0
 11
75.600000500000192
 21
5.3999999999998636
 31
0.0
  0
LINE
  8
DETAIL
  6
CONTINUOUS
 62
     5
 10
68.400000500000147
 20
-5.4000000000000909
 30
0.0
 11
75.600000500000192
 21
-5.4000000000000909
 31
0.0
  0
LINE
  8
DETAIL
  6
CONTINUOUS
 62
     5
 10
68.400000500000147
 20
12.599999999999911
 30
0.0
 11
75.600000500000192
 21
12.599999999999911
 31
0.0
  0
LINE
  8
DETAIL
  6
CONTINUOUS
 62
     5
 10
68.400000500000147
 20
-12.60000000000014
 30
0.0
 11
75.600000500000192
 21
-12.60000000000014
 31
0.0
  0
LINE
  8
DETAIL
  6
CONTINUOUS
 62
     5
 10
75.600000500000192
 20
5.3999999999998636
 30
0.0
 11
75.600000500000192
 21
12.599999999999911
 31
0.0
  0
LINE
  8
DETAIL
  6
CONTINUOUS
 62
     5
 10
75.600000500000192
 20
-5.4000000000000909
 30
0.0
 11
75.600000500000192
 21
-12.60000000000014
 31
0.0
  0
LINE
  8
DETAIL
  6
CONTINUOUS
 62
     5
 10
68.400000500000147
 20
5.3999999999998636
 30
0.0
 11
68.400000500000147
 21
12.599999999999911
 31
0.0
  0
LINE
  8
DETAIL
  6
CONTINUOUS
 62
     5
 10
68.400000500000147
 20
-5.4000000000000909
 30
0.0
 11
68.400000500000147
 21
-12.60000000000014
 31
0.0
  0
LINE
  8
DETAIL
  6
CONTINUOUS
 62
     5
 10
59.400000500000147
 20
5.3999999999998636
 30
0.0
 11
66.600000500000192
 21
5.3999999999998636
 31
0.0
  0
LINE
  8
DETAIL
  6
CONTINUOUS
 62
     5
 10
59.400000500000147
 20
-5.4000000000000909
 30
0.0
 11
66.600000500000192
 21
-5.4000000000000909
 31
0.0
  0
LINE
  8
DETAIL
  6
CONTINUOUS
 62
     5
 10
59.400000500000147
 20
12.599999999999911
 30
0.0
 11
66.600000500000192
 21
12.599999999999911
 31
0.0
  0
LINE
  8
DETAIL
  6
CONTINUOUS
 62
     5
 10
59.400000500000147
 20
-12.60000000000014
 30
0.0
 11
66.600000500000192
 21
-12.60000000000014
 31
0.0
  0
LINE
  8
DETAIL
  6
CONTINUOUS
 62
     5
 10
66.600000500000192
 20
5.3999999999998636
 30
0.0
 11
66.600000500000192
 21
12.599999999999911
 31
0.0
  0
LINE
  8
DETAIL
  6
CONTINUOUS
 62
     5
 10
66.600000500000192
 20
-5.4000000000000909
 30
0.0
 11
66.600000500000192
 21
-12.60000000000014
 31
0.0
  0
LINE
  8
DETAIL
  6
CONTINUOUS
 62
     5
 10
59.400000500000147
 20
5.3999999999998636
 30
0.0
 11
59.400000500000147
 21
12.599999999999911
 31
0.0
  0
LINE
  8
DETAIL
  6
CONTINUOUS
 62
     5
 10
59.400000500000147
 20
-5.4000000000000909
 30
0.0
 11
59.400000500000147
 21
-12.60000000000014
 31
0.0
  0
LINE
  8
DETAIL
  6
CONTINUOUS
 62
     5
 10
50.400000500000147
 20
5.3999999999998636
 30
0.0
 11
57.600000500000192
 21
5.3999999999998636
 31
0.0
  0
LINE
  8
DETAIL
  6
CONTINUOUS
 62
     5
 10
50.400000500000147
 20
-5.4000000000000909
 30
0.0
 11
57.600000500000192
 21
-5.4000000000000909
 31
0.0
  0
LINE
  8
DETAIL
  6
CONTINUOUS
 62
     5
 10
50.400000500000147
 20
12.599999999999911
 30
0.0
 11
57.600000500000192
 21
12.599999999999911
 31
0.0
  0
LINE
  8
DETAIL
  6
CONTINUOUS
 62
     5
 10
50.400000500000147
 20
-12.60000000000014
 30
0.0
 11
57.600000500000192
 21
-12.60000000000014
 31
0.0
  0
LINE
  8
DETAIL
  6
CONTINUOUS
 62
     5
 10
57.600000500000192
 20
5.3999999999998636
 30
0.0
 11
57.600000500000192
 21
12.599999999999911
 31
0.0
  0
LINE
  8
DETAIL
  6
CONTINUOUS
 62
     5
 10
57.600000500000192
 20
-5.4000000000000909
 30
0.0
 11
57.600000500000192
 21
-12.60000000000014
 31
0.0
  0
LINE
  8
DETAIL
  6
CONTINUOUS
 62
     5
 10
50.400000500000147
 20
5.3999999999998636
 30
0.0
 11
50.400000500000147
 21
12.599999999999911
 31
0.0
  0
LINE
  8
DETAIL
  6
CONTINUOUS
 62
     5
 10
50.400000500000147
 20
-5.4000000000000909
 30
0.0
 11
50.400000500000147
 21
-12.60000000000014
 31
0.0
  0
LINE
  8
DETAIL
  6
CONTINUOUS
 62
     5
 10
41.400000500000147
 20
5.3999999999998636
 30
0.0
 11
48.600000500000192
 21
5.3999999999998636
 31
0.0
  0
LINE
  8
DETAIL
  6
CONTINUOUS
 62
     5
 10
41.400000500000147
 20
-5.4000000000000909
 30
0.0
 11
48.600000500000192
 21
-5.4000000000000909
 31
0.0
  0
LINE
  8
DETAIL
  6
CONTINUOUS
 62
     5
 10
41.400000500000147
 20
12.599999999999911
 30
0.0
 11
48.600000500000192
 21
12.599999999999911
 31
0.0
  0
LINE
  8
DETAIL
  6
CONTINUOUS
 62
     5
 10
41.400000500000147
 20
-12.60000000000014
 30
0.0
 11
48.600000500000192
 21
-12.60000000000014
 31
0.0
  0
LINE
  8
DETAIL
  6
CONTINUOUS
 62
     5
 10
48.600000500000192
 20
5.3999999999998636
 30
0.0
 11
48.600000500000192
 21
12.599999999999911
 31
0.0
  0
LINE
  8
DETAIL
  6
CONTINUOUS
 62
     5
 10
48.600000500000192
 20
-5.4000000000000909
 30
0.0
 11
48.600000500000192
 21
-12.60000000000014
 31
0.0
  0
LINE
  8
DETAIL
  6
CONTINUOUS
 62
     5
 10
41.400000500000147
 20
5.3999999999998636
 30
0.0
 11
41.400000500000147
 21
12.599999999999911
 31
0.0
  0
LINE
  8
DETAIL
  6
CONTINUOUS
 62
     5
 10
41.400000500000147
 20
-5.4000000000000909
 30
0.0
 11
41.400000500000147
 21
-12.60000000000014
 31
0.0
  0
LINE
  8
DETAIL
  6
CONTINUOUS
 62
     5
 10
32.400000500000147
 20
5.3999999999998636
 30
0.0
 11
39.600000500000192
 21
5.3999999999998636
 31
0.0
  0
LINE
  8
DETAIL
  6
CONTINUOUS
 62
     5
 10
32.400000500000147
 20
-5.4000000000000909
 30
0.0
 11
39.600000500000192
 21
-5.4000000000000909
 31
0.0
  0
LINE
  8
DETAIL
  6
CONTINUOUS
 62
     5
 10
32.400000500000147
 20
12.599999999999911
 30
0.0
 11
39.600000500000192
 21
12.599999999999911
 31
0.0
  0
LINE
  8
DETAIL
  6
CONTINUOUS
 62
     5
 10
32.400000500000147
 20
-12.60000000000014
 30
0.0
 11
39.600000500000192
 21
-12.60000000000014
 31
0.0
  0
LINE
  8
DETAIL
  6
CONTINUOUS
 62
     5
 10
39.600000500000192
 20
5.3999999999998636
 30
0.0
 11
39.600000500000192
 21
12.599999999999911
 31
0.0
  0
LINE
  8
DETAIL
  6
CONTINUOUS
 62
     5
 10
39.600000500000192
 20
-5.4000000000000909
 30
0.0
 11
39.600000500000192
 21
-12.60000000000014
 31
0.0
  0
LINE
  8
DETAIL
  6
CONTINUOUS
 62
     5
 10
32.400000500000147
 20
5.3999999999998636
 30
0.0
 11
32.400000500000147
 21
12.599999999999911
 31
0.0
  0
LINE
  8
DETAIL
  6
CONTINUOUS
 62
     5
 10
32.400000500000147
 20
-5.4000000000000909
 30
0.0
 11
32.400000500000147
 21
-12.60000000000014
 31
0.0
  0
LINE
  8
DETAIL
  6
CONTINUOUS
 62
     5
 10
23.40000050000015
 20
5.3999999999998636
 30
0.0
 11
30.600000500000188
 21
5.3999999999998636
 31
0.0
  0
LINE
  8
DETAIL
  6
CONTINUOUS
 62
     5
 10
23.40000050000015
 20
-5.4000000000000909
 30
0.0
 11
30.600000500000188
 21
-5.4000000000000909
 31
0.0
  0
LINE
  8
DETAIL
  6
CONTINUOUS
 62
     5
 10
23.40000050000015
 20
12.599999999999911
 30
0.0
 11
30.600000500000188
 21
12.599999999999911
 31
0.0
  0
LINE
  8
DETAIL
  6
CONTINUOUS
 62
     5
 10
23.40000050000015
 20
-12.60000000000014
 30
0.0
 11
30.600000500000188
 21
-12.60000000000014
 31
0.0
  0
LINE
  8
DETAIL
  6
CONTINUOUS
 62
     5
 10
30.600000500000188
 20
5.3999999999998636
 30
0.0
 11
30.600000500000188
 21
12.599999999999911
 31
0.0
  0
LINE
  8
DETAIL
  6
CONTINUOUS
 62
     5
 10
30.600000500000188
 20
-5.4000000000000909
 30
0.0
 11
30.600000500000188
 21
-12.60000000000014
 31
0.0
  0
LINE
  8
DETAIL
  6
CONTINUOUS
 62
     5
 10
23.40000050000015
 20
5.3999999999998636
 30
0.0
 11
23.40000050000015
 21
12.599999999999911
 31
0.0
  0
LINE
  8
DETAIL
  6
CONTINUOUS
 62
     5
 10
23.40000050000015
 20
-5.4000000000000909
 30
0.0
 11
23.40000050000015
 21
-12.60000000000014
 31
0.0
  0
LINE
  8
DETAIL
  6
CONTINUOUS
 62
     5
 10
14.40000050000015
 20
5.3999999999998636
 30
0.0
 11
21.600000500000188
 21
5.3999999999998636
 31
0.0
  0
LINE
  8
DETAIL
  6
CONTINUOUS
 62
     5
 10
14.40000050000015
 20
-5.4000000000000909
 30
0.0
 11
21.600000500000188
 21
-5.4000000000000909
 31
0.0
  0
LINE
  8
DETAIL
  6
CONTINUOUS
 62
     5
 10
14.40000050000015
 20
12.599999999999911
 30
0.0
 11
21.600000500000188
 21
12.599999999999911
 31
0.0
  0
LINE
  8
DETAIL
  6
CONTINUOUS
 62
     5
 10
14.40000050000015
 20
-12.60000000000014
 30
0.0
 11
21.600000500000188
 21
-12.60000000000014
 31
0.0
  0
LINE
  8
DETAIL
  6
CONTINUOUS
 62
     5
 10
21.600000500000188
 20
5.3999999999998636
 30
0.0
 11
21.600000500000188
 21
12.599999999999911
 31
0.0
  0
LINE
  8
DETAIL
  6
CONTINUOUS
 62
     5
 10
21.600000500000188
 20
-5.4000000000000909
 30
0.0
 11
21.600000500000188
 21
-12.60000000000014
 31
0.0
  0
LINE
  8
DETAIL
  6
CONTINUOUS
 62
     5
 10
14.40000050000015
 20
5.3999999999998636
 30
0.0
 11
14.40000050000015
 21
12.599999999999911
 31
0.0
  0
LINE
  8
DETAIL
  6
CONTINUOUS
 62
     5
 10
14.40000050000015
 20
-5.4000000000000909
 30
0.0
 11
14.40000050000015
 21
-12.60000000000014
 31
0.0
  0
LINE
  8
DETAIL
  6
CONTINUOUS
 62
     5
 10
5.4000005000001474
 20
5.3999999999998636
 30
0.0
 11
12.60000050000019
 21
5.3999999999998636
 31
0.0
  0
LINE
  8
DETAIL
  6
CONTINUOUS
 62
     5
 10
5.4000005000001474
 20
-5.4000000000000909
 30
0.0
 11
12.60000050000019
 21
-5.4000000000000909
 31
0.0
  0
LINE
  8
DETAIL
  6
CONTINUOUS
 62
     5
 10
5.4000005000001474
 20
12.599999999999911
 30
0.0
 11
12.60000050000019
 21
12.599999999999911
 31
0.0
  0
LINE
  8
DETAIL
  6
CONTINUOUS
 62
     5
 10
5.4000005000001474
 20
-12.60000000000014
 30
0.0
 11
12.60000050000019
 21
-12.60000000000014
 31
0.0
  0
LINE
  8
DETAIL
  6
CONTINUOUS
 62
     5
 10
12.60000050000019
 20
5.3999999999998636
 30
0.0
 11
12.60000050000019
 21
12.599999999999911
 31
0.0
  0
LINE
  8
DETAIL
  6
CONTINUOUS
 62
     5
 10
12.60000050000019
 20
-5.4000000000000909
 30
0.0
 11
12.60000050000019
 21
-12.60000000000014
 31
0.0
  0
LINE
  8
DETAIL
  6
CONTINUOUS
 62
     5
 10
5.4000005000001474
 20
5.3999999999998636
 30
0.0
 11
5.4000005000001474
 21
12.599999999999911
 31
0.0
  0
LINE
  8
DETAIL
  6
CONTINUOUS
 62
     5
 10
5.4000005000001474
 20
-5.4000000000000909
 30
0.0
 11
5.4000005000001474
 21
-12.60000000000014
 31
0.0
  0
LINE
  8
DETAIL
  6
CONTINUOUS
 62
     5
 10
59.400000500000147
 20
21.599999999999909
 30
0.0
 11
66.600000500000192
 21
21.599999999999909
 31
0.0
  0
LINE
  8
DETAIL
  6
CONTINUOUS
 62
     5
 10
59.400000500000147
 20
-21.60000000000014
 30
0.0
 11
66.600000500000192
 21
-21.60000000000014
 31
0.0
  0
LINE
  8
DETAIL
  6
CONTINUOUS
 62
     5
 10
66.600000500000192
 20
14.39999999999986
 30
0.0
 11
66.600000500000192
 21
21.599999999999909
 31
0.0
  0
LINE
  8
DETAIL
  6
CONTINUOUS
 62
     5
 10
66.600000500000192
 20
-14.400000000000089
 30
0.0
 11
66.600000500000192
 21
-21.60000000000014
 31
0.0
  0
LINE
  8
DETAIL
  6
CONTINUOUS
 62
     5
 10
59.400000500000147
 20
14.39999999999986
 30
0.0
 11
59.400000500000147
 21
21.599999999999909
 31
0.0
  0
LINE
  8
DETAIL
  6
CONTINUOUS
 62
     5
 10
59.400000500000147
 20
-14.400000000000089
 30
0.0
 11
59.400000500000147
 21
-21.60000000000014
 31
0.0
  0
LINE
  8
DETAIL
  6
CONTINUOUS
 62
     5
 10
59.400000500000147
 20
14.39999999999986
 30
0.0
 11
66.600000500000192
 21
14.39999999999986
 31
0.0
  0
LINE
  8
DETAIL
  6
CONTINUOUS
 62
     5
 10
59.400000500000147
 20
-14.400000000000089
 30
0.0
 11
66.600000500000192
 21
-14.400000000000089
 31
0.0
  0
LINE
  8
DETAIL
  6
CONTINUOUS
 62
     5
 10
50.400000500000147
 20
21.599999999999909
 30
0.0
 11
57.600000500000192
 21
21.599999999999909
 31
0.0
  0
LINE
  8
DETAIL
  6
CONTINUOUS
 62
     5
 10
50.400000500000147
 20
-21.60000000000014
 30
0.0
 11
57.600000500000192
 21
-21.60000000000014
 31
0.0
  0
LINE
  8
DETAIL
  6
CONTINUOUS
 62
     5
 10
57.600000500000192
 20
14.39999999999986
 30
0.0
 11
57.600000500000192
 21
21.599999999999909
 31
0.0
  0
LINE
  8
DETAIL
  6
CONTINUOUS
 62
     5
 10
57.600000500000192
 20
-14.400000000000089
 30
0.0
 11
57.600000500000192
 21
-21.60000000000014
 31
0.0
  0
LINE
  8
DETAIL
  6
CONTINUOUS
 62
     5
 10
50.400000500000147
 20
14.39999999999986
 30
0.0
 11
50.400000500000147
 21
21.599999999999909
 31
0.0
  0
LINE
  8
DETAIL
  6
CONTINUOUS
 62
     5
 10
50.400000500000147
 20
-14.400000000000089
 30
0.0
 11
50.400000500000147
 21
-21.60000000000014
 31
0.0
  0
LINE
  8
DETAIL
  6
CONTINUOUS
 62
     5
 10
50.400000500000147
 20
14.39999999999986
 30
0.0
 11
57.600000500000192
 21
14.39999999999986
 31
0.0
  0
LINE
  8
DETAIL
  6
CONTINUOUS
 62
     5
 10
50.400000500000147
 20
-14.400000000000089
 30
0.0
 11
57.600000500000192
 21
-14.400000000000089
 31
0.0
  0
LINE
  8
DETAIL
  6
CONTINUOUS
 62
     5
 10
41.400000500000147
 20
21.599999999999909
 30
0.0
 11
48.600000500000192
 21
21.599999999999909
 31
0.0
  0
LINE
  8
DETAIL
  6
CONTINUOUS
 62
     5
 10
41.400000500000147
 20
-21.60000000000014
 30
0.0
 11
48.600000500000192
 21
-21.60000000000014
 31
0.0
  0
LINE
  8
DETAIL
  6
CONTINUOUS
 62
     5
 10
48.600000500000192
 20
14.39999999999986
 30
0.0
 11
48.600000500000192
 21
21.599999999999909
 31
0.0
  0
LINE
  8
DETAIL
  6
CONTINUOUS
 62
     5
 10
48.600000500000192
 20
-14.400000000000089
 30
0.0
 11
48.600000500000192
 21
-21.60000000000014
 31
0.0
  0
LINE
  8
DETAIL
  6
CONTINUOUS
 62
     5
 10
41.400000500000147
 20
14.39999999999986
 30
0.0
 11
41.400000500000147
 21
21.599999999999909
 31
0.0
  0
LINE
  8
DETAIL
  6
CONTINUOUS
 62
     5
 10
41.400000500000147
 20
-14.400000000000089
 30
0.0
 11
41.400000500000147
 21
-21.60000000000014
 31
0.0
  0
LINE
  8
DETAIL
  6
CONTINUOUS
 62
     5
 10
41.400000500000147
 20
14.39999999999986
 30
0.0
 11
48.600000500000192
 21
14.39999999999986
 31
0.0
  0
LINE
  8
DETAIL
  6
CONTINUOUS
 62
     5
 10
41.400000500000147
 20
-14.400000000000089
 30
0.0
 11
48.600000500000192
 21
-14.400000000000089
 31
0.0
  0
LINE
  8
DETAIL
  6
CONTINUOUS
 62
     5
 10
32.400000500000147
 20
21.599999999999909
 30
0.0
 11
39.600000500000192
 21
21.599999999999909
 31
0.0
  0
LINE
  8
DETAIL
  6
CONTINUOUS
 62
     5
 10
32.400000500000147
 20
-21.60000000000014
 30
0.0
 11
39.600000500000192
 21
-21.60000000000014
 31
0.0
  0
LINE
  8
DETAIL
  6
CONTINUOUS
 62
     5
 10
39.600000500000192
 20
14.39999999999986
 30
0.0
 11
39.600000500000192
 21
21.599999999999909
 31
0.0
  0
LINE
  8
DETAIL
  6
CONTINUOUS
 62
     5
 10
39.600000500000192
 20
-14.400000000000089
 30
0.0
 11
39.600000500000192
 21
-21.60000000000014
 31
0.0
  0
LINE
  8
DETAIL
  6
CONTINUOUS
 62
     5
 10
32.400000500000147
 20
14.39999999999986
 30
0.0
 11
32.400000500000147
 21
21.599999999999909
 31
0.0
  0
LINE
  8
DETAIL
  6
CONTINUOUS
 62
     5
 10
32.400000500000147
 20
-14.400000000000089
 30
0.0
 11
32.400000500000147
 21
-21.60000000000014
 31
0.0
  0
LINE
  8
DETAIL
  6
CONTINUOUS
 62
     5
 10
32.400000500000147
 20
14.39999999999986
 30
0.0
 11
39.600000500000192
 21
14.39999999999986
 31
0.0
  0
LINE
  8
DETAIL
  6
CONTINUOUS
 62
     5
 10
32.400000500000147
 20
-14.400000000000089
 30
0.0
 11
39.600000500000192
 21
-14.400000000000089
 31
0.0
  0
LINE
  8
DETAIL
  6
CONTINUOUS
 62
     5
 10
23.40000050000015
 20
21.599999999999909
 30
0.0
 11
30.600000500000188
 21
21.599999999999909
 31
0.0
  0
LINE
  8
DETAIL
  6
CONTINUOUS
 62
     5
 10
23.40000050000015
 20
-21.60000000000014
 30
0.0
 11
30.600000500000188
 21
-21.60000000000014
 31
0.0
  0
LINE
  8
DETAIL
  6
CONTINUOUS
 62
     5
 10
30.600000500000188
 20
14.39999999999986
 30
0.0
 11
30.600000500000188
 21
21.599999999999909
 31
0.0
  0
LINE
  8
DETAIL
  6
CONTINUOUS
 62
     5
 10
30.600000500000188
 20
-14.400000000000089
 30
0.0
 11
30.600000500000188
 21
-21.60000000000014
 31
0.0
  0
LINE
  8
DETAIL
  6
CONTINUOUS
 62
     5
 10
23.40000050000015
 20
14.39999999999986
 30
0.0
 11
23.40000050000015
 21
21.599999999999909
 31
0.0
  0
LINE
  8
DETAIL
  6
CONTINUOUS
 62
     5
 10
23.40000050000015
 20
-14.400000000000089
 30
0.0
 11
23.40000050000015
 21
-21.60000000000014
 31
0.0
  0
LINE
  8
DETAIL
  6
CONTINUOUS
 62
     5
 10
23.40000050000015
 20
14.39999999999986
 30
0.0
 11
30.600000500000188
 21
14.39999999999986
 31
0.0
  0
LINE
  8
DETAIL
  6
CONTINUOUS
 62
     5
 10
23.40000050000015
 20
-14.400000000000089
 30
0.0
 11
30.600000500000188
 21
-14.400000000000089
 31
0.0
  0
LINE
  8
DETAIL
  6
CONTINUOUS
 62
     5
 10
14.40000050000015
 20
21.599999999999909
 30
0.0
 11
21.600000500000188
 21
21.599999999999909
 31
0.0
  0
LINE
  8
DETAIL
  6
CONTINUOUS
 62
     5
 10
14.40000050000015
 20
-21.60000000000014
 30
0.0
 11
21.600000500000188
 21
-21.60000000000014
 31
0.0
  0
LINE
  8
DETAIL
  6
CONTINUOUS
 62
     5
 10
21.600000500000188
 20
14.39999999999986
 30
0.0
 11
21.600000500000188
 21
21.599999999999909
 31
0.0
  0
LINE
  8
DETAIL
  6
CONTINUOUS
 62
     5
 10
21.600000500000188
 20
-14.400000000000089
 30
0.0
 11
21.600000500000188
 21
-21.60000000000014
 31
0.0
  0
LINE
  8
DETAIL
  6
CONTINUOUS
 62
     5
 10
14.40000050000015
 20
14.39999999999986
 30
0.0
 11
14.40000050000015
 21
21.599999999999909
 31
0.0
  0
LINE
  8
DETAIL
  6
CONTINUOUS
 62
     5
 10
14.40000050000015
 20
-14.400000000000089
 30
0.0
 11
14.40000050000015
 21
-21.60000000000014
 31
0.0
  0
LINE
  8
DETAIL
  6
CONTINUOUS
 62
     5
 10
14.40000050000015
 20
14.39999999999986
 30
0.0
 11
21.600000500000188
 21
14.39999999999986
 31
0.0
  0
LINE
  8
DETAIL
  6
CONTINUOUS
 62
     5
 10
14.40000050000015
 20
-14.400000000000089
 30
0.0
 11
21.600000500000188
 21
-14.400000000000089
 31
0.0
  0
LINE
  8
DETAIL
  6
CONTINUOUS
 62
     5
 10
5.4000005000001474
 20
21.599999999999909
 30
0.0
 11
12.60000050000019
 21
21.599999999999909
 31
0.0
  0
LINE
  8
DETAIL
  6
CONTINUOUS
 62
     5
 10
5.4000005000001474
 20
-21.60000000000014
 30
0.0
 11
12.60000050000019
 21
-21.60000000000014
 31
0.0
  0
LINE
  8
DETAIL
  6
CONTINUOUS
 62
     5
 10
12.60000050000019
 20
14.39999999999986
 30
0.0
 11
12.60000050000019
 21
21.599999999999909
 31
0.0
  0
LINE
  8
DETAIL
  6
CONTINUOUS
 62
     5
 10
12.60000050000019
 20
-14.400000000000089
 30
0.0
 11
12.60000050000019
 21
-21.60000000000014
 31
0.0
  0
LINE
  8
DETAIL
  6
CONTINUOUS
 62
     5
 10
5.4000005000001474
 20
14.39999999999986
 30
0.0
 11
5.4000005000001474
 21
21.599999999999909
 31
0.0
  0
LINE
  8
DETAIL
  6
CONTINUOUS
 62
     5
 10
5.4000005000001474
 20
-14.400000000000089
 30
0.0
 11
5.4000005000001474
 21
-21.60000000000014
 31
0.0
  0
LINE
  8
DETAIL
  6
CONTINUOUS
 62
     5
 10
5.4000005000001474
 20
14.39999999999986
 30
0.0
 11
12.60000050000019
 21
14.39999999999986
 31
0.0
  0
LINE
  8
DETAIL
  6
CONTINUOUS
 62
     5
 10
5.4000005000001474
 20
-14.400000000000089
 30
0.0
 11
12.60000050000019
 21
-14.400000000000089
 31
0.0
  0
LINE
  8
DETAIL
  6
CONTINUOUS
 62
     5
 10
50.400000500000147
 20
30.599999999999909
 30
0.0
 11
57.600000500000192
 21
30.599999999999909
 31
0.0
  0
LINE
  8
DETAIL
  6
CONTINUOUS
 62
     5
 10
50.400000500000147
 20
-30.600000000000019
 30
0.0
 11
57.600000500000192
 21
-30.600000000000019
 31
0.0
  0
LINE
  8
DETAIL
  6
CONTINUOUS
 62
     5
 10
57.600000500000192
 20
23.39999999999986
 30
0.0
 11
57.600000500000192
 21
30.599999999999909
 31
0.0
  0
LINE
  8
DETAIL
  6
CONTINUOUS
 62
     5
 10
57.600000500000192
 20
-23.400000000000091
 30
0.0
 11
57.600000500000192
 21
-30.600000000000019
 31
0.0
  0
LINE
  8
DETAIL
  6
CONTINUOUS
 62
     5
 10
50.400000500000147
 20
23.39999999999986
 30
0.0
 11
50.400000500000147
 21
30.599999999999909
 31
0.0
  0
LINE
  8
DETAIL
  6
CONTINUOUS
 62
     5
 10
50.400000500000147
 20
-23.400000000000091
 30
0.0
 11
50.400000500000147
 21
-30.600000000000019
 31
0.0
  0
LINE
  8
DETAIL
  6
CONTINUOUS
 62
     5
 10
50.400000500000147
 20
23.39999999999986
 30
0.0
 11
57.600000500000192
 21
23.39999999999986
 31
0.0
  0
LINE
  8
DETAIL
  6
CONTINUOUS
 62
     5
 10
50.400000500000147
 20
-23.400000000000091
 30
0.0
 11
57.600000500000192
 21
-23.400000000000091
 31
0.0
  0
LINE
  8
DETAIL
  6
CONTINUOUS
 62
     5
 10
50.400000500000147
 20
23.39999999999986
 30
0.0
 11
57.600000500000192
 21
23.39999999999986
 31
0.0
  0
LINE
  8
DETAIL
  6
CONTINUOUS
 62
     5
 10
50.400000500000147
 20
-23.400000000000091
 30
0.0
 11
57.600000500000192
 21
-23.400000000000091
 31
0.0
  0
LINE
  8
DETAIL
  6
CONTINUOUS
 62
     5
 10
50.400000500000147
 20
30.599999999999909
 30
0.0
 11
50.400000500000147
 21
23.39999999999986
 31
0.0
  0
LINE
  8
DETAIL
  6
CONTINUOUS
 62
     5
 10
50.400000500000147
 20
-30.600000000000019
 30
0.0
 11
50.400000500000147
 21
-23.400000000000091
 31
0.0
  0
LINE
  8
DETAIL
  6
CONTINUOUS
 62
     5
 10
41.400000500000147
 20
30.599999999999909
 30
0.0
 11
48.600000500000192
 21
30.599999999999909
 31
0.0
  0
LINE
  8
DETAIL
  6
CONTINUOUS
 62
     5
 10
41.400000500000147
 20
-30.600000000000019
 30
0.0
 11
48.600000500000192
 21
-30.600000000000019
 31
0.0
  0
LINE
  8
DETAIL
  6
CONTINUOUS
 62
     5
 10
48.600000500000192
 20
23.39999999999986
 30
0.0
 11
48.600000500000192
 21
30.599999999999909
 31
0.0
  0
LINE
  8
DETAIL
  6
CONTINUOUS
 62
     5
 10
48.600000500000192
 20
-23.400000000000091
 30
0.0
 11
48.600000500000192
 21
-30.600000000000019
 31
0.0
  0
LINE
  8
DETAIL
  6
CONTINUOUS
 62
     5
 10
41.400000500000147
 20
23.39999999999986
 30
0.0
 11
41.400000500000147
 21
30.599999999999909
 31
0.0
  0
LINE
  8
DETAIL
  6
CONTINUOUS
 62
     5
 10
41.400000500000147
 20
-23.400000000000091
 30
0.0
 11
41.400000500000147
 21
-30.600000000000019
 31
0.0
  0
LINE
  8
DETAIL
  6
CONTINUOUS
 62
     5
 10
41.400000500000147
 20
23.39999999999986
 30
0.0
 11
48.600000500000192
 21
23.39999999999986
 31
0.0
  0
LINE
  8
DETAIL
  6
CONTINUOUS
 62
     5
 10
41.400000500000147
 20
-23.400000000000091
 30
0.0
 11
48.600000500000192
 21
-23.400000000000091
 31
0.0
  0
LINE
  8
DETAIL
  6
CONTINUOUS
 62
     5
 10
41.400000500000147
 20
23.39999999999986
 30
0.0
 11
48.600000500000192
 21
23.39999999999986
 31
0.0
  0
LINE
  8
DETAIL
  6
CONTINUOUS
 62
     5
 10
41.400000500000147
 20
-23.400000000000091
 30
0.0
 11
48.600000500000192
 21
-23.400000000000091
 31
0.0
  0
LINE
  8
DETAIL
  6
CONTINUOUS
 62
     5
 10
41.400000500000147
 20
30.599999999999909
 30
0.0
 11
41.400000500000147
 21
23.39999999999986
 31
0.0
  0
LINE
  8
DETAIL
  6
CONTINUOUS
 62
     5
 10
41.400000500000147
 20
-30.600000000000019
 30
0.0
 11
41.400000500000147
 21
-23.400000000000091
 31
0.0
  0
LINE
  8
DETAIL
  6
CONTINUOUS
 62
     5
 10
32.400000500000147
 20
30.599999999999909
 30
0.0
 11
39.600000500000192
 21
30.599999999999909
 31
0.0
  0
LINE
  8
DETAIL
  6
CONTINUOUS
 62
     5
 10
32.400000500000147
 20
-30.600000000000019
 30
0.0
 11
39.600000500000192
 21
-30.600000000000019
 31
0.0
  0
LINE
  8
DETAIL
  6
CONTINUOUS
 62
     5
 10
39.600000500000192
 20
23.39999999999986
 30
0.0
 11
39.600000500000192
 21
30.599999999999909
 31
0.0
  0
LINE
  8
DETAIL
  6
CONTINUOUS
 62
     5
 10
39.600000500000192
 20
-23.400000000000091
 30
0.0
 11
39.600000500000192
 21
-30.600000000000019
 31
0.0
  0
LINE
  8
DETAIL
  6
CONTINUOUS
 62
     5
 10
32.400000500000147
 20
23.39999999999986
 30
0.0
 11
32.400000500000147
 21
30.599999999999909
 31
0.0
  0
LINE
  8
DETAIL
  6
CONTINUOUS
 62
     5
 10
32.400000500000147
 20
-23.400000000000091
 30
0.0
 11
32.400000500000147
 21
-30.600000000000019
 31
0.0
  0
LINE
  8
DETAIL
  6
CONTINUOUS
 62
     5
 10
32.400000500000147
 20
23.39999999999986
 30
0.0
 11
39.600000500000192
 21
23.39999999999986
 31
0.0
  0
LINE
  8
DETAIL
  6
CONTINUOUS
 62
     5
 10
32.400000500000147
 20
-23.400000000000091
 30
0.0
 11
39.600000500000192
 21
-23.400000000000091
 31
0.0
  0
LINE
  8
DETAIL
  6
CONTINUOUS
 62
     5
 10
32.400000500000147
 20
23.39999999999986
 30
0.0
 11
39.600000500000192
 21
23.39999999999986
 31
0.0
  0
LINE
  8
DETAIL
  6
CONTINUOUS
 62
     5
 10
32.400000500000147
 20
-23.400000000000091
 30
0.0
 11
39.600000500000192
 21
-23.400000000000091
 31
0.0
  0
LINE
  8
DETAIL
  6
CONTINUOUS
 62
     5
 10
32.400000500000147
 20
30.599999999999909
 30
0.0
 11
32.400000500000147
 21
23.39999999999986
 31
0.0
  0
LINE
  8
DETAIL
  6
CONTINUOUS
 62
     5
 10
32.400000500000147
 20
-30.600000000000019
 30
0.0
 11
32.400000500000147
 21
-23.400000000000091
 31
0.0
  0
LINE
  8
DETAIL
  6
CONTINUOUS
 62
     5
 10
23.40000050000015
 20
30.599999999999909
 30
0.0
 11
30.600000500000188
 21
30.599999999999909
 31
0.0
  0
LINE
  8
DETAIL
  6
CONTINUOUS
 62
     5
 10
23.40000050000015
 20
-30.600000000000019
 30
0.0
 11
30.600000500000188
 21
-30.600000000000019
 31
0.0
  0
LINE
  8
DETAIL
  6
CONTINUOUS
 62
     5
 10
30.600000500000188
 20
23.39999999999986
 30
0.0
 11
30.600000500000188
 21
30.599999999999909
 31
0.0
  0
LINE
  8
DETAIL
  6
CONTINUOUS
 62
     5
 10
30.600000500000188
 20
-23.400000000000091
 30
0.0
 11
30.600000500000188
 21
-30.600000000000019
 31
0.0
  0
LINE
  8
DETAIL
  6
CONTINUOUS
 62
     5
 10
23.40000050000015
 20
23.39999999999986
 30
0.0
 11
23.40000050000015
 21
30.599999999999909
 31
0.0
  0
LINE
  8
DETAIL
  6
CONTINUOUS
 62
     5
 10
23.40000050000015
 20
-23.400000000000091
 30
0.0
 11
23.40000050000015
 21
-30.600000000000019
 31
0.0
  0
LINE
  8
DETAIL
  6
CONTINUOUS
 62
     5
 10
23.40000050000015
 20
23.39999999999986
 30
0.0
 11
30.600000500000188
 21
23.39999999999986
 31
0.0
  0
LINE
  8
DETAIL
  6
CONTINUOUS
 62
     5
 10
23.40000050000015
 20
-23.400000000000091
 30
0.0
 11
30.600000500000188
 21
-23.400000000000091
 31
0.0
  0
LINE
  8
DETAIL
  6
CONTINUOUS
 62
     5
 10
23.40000050000015
 20
23.39999999999986
 30
0.0
 11
30.600000500000188
 21
23.39999999999986
 31
0.0
  0
LINE
  8
DETAIL
  6
CONTINUOUS
 62
     5
 10
23.40000050000015
 20
-23.400000000000091
 30
0.0
 11
30.600000500000188
 21
-23.400000000000091
 31
0.0
  0
LINE
  8
DETAIL
  6
CONTINUOUS
 62
     5
 10
23.40000050000015
 20
30.599999999999909
 30
0.0
 11
23.40000050000015
 21
23.39999999999986
 31
0.0
  0
LINE
  8
DETAIL
  6
CONTINUOUS
 62
     5
 10
23.40000050000015
 20
-30.600000000000019
 30
0.0
 11
23.40000050000015
 21
-23.400000000000091
 31
0.0
  0
LINE
  8
DETAIL
  6
CONTINUOUS
 62
     5
 10
14.40000050000015
 20
30.599999999999909
 30
0.0
 11
21.600000500000188
 21
30.599999999999909
 31
0.0
  0
LINE
  8
DETAIL
  6
CONTINUOUS
 62
     5
 10
14.40000050000015
 20
-30.600000000000019
 30
0.0
 11
21.600000500000188
 21
-30.600000000000019
 31
0.0
  0
LINE
  8
DETAIL
  6
CONTINUOUS
 62
     5
 10
21.600000500000188
 20
23.39999999999986
 30
0.0
 11
21.600000500000188
 21
30.599999999999909
 31
0.0
  0
LINE
  8
DETAIL
  6
CONTINUOUS
 62
     5
 10
21.600000500000188
 20
-23.400000000000091
 30
0.0
 11
21.600000500000188
 21
-30.600000000000019
 31
0.0
  0
LINE
  8
DETAIL
  6
CONTINUOUS
 62
     5
 10
14.40000050000015
 20
23.39999999999986
 30
0.0
 11
14.40000050000015
 21
30.599999999999909
 31
0.0
  0
LINE
  8
DETAIL
  6
CONTINUOUS
 62
     5
 10
14.40000050000015
 20
-23.400000000000091
 30
0.0
 11
14.40000050000015
 21
-30.600000000000019
 31
0.0
  0
LINE
  8
DETAIL
  6
CONTINUOUS
 62
     5
 10
14.40000050000015
 20
23.39999999999986
 30
0.0
 11
21.600000500000188
 21
23.39999999999986
 31
0.0
  0
LINE
  8
DETAIL
  6
CONTINUOUS
 62
     5
 10
14.40000050000015
 20
-23.400000000000091
 30
0.0
 11
21.600000500000188
 21
-23.400000000000091
 31
0.0
  0
LINE
  8
DETAIL
  6
CONTINUOUS
 62
     5
 10
14.40000050000015
 20
23.39999999999986
 30
0.0
 11
21.600000500000188
 21
23.39999999999986
 31
0.0
  0
LINE
  8
DETAIL
  6
CONTINUOUS
 62
     5
 10
14.40000050000015
 20
-23.400000000000091
 30
0.0
 11
21.600000500000188
 21
-23.400000000000091
 31
0.0
  0
LINE
  8
DETAIL
  6
CONTINUOUS
 62
     5
 10
14.40000050000015
 20
30.599999999999909
 30
0.0
 11
14.40000050000015
 21
23.39999999999986
 31
0.0
  0
LINE
  8
DETAIL
  6
CONTINUOUS
 62
     5
 10
14.40000050000015
 20
-30.600000000000019
 30
0.0
 11
14.40000050000015
 21
-23.400000000000091
 31
0.0
  0
LINE
  8
DETAIL
  6
CONTINUOUS
 62
     5
 10
5.4000005000001474
 20
30.599999999999909
 30
0.0
 11
12.60000050000019
 21
30.599999999999909
 31
0.0
  0
LINE
  8
DETAIL
  6
CONTINUOUS
 62
     5
 10
5.4000005000001474
 20
-30.600000000000019
 30
0.0
 11
12.60000050000019
 21
-30.600000000000019
 31
0.0
  0
LINE
  8
DETAIL
  6
CONTINUOUS
 62
     5
 10
12.60000050000019
 20
23.39999999999986
 30
0.0
 11
12.60000050000019
 21
30.599999999999909
 31
0.0
  0
LINE
  8
DETAIL
  6
CONTINUOUS
 62
     5
 10
12.60000050000019
 20
-23.400000000000091
 30
0.0
 11
12.60000050000019
 21
-30.600000000000019
 31
0.0
  0
LINE
  8
DETAIL
  6
CONTINUOUS
 62
     5
 10
5.4000005000001474
 20
23.39999999999986
 30
0.0
 11
5.4000005000001474
 21
30.599999999999909
 31
0.0
  0
LINE
  8
DETAIL
  6
CONTINUOUS
 62
     5
 10
5.4000005000001474
 20
-23.400000000000091
 30
0.0
 11
5.4000005000001474
 21
-30.600000000000019
 31
0.0
  0
LINE
  8
DETAIL
  6
CONTINUOUS
 62
     5
 10
5.4000005000001474
 20
23.39999999999986
 30
0.0
 11
12.60000050000019
 21
23.39999999999986
 31
0.0
  0
LINE
  8
DETAIL
  6
CONTINUOUS
 62
     5
 10
5.4000005000001474
 20
-23.400000000000091
 30
0.0
 11
12.60000050000019
 21
-23.400000000000091
 31
0.0
  0
LINE
  8
DETAIL
  6
CONTINUOUS
 62
     5
 10
5.4000005000001474
 20
23.39999999999986
 30
0.0
 11
12.60000050000019
 21
23.39999999999986
 31
0.0
  0
LINE
  8
DETAIL
  6
CONTINUOUS
 62
     5
 10
5.4000005000001474
 20
-23.400000000000091
 30
0.0
 11
12.60000050000019
 21
-23.400000000000091
 31
0.0
  0
LINE
  8
DETAIL
  6
CONTINUOUS
 62
     5
 10
5.4000005000001474
 20
30.599999999999909
 30
0.0
 11
5.4000005000001474
 21
23.39999999999986
 31
0.0
  0
LINE
  8
DETAIL
  6
CONTINUOUS
 62
     5
 10
5.4000005000001474
 20
-30.600000000000019
 30
0.0
 11
5.4000005000001474
 21
-23.400000000000091
 31
0.0
  0
LINE
  8
DETAIL
  6
CONTINUOUS
 62
     5
 10
41.400000500000147
 20
39.599999999999909
 30
0.0
 11
48.600000500000192
 21
39.599999999999909
 31
0.0
  0
LINE
  8
DETAIL
  6
CONTINUOUS
 62
     5
 10
41.400000500000147
 20
-39.600000000000023
 30
0.0
 11
48.600000500000192
 21
-39.600000000000023
 31
0.0
  0
LINE
  8
DETAIL
  6
CONTINUOUS
 62
     5
 10
48.600000500000192
 20
32.399999999999856
 30
0.0
 11
48.600000500000192
 21
39.599999999999909
 31
0.0
  0
LINE
  8
DETAIL
  6
CONTINUOUS
 62
     5
 10
48.600000500000192
 20
-32.400000000000091
 30
0.0
 11
48.600000500000192
 21
-39.600000000000023
 31
0.0
  0
LINE
  8
DETAIL
  6
CONTINUOUS
 62
     5
 10
41.400000500000147
 20
32.399999999999856
 30
0.0
 11
41.400000500000147
 21
39.599999999999909
 31
0.0
  0
LINE
  8
DETAIL
  6
CONTINUOUS
 62
     5
 10
41.400000500000147
 20
-32.400000000000091
 30
0.0
 11
41.400000500000147
 21
-39.600000000000023
 31
0.0
  0
LINE
  8
DETAIL
  6
CONTINUOUS
 62
     5
 10
41.400000500000147
 20
32.399999999999856
 30
0.0
 11
48.600000500000192
 21
32.399999999999856
 31
0.0
  0
LINE
  8
DETAIL
  6
CONTINUOUS
 62
     5
 10
41.400000500000147
 20
-32.400000000000091
 30
0.0
 11
48.600000500000192
 21
-32.400000000000091
 31
0.0
  0
LINE
  8
DETAIL
  6
CONTINUOUS
 62
     5
 10
32.400000500000147
 20
39.599999999999909
 30
0.0
 11
39.600000500000192
 21
39.599999999999909
 31
0.0
  0
LINE
  8
DETAIL
  6
CONTINUOUS
 62
     5
 10
32.400000500000147
 20
-39.600000000000023
 30
0.0
 11
39.600000500000192
 21
-39.600000000000023
 31
0.0
  0
LINE
  8
DETAIL
  6
CONTINUOUS
 62
     5
 10
39.600000500000192
 20
32.399999999999856
 30
0.0
 11
39.600000500000192
 21
39.599999999999909
 31
0.0
  0
LINE
  8
DETAIL
  6
CONTINUOUS
 62
     5
 10
39.600000500000192
 20
-32.400000000000091
 30
0.0
 11
39.600000500000192
 21
-39.600000000000023
 31
0.0
  0
LINE
  8
DETAIL
  6
CONTINUOUS
 62
     5
 10
32.400000500000147
 20
32.399999999999856
 30
0.0
 11
32.400000500000147
 21
39.599999999999909
 31
0.0
  0
LINE
  8
DETAIL
  6
CONTINUOUS
 62
     5
 10
32.400000500000147
 20
-32.400000000000091
 30
0.0
 11
32.400000500000147
 21
-39.600000000000023
 31
0.0
  0
LINE
  8
DETAIL
  6
CONTINUOUS
 62
     5
 10
32.400000500000147
 20
32.399999999999856
 30
0.0
 11
39.600000500000192
 21
32.399999999999856
 31
0.0
  0
LINE
  8
DETAIL
  6
CONTINUOUS
 62
     5
 10
32.400000500000147
 20
-32.400000000000091
 30
0.0
 11
39.600000500000192
 21
-32.400000000000091
 31
0.0
  0
LINE
  8
DETAIL
  6
CONTINUOUS
 62
     5
 10
23.40000050000015
 20
39.599999999999909
 30
0.0
 11
30.600000500000188
 21
39.599999999999909
 31
0.0
  0
LINE
  8
DETAIL
  6
CONTINUOUS
 62
     5
 10
23.40000050000015
 20
-39.600000000000023
 30
0.0
 11
30.600000500000188
 21
-39.600000000000023
 31
0.0
  0
LINE
  8
DETAIL
  6
CONTINUOUS
 62
     5
 10
30.600000500000188
 20
32.399999999999856
 30
0.0
 11
30.600000500000188
 21
39.599999999999909
 31
0.0
  0
LINE
  8
DETAIL
  6
CONTINUOUS
 62
     5
 10
30.600000500000188
 20
-32.400000000000091
 30
0.0
 11
30.600000500000188
 21
-39.600000000000023
 31
0.0
  0
LINE
  8
DETAIL
  6
CONTINUOUS
 62
     5
 10
23.40000050000015
 20
32.399999999999856
 30
0.0
 11
23.40000050000015
 21
39.599999999999909
 31
0.0
  0
LINE
  8
DETAIL
  6
CONTINUOUS
 62
     5
 10
23.40000050000015
 20
-32.400000000000091
 30
0.0
 11
23.40000050000015
 21
-39.600000000000023
 31
0.0
  0
LINE
  8
DETAIL
  6
CONTINUOUS
 62
     5
 10
23.40000050000015
 20
32.399999999999856
 30
0.0
 11
30.600000500000188
 21
32.399999999999856
 31
0.0
  0
LINE
  8
DETAIL
  6
CONTINUOUS
 62
     5
 10
23.40000050000015
 20
-32.400000000000091
 30
0.0
 11
30.600000500000188
 21
-32.400000000000091
 31
0.0
  0
LINE
  8
DETAIL
  6
CONTINUOUS
 62
     5
 10
14.40000050000015
 20
39.599999999999909
 30
0.0
 11
21.600000500000188
 21
39.599999999999909
 31
0.0
  0
LINE
  8
DETAIL
  6
CONTINUOUS
 62
     5
 10
14.40000050000015
 20
-39.600000000000023
 30
0.0
 11
21.600000500000188
 21
-39.600000000000023
 31
0.0
  0
LINE
  8
DETAIL
  6
CONTINUOUS
 62
     5
 10
21.600000500000188
 20
32.399999999999856
 30
0.0
 11
21.600000500000188
 21
39.599999999999909
 31
0.0
  0
LINE
  8
DETAIL
  6
CONTINUOUS
 62
     5
 10
21.600000500000188
 20
-32.400000000000091
 30
0.0
 11
21.600000500000188
 21
-39.600000000000023
 31
0.0
  0
LINE
  8
DETAIL
  6
CONTINUOUS
 62
     5
 10
14.40000050000015
 20
32.399999999999856
 30
0.0
 11
14.40000050000015
 21
39.599999999999909
 31
0.0
  0
LINE
  8
DETAIL
  6
CONTINUOUS
 62
     5
 10
14.40000050000015
 20
-32.400000000000091
 30
0.0
 11
14.40000050000015
 21
-39.600000000000023
 31
0.0
  0
LINE
  8
DETAIL
  6
CONTINUOUS
 62
     5
 10
14.40000050000015
 20
32.399999999999856
 30
0.0
 11
21.600000500000188
 21
32.399999999999856
 31
0.0
  0
LINE
  8
DETAIL
  6
CONTINUOUS
 62
     5
 10
14.40000050000015
 20
-32.400000000000091
 30
0.0
 11
21.600000500000188
 21
-32.400000000000091
 31
0.0
  0
LINE
  8
DETAIL
  6
CONTINUOUS
 62
     5
 10
5.4000005000001474
 20
39.599999999999909
 30
0.0
 11
12.60000050000019
 21
39.599999999999909
 31
0.0
  0
LINE
  8
DETAIL
  6
CONTINUOUS
 62
     5
 10
5.4000005000001474
 20
-39.600000000000023
 30
0.0
 11
12.60000050000019
 21
-39.600000000000023
 31
0.0
  0
LINE
  8
DETAIL
  6
CONTINUOUS
 62
     5
 10
12.60000050000019
 20
32.399999999999856
 30
0.0
 11
12.60000050000019
 21
39.599999999999909
 31
0.0
  0
LINE
  8
DETAIL
  6
CONTINUOUS
 62
     5
 10
12.60000050000019
 20
-32.400000000000091
 30
0.0
 11
12.60000050000019
 21
-39.600000000000023
 31
0.0
  0
LINE
  8
DETAIL
  6
CONTINUOUS
 62
     5
 10
5.4000005000001474
 20
32.399999999999856
 30
0.0
 11
5.4000005000001474
 21
39.599999999999909
 31
0.0
  0
LINE
  8
DETAIL
  6
CONTINUOUS
 62
     5
 10
5.4000005000001474
 20
-32.400000000000091
 30
0.0
 11
5.4000005000001474
 21
-39.600000000000023
 31
0.0
  0
LINE
  8
DETAIL
  6
CONTINUOUS
 62
     5
 10
5.4000005000001474
 20
32.399999999999856
 30
0.0
 11
12.60000050000019
 21
32.399999999999856
 31
0.0
  0
LINE
  8
DETAIL
  6
CONTINUOUS
 62
     5
 10
5.4000005000001474
 20
-32.400000000000091
 30
0.0
 11
12.60000050000019
 21
-32.400000000000091
 31
0.0
  0
LINE
  8
DETAIL
  6
CONTINUOUS
 62
     5
 10
32.400000500000147
 20
48.599999999999909
 30
0.0
 11
39.600000500000192
 21
48.599999999999909
 31
0.0
  0
LINE
  8
DETAIL
  6
CONTINUOUS
 62
     5
 10
32.400000500000147
 20
-48.600000000000023
 30
0.0
 11
39.600000500000192
 21
-48.600000000000023
 31
0.0
  0
LINE
  8
DETAIL
  6
CONTINUOUS
 62
     5
 10
39.600000500000192
 20
41.399999999999856
 30
0.0
 11
39.600000500000192
 21
48.599999999999909
 31
0.0
  0
LINE
  8
DETAIL
  6
CONTINUOUS
 62
     5
 10
39.600000500000192
 20
-41.400000000000091
 30
0.0
 11
39.600000500000192
 21
-48.600000000000023
 31
0.0
  0
LINE
  8
DETAIL
  6
CONTINUOUS
 62
     5
 10
32.400000500000147
 20
41.399999999999856
 30
0.0
 11
32.400000500000147
 21
48.599999999999909
 31
0.0
  0
LINE
  8
DETAIL
  6
CONTINUOUS
 62
     5
 10
32.400000500000147
 20
-41.400000000000091
 30
0.0
 11
32.400000500000147
 21
-48.600000000000023
 31
0.0
  0
LINE
  8
DETAIL
  6
CONTINUOUS
 62
     5
 10
32.400000500000147
 20
41.399999999999856
 30
0.0
 11
39.600000500000192
 21
41.399999999999856
 31
0.0
  0
LINE
  8
DETAIL
  6
CONTINUOUS
 62
     5
 10
32.400000500000147
 20
-41.400000000000091
 30
0.0
 11
39.600000500000192
 21
-41.400000000000091
 31
0.0
  0
LINE
  8
DETAIL
  6
CONTINUOUS
 62
     5
 10
23.40000050000015
 20
48.599999999999909
 30
0.0
 11
30.600000500000188
 21
48.599999999999909
 31
0.0
  0
LINE
  8
DETAIL
  6
CONTINUOUS
 62
     5
 10
23.40000050000015
 20
-48.600000000000023
 30
0.0
 11
30.600000500000188
 21
-48.600000000000023
 31
0.0
  0
LINE
  8
DETAIL
  6
CONTINUOUS
 62
     5
 10
30.600000500000188
 20
41.399999999999856
 30
0.0
 11
30.600000500000188
 21
48.599999999999909
 31
0.0
  0
LINE
  8
DETAIL
  6
CONTINUOUS
 62
     5
 10
30.600000500000188
 20
-41.400000000000091
 30
0.0
 11
30.600000500000188
 21
-48.600000000000023
 31
0.0
  0
LINE
  8
DETAIL
  6
CONTINUOUS
 62
     5
 10
23.40000050000015
 20
41.399999999999856
 30
0.0
 11
23.40000050000015
 21
48.599999999999909
 31
0.0
  0
LINE
  8
DETAIL
  6
CONTINUOUS
 62
     5
 10
23.40000050000015
 20
-41.400000000000091
 30
0.0
 11
23.40000050000015
 21
-48.600000000000023
 31
0.0
  0
LINE
  8
DETAIL
  6
CONTINUOUS
 62
     5
 10
23.40000050000015
 20
41.399999999999856
 30
0.0
 11
30.600000500000188
 21
41.399999999999856
 31
0.0
  0
LINE
  8
DETAIL
  6
CONTINUOUS
 62
     5
 10
23.40000050000015
 20
-41.400000000000091
 30
0.0
 11
30.600000500000188
 21
-41.400000000000091
 31
0.0
  0
LINE
  8
DETAIL
  6
CONTINUOUS
 62
     5
 10
14.40000050000015
 20
48.599999999999909
 30
0.0
 11
21.600000500000188
 21
48.599999999999909
 31
0.0
  0
LINE
  8
DETAIL
  6
CONTINUOUS
 62
     5
 10
14.40000050000015
 20
-48.600000000000023
 30
0.0
 11
21.600000500000188
 21
-48.600000000000023
 31
0.0
  0
LINE
  8
DETAIL
  6
CONTINUOUS
 62
     5
 10
21.600000500000188
 20
41.399999999999856
 30
0.0
 11
21.600000500000188
 21
48.599999999999909
 31
0.0
  0
LINE
  8
DETAIL
  6
CONTINUOUS
 62
     5
 10
21.600000500000188
 20
-41.400000000000091
 30
0.0
 11
21.600000500000188
 21
-48.600000000000023
 31
0.0
  0
LINE
  8
DETAIL
  6
CONTINUOUS
 62
     5
 10
14.40000050000015
 20
41.399999999999856
 30
0.0
 11
14.40000050000015
 21
48.599999999999909
 31
0.0
  0
LINE
  8
DETAIL
  6
CONTINUOUS
 62
     5
 10
14.40000050000015
 20
-41.400000000000091
 30
0.0
 11
14.40000050000015
 21
-48.600000000000023
 31
0.0
  0
LINE
  8
DETAIL
  6
CONTINUOUS
 62
     5
 10
14.40000050000015
 20
41.399999999999856
 30
0.0
 11
21.600000500000188
 21
41.399999999999856
 31
0.0
  0
LINE
  8
DETAIL
  6
CONTINUOUS
 62
     5
 10
14.40000050000015
 20
-41.400000000000091
 30
0.0
 11
21.600000500000188
 21
-41.400000000000091
 31
0.0
  0
LINE
  8
DETAIL
  6
CONTINUOUS
 62
     5
 10
5.4000005000001474
 20
48.599999999999909
 30
0.0
 11
12.60000050000019
 21
48.599999999999909
 31
0.0
  0
LINE
  8
DETAIL
  6
CONTINUOUS
 62
     5
 10
5.4000005000001474
 20
-48.600000000000023
 30
0.0
 11
12.60000050000019
 21
-48.600000000000023
 31
0.0
  0
LINE
  8
DETAIL
  6
CONTINUOUS
 62
     5
 10
12.60000050000019
 20
41.399999999999856
 30
0.0
 11
12.60000050000019
 21
48.599999999999909
 31
0.0
  0
LINE
  8
DETAIL
  6
CONTINUOUS
 62
     5
 10
12.60000050000019
 20
-41.400000000000091
 30
0.0
 11
12.60000050000019
 21
-48.600000000000023
 31
0.0
  0
LINE
  8
DETAIL
  6
CONTINUOUS
 62
     5
 10
5.4000005000001474
 20
41.399999999999856
 30
0.0
 11
5.4000005000001474
 21
48.599999999999909
 31
0.0
  0
LINE
  8
DETAIL
  6
CONTINUOUS
 62
     5
 10
5.4000005000001474
 20
-41.400000000000091
 30
0.0
 11
5.4000005000001474
 21
-48.600000000000023
 31
0.0
  0
LINE
  8
DETAIL
  6
CONTINUOUS
 62
     5
 10
5.4000005000001474
 20
41.399999999999856
 30
0.0
 11
12.60000050000019
 21
41.399999999999856
 31
0.0
  0
LINE
  8
DETAIL
  6
CONTINUOUS
 62
     5
 10
5.4000005000001474
 20
-41.400000000000091
 30
0.0
 11
12.60000050000019
 21
-41.400000000000091
 31
0.0
  0
LINE
  8
DETAIL
  6
CONTINUOUS
 62
     5
 10
23.40000050000015
 20
57.599999999999909
 30
0.0
 11
30.600000500000188
 21
57.599999999999909
 31
0.0
  0
LINE
  8
DETAIL
  6
CONTINUOUS
 62
     5
 10
23.40000050000015
 20
-57.600000000000023
 30
0.0
 11
30.600000500000188
 21
-57.600000000000023
 31
0.0
  0
LINE
  8
DETAIL
  6
CONTINUOUS
 62
     5
 10
23.40000050000015
 20
50.399999999999856
 30
0.0
 11
23.40000050000015
 21
57.599999999999909
 31
0.0
  0
LINE
  8
DETAIL
  6
CONTINUOUS
 62
     5
 10
23.40000050000015
 20
-50.400000000000091
 30
0.0
 11
23.40000050000015
 21
-57.600000000000023
 31
0.0
  0
LINE
  8
DETAIL
  6
CONTINUOUS
 62
     5
 10
23.40000050000015
 20
50.399999999999856
 30
0.0
 11
30.600000500000188
 21
50.399999999999856
 31
0.0
  0
LINE
  8
DETAIL
  6
CONTINUOUS
 62
     5
 10
23.40000050000015
 20
-50.400000000000091
 30
0.0
 11
30.600000500000188
 21
-50.400000000000091
 31
0.0
  0
LINE
  8
DETAIL
  6
CONTINUOUS
 62
     5
 10
23.40000050000015
 20
50.399999999999856
 30
0.0
 11
30.600000500000188
 21
50.399999999999856
 31
0.0
  0
LINE
  8
DETAIL
  6
CONTINUOUS
 62
     5
 10
23.40000050000015
 20
-50.400000000000091
 30
0.0
 11
30.600000500000188
 21
-50.400000000000091
 31
0.0
  0
LINE
  8
DETAIL
  6
CONTINUOUS
 62
     5
 10
23.40000050000015
 20
57.599999999999909
 30
0.0
 11
23.40000050000015
 21
50.399999999999856
 31
0.0
  0
LINE
  8
DETAIL
  6
CONTINUOUS
 62
     5
 10
23.40000050000015
 20
-57.600000000000023
 30
0.0
 11
23.40000050000015
 21
-50.400000000000091
 31
0.0
  0
LINE
  8
DETAIL
  6
CONTINUOUS
 62
     5
 10
30.600000500000188
 20
50.399999999999856
 30
0.0
 11
30.600000500000188
 21
57.599999999999909
 31
0.0
  0
LINE
  8
DETAIL
  6
CONTINUOUS
 62
     5
 10
30.600000500000188
 20
-50.400000000000091
 30
0.0
 11
30.600000500000188
 21
-57.600000000000023
 31
0.0
  0
LINE
  8
DETAIL
  6
CONTINUOUS
 62
     5
 10
14.40000050000015
 20
57.599999999999909
 30
0.0
 11
21.600000500000188
 21
57.599999999999909
 31
0.0
  0
LINE
  8
DETAIL
  6
CONTINUOUS
 62
     5
 10
14.40000050000015
 20
-57.600000000000023
 30
0.0
 11
21.600000500000188
 21
-57.600000000000023
 31
0.0
  0
LINE
  8
DETAIL
  6
CONTINUOUS
 62
     5
 10
14.40000050000015
 20
50.399999999999856
 30
0.0
 11
14.40000050000015
 21
57.599999999999909
 31
0.0
  0
LINE
  8
DETAIL
  6
CONTINUOUS
 62
     5
 10
14.40000050000015
 20
-50.400000000000091
 30
0.0
 11
14.40000050000015
 21
-57.600000000000023
 31
0.0
  0
LINE
  8
DETAIL
  6
CONTINUOUS
 62
     5
 10
14.40000050000015
 20
50.399999999999856
 30
0.0
 11
21.600000500000188
 21
50.399999999999856
 31
0.0
  0
LINE
  8
DETAIL
  6
CONTINUOUS
 62
     5
 10
14.40000050000015
 20
-50.400000000000091
 30
0.0
 11
21.600000500000188
 21
-50.400000000000091
 31
0.0
  0
LINE
  8
DETAIL
  6
CONTINUOUS
 62
     5
 10
14.40000050000015
 20
50.399999999999856
 30
0.0
 11
21.600000500000188
 21
50.399999999999856
 31
0.0
  0
LINE
  8
DETAIL
  6
CONTINUOUS
 62
     5
 10
14.40000050000015
 20
-50.400000000000091
 30
0.0
 11
21.600000500000188
 21
-50.400000000000091
 31
0.0
  0
LINE
  8
DETAIL
  6
CONTINUOUS
 62
     5
 10
14.40000050000015
 20
57.599999999999909
 30
0.0
 11
14.40000050000015
 21
50.399999999999856
 31
0.0
  0
LINE
  8
DETAIL
  6
CONTINUOUS
 62
     5
 10
14.40000050000015
 20
-57.600000000000023
 30
0.0
 11
14.40000050000015
 21
-50.400000000000091
 31
0.0
  0
LINE
  8
DETAIL
  6
CONTINUOUS
 62
     5
 10
21.600000500000188
 20
50.399999999999856
 30
0.0
 11
21.600000500000188
 21
57.599999999999909
 31
0.0
  0
LINE
  8
DETAIL
  6
CONTINUOUS
 62
     5
 10
21.600000500000188
 20
-50.400000000000091
 30
0.0
 11
21.600000500000188
 21
-57.600000000000023
 31
0.0
  0
LINE
  8
DETAIL
  6
CONTINUOUS
 62
     5
 10
5.4000005000001474
 20
57.599999999999909
 30
0.0
 11
12.60000050000019
 21
57.599999999999909
 31
0.0
  0
LINE
  8
DETAIL
  6
CONTINUOUS
 62
     5
 10
5.4000005000001474
 20
-57.600000000000023
 30
0.0
 11
12.60000050000019
 21
-57.600000000000023
 31
0.0
  0
LINE
  8
DETAIL
  6
CONTINUOUS
 62
     5
 10
5.4000005000001474
 20
50.399999999999856
 30
0.0
 11
5.4000005000001474
 21
57.599999999999909
 31
0.0
  0
LINE
  8
DETAIL
  6
CONTINUOUS
 62
     5
 10
5.4000005000001474
 20
-50.400000000000091
 30
0.0
 11
5.4000005000001474
 21
-57.600000000000023
 31
0.0
  0
LINE
  8
DETAIL
  6
CONTINUOUS
 62
     5
 10
5.4000005000001474
 20
50.399999999999856
 30
0.0
 11
12.60000050000019
 21
50.399999999999856
 31
0.0
  0
LINE
  8
DETAIL
  6
CONTINUOUS
 62
     5
 10
5.4000005000001474
 20
-50.400000000000091
 30
0.0
 11
12.60000050000019
 21
-50.400000000000091
 31
0.0
  0
LINE
  8
DETAIL
  6
CONTINUOUS
 62
     5
 10
5.4000005000001474
 20
50.399999999999856
 30
0.0
 11
12.60000050000019
 21
50.399999999999856
 31
0.0
  0
LINE
  8
DETAIL
  6
CONTINUOUS
 62
     5
 10
5.4000005000001474
 20
-50.400000000000091
 30
0.0
 11
12.60000050000019
 21
-50.400000000000091
 31
0.0
  0
LINE
  8
DETAIL
  6
CONTINUOUS
 62
     5
 10
5.4000005000001474
 20
57.599999999999909
 30
0.0
 11
5.4000005000001474
 21
50.399999999999856
 31
0.0
  0
LINE
  8
DETAIL
  6
CONTINUOUS
 62
     5
 10
5.4000005000001474
 20
-57.600000000000023
 30
0.0
 11
5.4000005000001474
 21
-50.400000000000091
 31
0.0
  0
LINE
  8
DETAIL
  6
CONTINUOUS
 62
     5
 10
12.60000050000019
 20
50.399999999999856
 30
0.0
 11
12.60000050000019
 21
57.599999999999909
 31
0.0
  0
LINE
  8
DETAIL
  6
CONTINUOUS
 62
     5
 10
12.60000050000019
 20
-50.400000000000091
 30
0.0
 11
12.60000050000019
 21
-57.600000000000023
 31
0.0
  0
LINE
  8
DETAIL
  6
CONTINUOUS
 62
     5
 10
14.40000050000015
 20
66.599999999999909
 30
0.0
 11
21.600000500000188
 21
66.599999999999909
 31
0.0
  0
LINE
  8
DETAIL
  6
CONTINUOUS
 62
     5
 10
14.40000050000015
 20
-66.600000000000023
 30
0.0
 11
21.600000500000188
 21
-66.600000000000023
 31
0.0
  0
LINE
  8
DETAIL
  6
CONTINUOUS
 62
     5
 10
21.600000500000188
 20
59.399999999999856
 30
0.0
 11
21.600000500000188
 21
66.599999999999909
 31
0.0
  0
LINE
  8
DETAIL
  6
CONTINUOUS
 62
     5
 10
21.600000500000188
 20
-59.400000000000091
 30
0.0
 11
21.600000500000188
 21
-66.600000000000023
 31
0.0
  0
LINE
  8
DETAIL
  6
CONTINUOUS
 62
     5
 10
14.40000050000015
 20
59.399999999999856
 30
0.0
 11
14.40000050000015
 21
66.599999999999909
 31
0.0
  0
LINE
  8
DETAIL
  6
CONTINUOUS
 62
     5
 10
14.40000050000015
 20
-59.400000000000091
 30
0.0
 11
14.40000050000015
 21
-66.600000000000023
 31
0.0
  0
LINE
  8
DETAIL
  6
CONTINUOUS
 62
     5
 10
14.40000050000015
 20
59.399999999999856
 30
0.0
 11
21.600000500000188
 21
59.399999999999856
 31
0.0
  0
LINE
  8
DETAIL
  6
CONTINUOUS
 62
     5
 10
14.40000050000015
 20
-59.400000000000091
 30
0.0
 11
21.600000500000188
 21
-59.400000000000091
 31
0.0
  0
LINE
  8
DETAIL
  6
CONTINUOUS
 62
     5
 10
5.4000005000001474
 20
66.599999999999909
 30
0.0
 11
12.60000050000019
 21
66.599999999999909
 31
0.0
  0
LINE
  8
DETAIL
  6
CONTINUOUS
 62
     5
 10
5.4000005000001474
 20
-66.600000000000023
 30
0.0
 11
12.60000050000019
 21
-66.600000000000023
 31
0.0
  0
LINE
  8
DETAIL
  6
CONTINUOUS
 62
     5
 10
12.60000050000019
 20
59.399999999999856
 30
0.0
 11
12.60000050000019
 21
66.599999999999909
 31
0.0
  0
LINE
  8
DETAIL
  6
CONTINUOUS
 62
     5
 10
12.60000050000019
 20
-59.400000000000091
 30
0.0
 11
12.60000050000019
 21
-66.600000000000023
 31
0.0
  0
LINE
  8
DETAIL
  6
CONTINUOUS
 62
     5
 10
5.4000005000001474
 20
59.399999999999856
 30
0.0
 11
5.4000005000001474
 21
66.599999999999909
 31
0.0
  0
LINE
  8
DETAIL
  6
CONTINUOUS
 62
     5
 10
5.4000005000001474
 20
-59.400000000000091
 30
0.0
 11
5.4000005000001474
 21
-66.600000000000023
 31
0.0
  0
LINE
  8
DETAIL
  6
CONTINUOUS
 62
     5
 10
5.4000005000001474
 20
59.399999999999856
 30
0.0
 11
12.60000050000019
 21
59.399999999999856
 31
0.0
  0
LINE
  8
DETAIL
  6
CONTINUOUS
 62
     5
 10
5.4000005000001474
 20
-59.400000000000091
 30
0.0
 11
12.60000050000019
 21
-59.400000000000091
 31
0.0
  0
LINE
  8
DETAIL
  6
CONTINUOUS
 62
     5
 10
12.60000050000019
 20
68.399999999999864
 30
0.0
 11
12.60000050000019
 21
75.599999999999909
 31
0.0
  0
LINE
  8
DETAIL
  6
CONTINUOUS
 62
     5
 10
12.60000050000019
 20
-68.400000000000091
 30
0.0
 11
12.60000050000019
 21
-75.600000000000023
 31
0.0
  0
LINE
  8
DETAIL
  6
CONTINUOUS
 62
     5
 10
5.4000005000001474
 20
68.399999999999864
 30
0.0
 11
5.4000005000001474
 21
75.599999999999909
 31
0.0
  0
LINE
  8
DETAIL
  6
CONTINUOUS
 62
     5
 10
5.4000005000001474
 20
-68.400000000000091
 30
0.0
 11
5.4000005000001474
 21
-75.600000000000023
 31
0.0
  0
LINE
  8
DETAIL
  6
CONTINUOUS
 62
     5
 10
5.4000005000001474
 20
68.399999999999864
 30
0.0
 11
12.60000050000019
 21
68.399999999999864
 31
0.0
  0
LINE
  8
DETAIL
  6
CONTINUOUS
 62
     5
 10
5.4000005000001474
 20
-68.400000000000091
 30
0.0
 11
12.60000050000019
 21
-68.400000000000091
 31
0.0
  0
LINE
  8
DETAIL
  6
CONTINUOUS
 62
     5
 10
5.4000005000001474
 20
68.399999999999864
 30
0.0
 11
12.60000050000019
 21
68.399999999999864
 31
0.0
  0
LINE
  8
DETAIL
  6
CONTINUOUS
 62
     5
 10
5.4000005000001474
 20
-68.400000000000091
 30
0.0
 11
12.60000050000019
 21
-68.400000000000091
 31
0.0
  0
LINE
  8
DETAIL
  6
CONTINUOUS
 62
     5
 10
5.4000005000001474
 20
75.599999999999909
 30
0.0
 11
5.4000005000001474
 21
68.399999999999864
 31
0.0
  0
LINE
  8
DETAIL
  6
CONTINUOUS
 62
     5
 10
5.4000005000001474
 20
-75.600000000000023
 30
0.0
 11
5.4000005000001474
 21
-68.400000000000091
 31
0.0
  0
LINE
  8
DETAIL
  6
CONTINUOUS
 62
     5
 10
3.600000500000192
 20
68.399999999999864
 30
0.0
 11
3.600000500000192
 21
75.599999999999909
 31
0.0
  0
LINE
  8
DETAIL
  6
CONTINUOUS
 62
     5
 10
3.600000500000192
 20
-68.400000000000091
 30
0.0
 11
3.600000500000192
 21
-75.600000000000023
 31
0.0
  0
LINE
  8
DETAIL
  6
CONTINUOUS
 62
     5
 10
3.600000500000192
 20
59.399999999999856
 30
0.0
 11
3.600000500000192
 21
66.599999999999909
 31
0.0
  0
LINE
  8
DETAIL
  6
CONTINUOUS
 62
     5
 10
3.600000500000192
 20
-59.400000000000091
 30
0.0
 11
3.600000500000192
 21
-66.600000000000023
 31
0.0
  0
LINE
  8
DETAIL
  6
CONTINUOUS
 62
     5
 10
3.600000500000192
 20
50.399999999999856
 30
0.0
 11
3.600000500000192
 21
57.599999999999909
 31
0.0
  0
LINE
  8
DETAIL
  6
CONTINUOUS
 62
     5
 10
3.600000500000192
 20
-50.400000000000091
 30
0.0
 11
3.600000500000192
 21
-57.600000000000023
 31
0.0
  0
LINE
  8
DETAIL
  6
CONTINUOUS
 62
     5
 10
3.600000500000192
 20
41.399999999999856
 30
0.0
 11
3.600000500000192
 21
48.599999999999909
 31
0.0
  0
LINE
  8
DETAIL
  6
CONTINUOUS
 62
     5
 10
3.600000500000192
 20
-41.400000000000091
 30
0.0
 11
3.600000500000192
 21
-48.600000000000023
 31
0.0
  0
LINE
  8
DETAIL
  6
CONTINUOUS
 62
     5
 10
3.600000500000192
 20
32.399999999999856
 30
0.0
 11
3.600000500000192
 21
39.599999999999909
 31
0.0
  0
LINE
  8
DETAIL
  6
CONTINUOUS
 62
     5
 10
3.600000500000192
 20
-32.400000000000091
 30
0.0
 11
3.600000500000192
 21
-39.600000000000023
 31
0.0
  0
LINE
  8
DETAIL
  6
CONTINUOUS
 62
     5
 10
3.600000500000192
 20
23.39999999999986
 30
0.0
 11
3.600000500000192
 21
30.599999999999909
 31
0.0
  0
LINE
  8
DETAIL
  6
CONTINUOUS
 62
     5
 10
3.600000500000192
 20
-23.400000000000091
 30
0.0
 11
3.600000500000192
 21
-30.600000000000019
 31
0.0
  0
LINE
  8
DETAIL
  6
CONTINUOUS
 62
     5
 10
3.600000500000192
 20
14.39999999999986
 30
0.0
 11
3.600000500000192
 21
21.599999999999909
 31
0.0
  0
LINE
  8
DETAIL
  6
CONTINUOUS
 62
     5
 10
3.600000500000192
 20
-14.400000000000089
 30
0.0
 11
3.600000500000192
 21
-21.60000000000014
 31
0.0
  0
LINE
  8
DETAIL
  6
CONTINUOUS
 62
     5
 10
3.600000500000192
 20
5.3999999999998636
 30
0.0
 11
3.600000500000192
 21
12.599999999999911
 31
0.0
  0
LINE
  8
DETAIL
  6
CONTINUOUS
 62
     5
 10
3.600000500000192
 20
-5.4000000000000909
 30
0.0
 11
3.600000500000192
 21
-12.60000000000014
 31
0.0
  0
ENDSEC
  0
EOF
