  0
SECTION
  2
HEADER
  9
$ACADVER
  1
AC1009
  9
$INSBASE
 10
0.0
 20
0.0
 30
0.0
  9
$EXTMIN
 10
-422.977439
 20
-495.64233999999999
 30
0.0
  9
$EXTMAX
 10
1001.495356485915
 20
843.30684600000006
 30
50.0
  9
$LIMMIN
 10
-2970.0
 20
-2100.0
  9
$LIMMAX
 10
2970.0
 20
2100.0
  9
$ORTHOMODE
 70
     1
  9
$REGENMODE
 70
     0
  9
$FILLMODE
 70
     1
  9
$QTEXTMODE
 70
     0
  9
$MIRRTEXT
 70
     0
  9
$DRAGMODE
 70
     2
  9
$LTSCALE
 40
20.0
  9
$OSMODE
 70
   167
  9
$ATTMODE
 70
     1
  9
$TEXTSIZE
 40
64.0
  9
$TRACEWID
 40
0.05
  9
$TEXTSTYLE
  7
STANDARD
  9
$CLAYER
  8
SIZE
  9
$CELTYPE
  6
CONTINUOUS
  9
$CECOLOR
 62
    30
  9
$DIMSCALE
 40
1.0
  9
$DIMASZ
 40
12.0
  9
$DIMEXO
 40
20.0
  9
$DIMDLI
 40
200.0
  9
$DIMRND
 40
0.0
  9
$DIMDLE
 40
0.0
  9
$DIMEXE
 40
20.0
  9
$DIMTP
 40
0.0
  9
$DIMTM
 40
0.0
  9
$DIMTXT
 40
64.0
  9
$DIMCEN
 40
0.09
  9
$DIMTSZ
 40
0.0
  9
$DIMTOL
 70
     0
  9
$DIMLIM
 70
     0
  9
$DIMTIH
 70
     0
  9
$DIMTOH
 70
     0
  9
$DIMSE1
 70
     0
  9
$DIMSE2
 70
     0
  9
$DIMTAD
 70
     1
  9
$DIMZIN
 70
     8
  9
$DIMBLK
  1
DOT1
  9
$DIMASO
 70
     1
  9
$DIMSHO
 70
     0
  9
$DIMPOST
  1

  9
$DIMAPOST
  1

  9
$DIMALT
 70
     0
  9
$DIMALTD
 70
     2
  9
$DIMALTF
 40
25.399999999999999
  9
$DIMLFAC
 40
1.0
  9
$DIMTOFL
 70
     1
  9
$DIMTVP
 40
0.0
  9
$DIMTIX
 70
     1
  9
$DIMSOXD
 70
     0
  9
$DIMSAH
 70
     1
  9
$DIMBLK1
  1
ORIGIN
  9
$DIMBLK2
  1
ORIGIN
  9
$DIMSTYLE
  2
STANDARD
  9
$DIMCLRD
 70
     7
  9
$DIMCLRE
 70
     7
  9
$DIMCLRT
 70
     7
  9
$DIMTFAC
 40
1.0
  9
$DIMGAP
 40
25.0
  9
$LUNITS
 70
     2
  9
$LUPREC
 70
     4
  9
$SKETCHINC
 40
0.1
  9
$FILLETRAD
 40
15.0
  9
$AUNITS
 70
     1
  9
$AUPREC
 70
     3
  9
$MENU
  1
ACAD
  9
$ELEVATION
 40
0.0
  9
$PELEVATION
 40
0.0
  9
$THICKNESS
 40
50.0
  9
$LIMCHECK
 70
     0
  9
$BLIPMODE
 70
     0
  9
$CHAMFERA
 40
0.0
  9
$CHAMFERB
 40
0.0
  9
$SKPOLY
 70
     0
  9
$TDCREATE
 40
2453111.4692612621
  9
$TDUPDATE
 40
2454151.3911138191
  9
$TDINDWG
 40
0.0862652315
  9
$TDUSRTIMER
 40
0.0862650463
  9
$USRTIMER
 70
     1
  9
$ANGBASE
 50
0.0
  9
$ANGDIR
 70
     0
  9
$PDMODE
 70
     3
  9
$PDSIZE
 40
-2.0
  9
$PLINEWID
 40
0.0
  9
$COORDS
 70
     0
  9
$SPLFRAME
 70
     0
  9
$SPLINETYPE
 70
     6
  9
$SPLINESEGS
 70
     8
  9
$ATTDIA
 70
     0
  9
$ATTREQ
 70
     1
  9
$HANDLING
 70
 22529
  9
$HANDSEED
  5
1C8
  9
$SURFTAB1
 70
     6
  9
$SURFTAB2
 70
     6
  9
$SURFTYPE
 70
     6
  9
$SURFU
 70
     6
  9
$SURFV
 70
     6
  9
$UCSNAME
  2

  9
$UCSORG
 10
0.0
 20
0.0
 30
0.0
  9
$UCSXDIR
 10
1.0
 20
0.0
 30
0.0
  9
$UCSYDIR
 10
0.0
 20
1.0
 30
0.0
  9
$PUCSNAME
  2

  9
$PUCSORG
 10
0.0
 20
0.0
 30
0.0
  9
$PUCSXDIR
 10
1.0
 20
0.0
 30
0.0
  9
$PUCSYDIR
 10
0.0
 20
1.0
 30
0.0
  9
$USERI1
 70
     0
  9
$USERI2
 70
     0
  9
$USERI3
 70
     0
  9
$USERI4
 70
     0
  9
$USERI5
 70
     0
  9
$USERR1
 40
20.0
  9
$USERR2
 40
0.0
  9
$USERR3
 40
0.0
  9
$USERR4
 40
0.0
  9
$USERR5
 40
0.0
  9
$WORLDVIEW
 70
     1
  9
$SHADEDGE
 70
     3
  9
$SHADEDIF
 70
    70
  9
$TILEMODE
 70
     1
  9
$MAXACTVP
 70
    48
  9
$PLIMCHECK
 70
     0
  9
$PEXTMIN
 10
-1.0000000000000000E+020
 20
-1.0000000000000000E+020
 30
-1.0000000000000000E+020
  9
$PEXTMAX
 10
1.0000000000000000E+020
 20
1.0000000000000000E+020
 30
1.0000000000000000E+020
  9
$PLIMMIN
 10
0.0
 20
0.0
  9
$PLIMMAX
 10
12.0
 20
9.0
  9
$UNITMODE
 70
     0
  9
$VISRETAIN
 70
     0
  9
$PLINEGEN
 70
     0
  9
$PSLTSCALE
 70
     0
  0
ENDSEC
  0
SECTION
  2
TABLES
  0
TABLE
  2
VPORT
 70
     3
  0
VPORT
  2
*ACTIVE
 70
     0
 10
0.0
 20
0.0
 11
1.0
 21
1.0
 12
217.47556487553121
 22
173.83576400000001
 13
0.0
 23
0.0
 14
1.0
 24
1.0
 15
0.0
 25
0.0
 16
0.0
 26
0.0
 36
1.0
 17
0.0
 27
0.0
 37
0.0
 40
1349.3968043716429
 41
1.710526315789473
 42
50.0
 43
0.0
 44
0.0
 50
0.0
 51
0.0
 71
     0
 72
  1000
 73
     1
 74
     0
 75
     0
 76
     0
 77
     0
 78
     0
  0
ENDTAB
  0
TABLE
  2
LTYPE
 70
     3
  0
LTYPE
  2
CONTINUOUS
 70
     0
  3
Ä└É³
 72
    65
 73
     0
 40
0.0
  0
LTYPE
  2
DASHDOT
 70
     0
  3
____ _ ____ _ ____ _ ____ _ ____ _ ____ _ ____
 72
    65
 73
     4
 40
5.5
 49
4.0
 49
-0.6
 49
0.3
 49
-0.6
  0
LTYPE
  2
CONTINOUS
 70
     0
  3
Solid line
 72
    65
 73
     0
 40
0.0
  0
ENDTAB
  0
TABLE
  2
LAYER
 70
    12
  0
LAYER
  2
0
 70
     0
 62
     7
  6
CONTINUOUS
  0
LAYER
  2
SIZE
 70
     0
 62
    30
  6
CONTINUOUS
  0
LAYER
  2
BASIS
 70
     0
 62
     6
  6
DASHDOT
  0
LAYER
  2
OUTLINE
 70
     0
 62
     3
  6
CONTINUOUS
  0
LAYER
  2
DETAIL
 70
     0
 62
     5
  6
CONTINUOUS
  0
LAYER
  2
ARRANGE
 70
     0
 62
     1
  6
CONTINUOUS
  0
LAYER
  2
DEFPOINTS
 70
     0
 62
     7
  6
CONTINUOUS
  0
LAYER
  2
ETC
 70
     0
 62
    61
  6
CONTINUOUS
  0
LAYER
  2
FIX
 70
     0
 62
    11
  6
CONTINUOUS
  0
LAYER
  2
NOTE
 70
     0
 62
     4
  6
CONTINUOUS
  0
LAYER
  2
SERVICESPACE
 70
     0
 62
     2
  6
DASHDOT
  0
LAYER
  2
SYMBOLLINE
 70
     0
 62
    15
  6
CONTINUOUS
  0
ENDTAB
  0
TABLE
  2
STYLE
 70
     1
  0
STYLE
  2
STANDARD
 70
     0
 40
64.0
 41
0.9
 50
0.0
 71
     0
 42
64.0
  3
SIMPLEX.shx
  4
BIGFONT.shx
  0
ENDTAB
  0
TABLE
  2
VIEW
 70
     1
  0
VIEW
  2
ALL
 70
     0
 40
4282.6198079999986
 10
0.0
 20
41.309903999999989
 41
5940.0
 11
0.0
 21
0.0
 31
1.0
 12
0.0
 22
0.0
 32
0.0
 42
50.0
 43
0.0
 44
0.0
 50
0.0
 71
     0
  0
ENDTAB
  0
TABLE
  2
UCS
 70
     0
  0
ENDTAB
  0
TABLE
  2
APPID
 70
     2
  0
APPID
  2
ACAD
 70
     0
  0
APPID
  2
AUTOCAD_POSTSCRIPT_FIGURE
 70
     0
  0
ENDTAB
  0
TABLE
  2
DIMSTYLE
 70
     1
  0
DIMSTYLE
  2
STANDARD
 70
     0
  3

  4

  5

  6

  7

 40
1.0
 41
0.18
 42
0.0625
 43
0.38
 44
0.18
 45
0.0
 46
0.0
 47
0.0
 48
0.0
140
0.18
141
0.09
142
0.0
143
25.399999999999999
144
1.0
145
0.0
146
1.0
147
0.09
 71
     0
 72
     0
 73
     1
 74
     1
 75
     0
 76
     0
 77
     0
 78
     0
170
     0
171
     2
172
     0
173
     0
174
     0
175
     0
176
     7
177
     7
178
     7
  0
ENDTAB
  0
ENDSEC
  0
SECTION
  2
BLOCKS
  0
BLOCK
  8
0
  2
$MODEL_SPACE
 70
     0
 10
0.0
 20
0.0
 30
0.0
  3
$MODEL_SPACE
  1

  0
ENDBLK
  5
20
  8
0
  0
BLOCK
 67
     1
  8
0
  2
$PAPER_SPACE
 70
     0
 10
0.0
 20
0.0
 30
0.0
  3
$PAPER_SPACE
  1

  0
ENDBLK
  5
1C
 67
     1
  8
0
  0
BLOCK
  8
0
  2
DOT1
 70
     0
 10
0.0
 20
0.0
 30
0.0
  3
DOT1
  1

  0
CIRCLE
  5
37
  8
SIZE
  6
CONTINUOUS
 62
     7
 10
0.0
 20
0.0
 30
0.0
 40
3.0
  0
ENDBLK
  5
38
  8
0
  0
BLOCK
  8
0
  2
_ORIGIN
 70
     0
 10
0.0
 20
0.0
 30
0.0
  3
_ORIGIN
  1

  0
CIRCLE
  5
3B
  8
0
  6
CONTINUOUS
 62
     7
 10
0.0
 20
0.0
 30
0.0
 40
0.5
  0
LINE
  5
3C
  8
0
  6
CONTINUOUS
 62
     7
 10
0.0
 20
0.0
 30
0.0
 11
-1.0
 21
0.0
 31
0.0
  0
ENDBLK
  5
3D
  8
0
  0
ENDSEC
  0
SECTION
  2
ENTITIES
  0
LINE
  5
40
  8
DETAIL
  6
CONTINUOUS
 62
     5
 10
-89.500000000000014
 20
179.49999999999989
 30
0.0
 11
-89.500000000000014
 21
0.0
 31
0.0
  0
LINE
  5
41
  8
DETAIL
  6
CONTINUOUS
 62
     5
 10
-116.5
 20
186.5
 30
0.0
 11
-116.5
 21
182.5
 31
0.0
  0
LINE
  5
42
  8
DETAIL
  6
CONTINUOUS
 62
     5
 10
-116.5
 20
186.5
 30
0.0
 11
-90.5
 21
186.5
 31
0.0
  0
LINE
  5
43
  8
DETAIL
  6
CONTINUOUS
 62
     5
 10
116.5
 20
186.5
 30
0.0
 11
116.5
 21
182.5
 31
0.0
  0
LINE
  5
44
  8
DETAIL
  6
CONTINUOUS
 62
     5
 10
89.500000000000014
 20
179.49999999999989
 30
0.0
 11
89.500000000000014
 21
0.0
 31
0.0
  0
LINE
  5
45
  8
DETAIL
  6
CONTINUOUS
 62
     5
 10
116.5
 20
186.5
 30
0.0
 11
90.5
 21
186.5
 31
0.0
  0
LINE
  5
46
  8
NOTE
  6
CONTINUOUS
 62
     4
 10
-98.500000000000014
 20
-20.0
 30
0.0
 11
-98.500000000000014
 21
20.0
 31
0.0
  0
LINE
  5
47
  8
NOTE
  6
CONTINUOUS
 62
     4
 10
-78.5
 20
0.0
 30
0.0
 11
-118.5
 21
0.0
 31
0.0
  0
CIRCLE
  5
48
  8
FIX
  6
CONTINUOUS
 62
    11
 39
50.0
 10
-98.500000000000014
 20
0.0
 30
0.0
 40
2.5
  0
CIRCLE
  5
49
  8
FIX
  6
CONTINUOUS
 62
    11
 39
50.0
 10
-65.0
 20
0.0
 30
0.0
 40
2.5
  0
LINE
  5
4A
  8
NOTE
  6
CONTINUOUS
 62
     4
 10
-65.0
 20
-20.0
 30
0.0
 11
-65.0
 21
20.0
 31
0.0
  0
LINE
  5
4B
  8
NOTE
  6
CONTINUOUS
 62
     4
 10
-45.0
 20
0.0
 30
0.0
 11
-85.0
 21
0.0
 31
0.0
  0
CIRCLE
  5
4C
  8
FIX
  6
CONTINUOUS
 62
    11
 39
50.0
 10
65.0
 20
0.0
 30
0.0
 40
2.5
  0
LINE
  5
4D
  8
NOTE
  6
CONTINUOUS
 62
     4
 10
65.0
 20
-20.0
 30
0.0
 11
65.0
 21
20.0
 31
0.0
  0
LINE
  5
4E
  8
NOTE
  6
CONTINUOUS
 62
     4
 10
85.0
 20
0.0
 30
0.0
 11
45.0
 21
0.0
 31
0.0
  0
CIRCLE
  5
4F
  8
FIX
  6
CONTINUOUS
 62
    11
 39
50.0
 10
-103.0
 20
186.5
 30
0.0
 40
7.5
  0
CIRCLE
  5
50
  8
FIX
  6
CONTINUOUS
 62
    11
 39
50.0
 10
103.0
 20
186.5
 30
0.0
 40
7.5
  0
LINE
  5
51
  8
NOTE
  6
CONTINUOUS
 62
     4
 10
98.500000000000014
 20
-20.0
 30
0.0
 11
98.500000000000014
 21
20.0
 31
0.0
  0
LINE
  5
52
  8
NOTE
  6
CONTINUOUS
 62
     4
 10
118.5
 20
0.0
 30
0.0
 11
78.5
 21
0.0
 31
0.0
  0
CIRCLE
  5
53
  8
FIX
  6
CONTINUOUS
 62
    11
 39
50.0
 10
98.500000000000014
 20
0.0
 30
0.0
 40
2.5
  0
LINE
  5
54
  8
NOTE
  6
CONTINUOUS
 62
     4
 10
123.0
 20
186.5
 30
0.0
 11
83.0
 21
186.5
 31
0.0
  0
LINE
  5
55
  8
NOTE
  6
CONTINUOUS
 62
     4
 10
103.0
 20
206.49999999999989
 30
0.0
 11
103.0
 21
166.5
 31
0.0
  0
LINE
  5
56
  8
NOTE
  6
CONTINUOUS
 62
     4
 10
-103.0
 20
206.49999999999989
 30
0.0
 11
-103.0
 21
166.5
 31
0.0
  0
LINE
  5
57
  8
NOTE
  6
CONTINUOUS
 62
     4
 10
-123.0
 20
186.5
 30
0.0
 11
-83.0
 21
186.5
 31
0.0
  0
LINE
  5
58
  8
BASIS
  6
DASHDOT
 62
     6
 10
-10.0
 20
171.71875800000001
 30
0.0
 11
-10.0
 21
234.27275899999989
 31
0.0
  0
LINE
  5
59
  8
BASIS
  6
DASHDOT
 62
     6
 10
0.0
 20
-49.328414000000002
 30
0.0
 11
0.0
 21
252.1921569999999
 31
0.0
  0
LINE
  5
5A
  8
NOTE
  6
CONTINUOUS
 62
     4
 10
227.01253199999999
 20
-352.955423
 30
0.0
 11
642.75782900000002
 21
-352.955423
 31
0.0
  0
TEXT
  5
5B
  8
NOTE
  6
CONTINUOUS
 62
     4
 10
228.70968500000001
 20
-329.35449599999993
 30
0.0
 40
64.0
  1
8-âË5ü~10
 41
0.9
  0
LINE
  5
5C
  8
NOTE
  6
CONTINUOUS
 62
     4
 10
228.31573700000001
 20
314.44628799999992
 30
0.0
 11
869.44730900000002
 21
314.44628799999992
 31
0.0
  0
TEXT
  5
5D
  8
NOTE
  6
CONTINUOUS
 62
     4
 10
244.03375199999991
 20
346.50287099999991
 30
0.0
 40
64.0
  1
AH 2-âË15ü~22
 41
0.9
  0
LINE
  5
5E
  8
DETAIL
  6
CONTINUOUS
 62
     5
 10
20.5
 20
207.0
 30
0.0
 11
85.5
 21
207.0
 31
0.0
  0
LINE
  5
5F
  8
DETAIL
  6
CONTINUOUS
 62
     5
 10
39.5
 20
207.0
 30
0.0
 11
20.5
 21
207.0
 31
0.0
  0
LINE
  5
60
  8
DETAIL
  6
CONTINUOUS
 62
     5
 10
116.5
 20
182.5
 30
0.0
 11
92.5
 21
182.5
 31
0.0
  0
LINE
  5
61
  8
DETAIL
  6
CONTINUOUS
 62
     5
 10
85.5
 20
181.49999999999989
 30
0.0
 11
85.5
 21
178.5
 31
0.0
  0
LINE
  5
62
  8
DETAIL
  6
CONTINUOUS
 62
     5
 10
-116.5
 20
182.5
 30
0.0
 11
-92.5
 21
182.5
 31
0.0
  0
ARC
  5
63
  8
DETAIL
  6
CONTINUOUS
 62
     5
 10
90.5
 20
181.49999999999989
 30
0.0
 40
5.0
 50
90.0
 51
180.0
  0
ARC
  5
64
  8
DETAIL
  6
CONTINUOUS
 62
     5
 10
-90.5
 20
181.49999999999989
 30
0.0
 40
5.0
 50
0.0
 51
90.0
  0
ARC
  5
65
  8
DETAIL
  6
CONTINUOUS
 62
     5
 10
92.5
 20
179.49999999999989
 30
0.0
 40
3.0
 50
90.0
 51
180.0
  0
ARC
  5
66
  8
DETAIL
  6
CONTINUOUS
 62
     5
 10
-92.5
 20
179.49999999999989
 30
0.0
 40
3.0
 50
0.0
 51
90.0
  0
POINT
  5
67
  8
ARRANGE
  6
CONTINUOUS
 62
     1
 10
0.0
 20
0.0
 30
0.0
  0
CIRCLE
  5
68
  8
ARRANGE
  6
CONTINUOUS
 62
     1
 10
0.0
 20
0.0
 30
0.0
 40
40.0
  0
LINE
  5
69
  8
DETAIL
  6
CONTINUOUS
 62
     5
 10
17.5
 20
218.0
 30
0.0
 11
-37.5
 21
218.0
 31
0.0
  0
ARC
  5
6A
  8
DETAIL
  6
CONTINUOUS
 62
     5
 10
17.5
 20
215.0
 30
0.0
 40
3.0
 50
0.0
 51
90.0
  0
LINE
  5
6B
  8
DETAIL
  6
CONTINUOUS
 62
     5
 10
20.5
 20
215.0
 30
0.0
 11
20.5
 21
185.5
 31
0.0
  0
ARC
  5
6C
  8
DETAIL
  6
CONTINUOUS
 62
     5
 10
-37.5
 20
215.0
 30
0.0
 40
3.0
 50
90.0
 51
180.0
  0
LINE
  5
6D
  8
DETAIL
  6
CONTINUOUS
 62
     5
 10
-40.499999999999993
 20
215.0
 30
0.0
 11
-40.499999999999993
 21
185.5
 31
0.0
  0
LINE
  5
6E
  8
DETAIL
  6
CONTINUOUS
 62
     5
 10
85.5
 20
0.0
 30
0.0
 11
85.5
 21
207.0
 31
0.0
  0
LINE
  5
6F
  8
DETAIL
  6
CONTINUOUS
 62
     5
 10
-82.0
 20
-15.0
 30
0.0
 11
82.0
 21
-15.0
 31
0.0
  0
LINE
  5
70
  8
DETAIL
  6
CONTINUOUS
 62
     5
 10
82.0
 20
-8.0
 30
0.0
 11
-82.0
 21
-8.0
 31
0.0
  0
LINE
  5
71
  8
DETAIL
  6
CONTINUOUS
 62
     5
 10
-125.0
 20
0.0
 30
0.0
 11
125.0
 21
0.0
 31
0.0
  0
ARC
  5
72
  8
DETAIL
  6
CONTINUOUS
 62
     5
 10
83.499999999999986
 20
165.0
 30
0.0
 40
180.0
 50
270.0
 51
282.30221599999987
  0
LINE
  5
73
  8
DETAIL
  6
CONTINUOUS
 62
     5
 10
83.499999999999986
 20
-8.0
 30
0.0
 11
118.28852999999999
 21
-8.0
 31
0.0
  0
LINE
  5
74
  8
DETAIL
  6
CONTINUOUS
 62
     5
 10
125.0
 20
0.0
 30
0.0
 11
125.0
 21
-6.9585710000000001
 31
0.0
  0
ARC
  5
75
  8
DETAIL
  6
CONTINUOUS
 62
     5
 10
121.0
 20
-6.9585710000000001
 30
0.0
 40
4.0
 50
282.30221599999987
 51
0.0
  0
LINE
  5
76
  8
DETAIL
  6
CONTINUOUS
 62
     5
 10
83.499999999999986
 20
-14.0
 30
0.0
 11
82.0
 21
-14.0
 31
0.0
  0
LINE
  5
77
  8
DETAIL
  6
CONTINUOUS
 62
     5
 10
82.0
 20
-15.0
 30
0.0
 11
82.0
 21
0.0
 31
0.0
  0
LINE
  5
78
  8
DETAIL
  6
CONTINUOUS
 62
     5
 10
83.499999999999986
 20
-15.0
 30
0.0
 11
83.499999999999986
 21
0.0
 31
0.0
  0
LINE
  5
79
  8
DETAIL
  6
CONTINUOUS
 62
     5
 10
-83.499999999999986
 20
-14.0
 30
0.0
 11
-82.0
 21
-14.0
 31
0.0
  0
LINE
  5
7A
  8
DETAIL
  6
CONTINUOUS
 62
     5
 10
-82.0
 20
-15.0
 30
0.0
 11
-82.0
 21
0.0
 31
0.0
  0
ARC
  5
7B
  8
DETAIL
  6
CONTINUOUS
 62
     5
 10
-121.0
 20
-6.9585710000000001
 30
0.0
 40
4.0
 50
180.0
 51
257.69778400000001
  0
LINE
  5
7C
  8
DETAIL
  6
CONTINUOUS
 62
     5
 10
-125.0
 20
0.0
 30
0.0
 11
-125.0
 21
-6.9585710000000001
 31
0.0
  0
LINE
  5
7D
  8
DETAIL
  6
CONTINUOUS
 62
     5
 10
-83.499999999999986
 20
-15.0
 30
0.0
 11
-83.499999999999986
 21
0.0
 31
0.0
  0
LINE
  5
7E
  8
DETAIL
  6
CONTINUOUS
 62
     5
 10
-83.499999999999986
 20
-8.0
 30
0.0
 11
-118.28852999999999
 21
-8.0
 31
0.0
  0
ARC
  5
7F
  8
DETAIL
  6
CONTINUOUS
 62
     5
 10
-83.499999999999986
 20
165.0
 30
0.0
 40
180.0
 50
257.69778400000001
 51
270.0
  0
LINE
  5
80
  8
SIZE
  6
CONTINUOUS
 62
    30
 10
-125.0
 20
-26.958570999999999
 30
0.0
 11
-125.0
 21
-495.64233999999999
 31
0.0
  0
LINE
  5
81
  8
SIZE
  6
CONTINUOUS
 62
    30
 10
125.0
 20
-26.958570999999999
 30
0.0
 11
125.0
 21
-495.64233999999999
 31
0.0
  0
LINE
  5
82
  8
SIZE
  6
CONTINUOUS
 62
    30
 10
-137.0
 20
-475.64233999999999
 30
0.0
 11
-149.0
 21
-475.64233999999999
 31
0.0
  0
LINE
  5
83
  8
SIZE
  6
CONTINUOUS
 62
    30
 10
137.0
 20
-475.64233999999999
 30
0.0
 11
149.0
 21
-475.64233999999999
 31
0.0
  0
LINE
  5
84
  8
SIZE
  6
CONTINUOUS
 62
    30
 10
-125.0
 20
-475.64233999999999
 30
0.0
 11
125.0
 21
-475.64233999999999
 31
0.0
  0
CIRCLE
  5
85
  8
SIZE
  6
CONTINUOUS
 62
    30
 10
-125.0
 20
-475.64233999999999
 30
0.0
 40
6.0
  0
LINE
  5
86
  8
SIZE
  6
CONTINUOUS
 62
    30
 10
-125.0
 20
-475.64233999999999
 30
0.0
 11
-137.0
 21
-475.64233999999999
 31
0.0
  0
CIRCLE
  5
87
  8
SIZE
  6
CONTINUOUS
 62
    30
 10
125.0
 20
-475.64233999999999
 30
0.0
 40
6.0
  0
LINE
  5
88
  8
SIZE
  6
CONTINUOUS
 62
    30
 10
125.0
 20
-475.64233999999999
 30
0.0
 11
137.0
 21
-475.64233999999999
 31
0.0
  0
TEXT
  5
89
  8
SIZE
  6
CONTINUOUS
 62
    30
 10
-110.5371428571428
 20
-450.64233999999999
 30
0.0
 40
64.0
  1
üá250
 41
0.9
 72
     1
 11
0.0
 21
-450.64233999999999
 31
0.0
  0
LINE
  5
8D
  8
SIZE
  6
CONTINUOUS
 62
    30
 10
-98.500000000000014
 20
-40.0
 30
0.0
 11
-98.500000000000014
 21
-367.21926200000001
 31
0.0
  0
LINE
  5
8E
  8
SIZE
  6
CONTINUOUS
 62
    30
 10
98.500000000000014
 20
-40.0
 30
0.0
 11
98.500000000000014
 21
-367.21926200000001
 31
0.0
  0
LINE
  5
8F
  8
SIZE
  6
CONTINUOUS
 62
    30
 10
-86.5
 20
-347.21926200000001
 30
0.0
 11
86.5
 21
-347.21926200000001
 31
0.0
  0
CIRCLE
  5
90
  8
SIZE
  6
CONTINUOUS
 62
    30
 10
-98.500000000000014
 20
-347.21926200000001
 30
0.0
 40
6.0
  0
LINE
  5
91
  8
SIZE
  6
CONTINUOUS
 62
    30
 10
-98.500000000000014
 20
-347.21926200000001
 30
0.0
 11
-86.5
 21
-347.21926200000001
 31
0.0
  0
CIRCLE
  5
92
  8
SIZE
  6
CONTINUOUS
 62
    30
 10
98.500000000000014
 20
-347.21926200000001
 30
0.0
 40
6.0
  0
LINE
  5
93
  8
SIZE
  6
CONTINUOUS
 62
    30
 10
98.500000000000014
 20
-347.21926200000001
 30
0.0
 11
86.5
 21
-347.21926200000001
 31
0.0
  0
TEXT
  5
94
  8
SIZE
  6
CONTINUOUS
 62
    30
 10
-68.571428571428569
 20
-322.21926200000001
 30
0.0
 40
64.0
  1
197
 41
0.9
 72
     1
 11
0.0
 21
-322.21926200000001
 31
0.0
  0
LINE
  5
98
  8
SIZE
  6
CONTINUOUS
 62
    30
 10
-65.0
 20
-40.0
 30
0.0
 11
-65.0
 21
-239.893821
 31
0.0
  0
LINE
  5
99
  8
SIZE
  6
CONTINUOUS
 62
    30
 10
65.0
 20
-40.0
 30
0.0
 11
65.0
 21
-239.893821
 31
0.0
  0
LINE
  5
9A
  8
SIZE
  6
CONTINUOUS
 62
    30
 10
-77.0
 20
-219.893821
 30
0.0
 11
-89.0
 21
-219.893821
 31
0.0
  0
LINE
  5
9B
  8
SIZE
  6
CONTINUOUS
 62
    30
 10
77.0
 20
-219.893821
 30
0.0
 11
89.0
 21
-219.893821
 31
0.0
  0
LINE
  5
9C
  8
SIZE
  6
CONTINUOUS
 62
    30
 10
-65.0
 20
-219.893821
 30
0.0
 11
65.0
 21
-219.893821
 31
0.0
  0
CIRCLE
  5
9D
  8
SIZE
  6
CONTINUOUS
 62
    30
 10
-65.0
 20
-219.893821
 30
0.0
 40
6.0
  0
LINE
  5
9E
  8
SIZE
  6
CONTINUOUS
 62
    30
 10
-65.0
 20
-219.893821
 30
0.0
 11
-77.0
 21
-219.893821
 31
0.0
  0
CIRCLE
  5
9F
  8
SIZE
  6
CONTINUOUS
 62
    30
 10
65.0
 20
-219.893821
 30
0.0
 40
6.0
  0
LINE
  5
A0
  8
SIZE
  6
CONTINUOUS
 62
    30
 10
65.0
 20
-219.893821
 30
0.0
 11
77.0
 21
-219.893821
 31
0.0
  0
TEXT
  5
A1
  8
SIZE
  6
CONTINUOUS
 62
    30
 10
-68.571428571428569
 20
-194.893821
 30
0.0
 40
64.0
  1
130
 41
0.9
 72
     1
 11
0.0
 21
-194.893821
 31
0.0
  0
LINE
  5
A5
  8
SIZE
  6
CONTINUOUS
 62
    30
 10
-145.0
 20
0.0
 30
0.0
 11
-353.977439
 21
0.0
 31
0.0
  0
LINE
  5
A6
  8
SIZE
  6
CONTINUOUS
 62
    30
 10
-105.4999999999999
 20
178.5
 30
0.0
 11
-353.977439
 21
178.5
 31
0.0
  0
LINE
  5
A7
  8
SIZE
  6
CONTINUOUS
 62
    30
 10
-333.977439
 20
12.0
 30
0.0
 11
-333.977439
 21
166.5
 31
0.0
  0
LINE
  5
A8
  8
SIZE
  6
CONTINUOUS
 62
    30
 10
-333.977439
 20
-294.39790399999993
 30
0.0
 11
-333.977439
 21
0.0
 31
0.0
  0
TEXT
  5
A9
  8
SIZE
  6
CONTINUOUS
 62
    30
 10
-358.977439
 20
-269.39790371428558
 30
0.0
 40
64.0
  1
178.5
 50
90.0
 41
0.9
 72
     1
 11
-358.977439
 21
-159.68361799999991
 31
0.0
  0
CIRCLE
  5
AA
  8
SIZE
  6
CONTINUOUS
 62
    30
 10
-333.977439
 20
0.0
 30
0.0
 40
6.0
  0
LINE
  5
AB
  8
SIZE
  6
CONTINUOUS
 62
    30
 10
-333.977439
 20
0.0
 30
0.0
 11
-333.977439
 21
12.0
 31
0.0
  0
CIRCLE
  5
AC
  8
SIZE
  6
CONTINUOUS
 62
    30
 10
-333.977439
 20
178.5
 30
0.0
 40
6.0
  0
LINE
  5
AD
  8
SIZE
  6
CONTINUOUS
 62
    30
 10
-333.977439
 20
178.5
 30
0.0
 11
-333.977439
 21
166.5
 31
0.0
  0
LINE
  5
B1
  8
SIZE
  6
CONTINUOUS
 62
    30
 10
145.0
 20
0.0
 30
0.0
 11
427.06311899999997
 21
0.0
 31
0.0
  0
LINE
  5
B2
  8
SIZE
  6
CONTINUOUS
 62
    30
 10
37.5
 20
218.0
 30
0.0
 11
427.06311899999997
 21
218.0
 31
0.0
  0
LINE
  5
B3
  8
SIZE
  6
CONTINUOUS
 62
    30
 10
407.06311899999992
 20
12.0
 30
0.0
 11
407.06311899999992
 21
206.0
 31
0.0
  0
CIRCLE
  5
B4
  8
SIZE
  6
CONTINUOUS
 62
    30
 10
407.06311899999992
 20
0.0
 30
0.0
 40
6.0
  0
LINE
  5
B5
  8
SIZE
  6
CONTINUOUS
 62
    30
 10
407.06311899999992
 20
0.0
 30
0.0
 11
407.06311899999992
 21
12.0
 31
0.0
  0
CIRCLE
  5
B6
  8
SIZE
  6
CONTINUOUS
 62
    30
 10
407.06311899999992
 20
218.0
 30
0.0
 40
6.0
  0
LINE
  5
B7
  8
SIZE
  6
CONTINUOUS
 62
    30
 10
407.06311899999992
 20
218.0
 30
0.0
 11
407.06311899999992
 21
206.0
 31
0.0
  0
TEXT
  5
B8
  8
SIZE
  6
CONTINUOUS
 62
    30
 10
382.06311899999992
 20
40.428571428571438
 30
0.0
 40
64.0
  1
218
 50
90.0
 41
0.9
 72
     1
 11
382.06311899999992
 21
109.0
 31
0.0
  0
LINE
  5
BC
  8
SIZE
  6
CONTINUOUS
 62
    30
 10
145.0
 20
0.0
 30
0.0
 11
427.06311899999997
 21
0.0
 31
0.0
  0
LINE
  5
BD
  8
SIZE
  6
CONTINUOUS
 62
    30
 10
103.4999999999999
 20
-15.0
 30
0.0
 11
427.06311899999997
 21
-15.0
 31
0.0
  0
LINE
  5
BE
  8
SIZE
  6
CONTINUOUS
 62
    30
 10
407.06311899999992
 20
12.0
 30
0.0
 11
407.06311899999992
 21
24.0
 31
0.0
  0
LINE
  5
BF
  8
SIZE
  6
CONTINUOUS
 62
    30
 10
407.06311899999992
 20
-27.0
 30
0.0
 11
407.06311899999992
 21
-39.0
 31
0.0
  0
LINE
  5
C0
  8
SIZE
  6
CONTINUOUS
 62
    30
 10
407.06311899999992
 20
-182.70893499999991
 30
0.0
 11
407.06311899999992
 21
-15.0
 31
0.0
  0
TEXT
  5
C1
  8
SIZE
  6
CONTINUOUS
 62
    30
 10
382.06311899999992
 20
-157.70893514285709
 30
0.0
 40
64.0
  1
15
 50
90.0
 41
0.9
 72
     1
 11
382.06311899999992
 21
-116.566078
 31
0.0
  0
LINE
  5
C2
  8
SIZE
  6
CONTINUOUS
 62
    30
 10
407.06311899999992
 20
0.0
 30
0.0
 11
407.06311899999992
 21
-15.0
 31
0.0
  0
LINE
  5
C3
  8
SIZE
  6
CONTINUOUS
 62
    30
 10
407.06311899999992
 20
0.0
 30
0.0
 11
407.06311899999992
 21
-15.0
 31
0.0
  0
CIRCLE
  5
C4
  8
SIZE
  6
CONTINUOUS
 62
    30
 10
407.06311899999992
 20
0.0
 30
0.0
 40
6.0
  0
LINE
  5
C5
  8
SIZE
  6
CONTINUOUS
 62
    30
 10
407.06311899999992
 20
0.0
 30
0.0
 11
407.06311899999992
 21
12.0
 31
0.0
  0
CIRCLE
  5
C6
  8
SIZE
  6
CONTINUOUS
 62
    30
 10
407.06311899999992
 20
-15.0
 30
0.0
 40
6.0
  0
LINE
  5
C7
  8
SIZE
  6
CONTINUOUS
 62
    30
 10
407.06311899999992
 20
-15.0
 30
0.0
 11
407.06311899999992
 21
-27.0
 31
0.0
  0
LINE
  5
CB
  8
SIZE
  6
CONTINUOUS
 62
    30
 10
105.4999999999999
 20
207.0
 30
0.0
 11
308.52948599999991
 21
207.0
 31
0.0
  0
LINE
  5
CC
  8
SIZE
  6
CONTINUOUS
 62
    30
 10
145.0
 20
0.0
 30
0.0
 11
308.52948599999991
 21
0.0
 31
0.0
  0
LINE
  5
CD
  8
SIZE
  6
CONTINUOUS
 62
    30
 10
288.52948599999991
 20
195.0
 30
0.0
 11
288.52948599999991
 21
12.0
 31
0.0
  0
CIRCLE
  5
CE
  8
SIZE
  6
CONTINUOUS
 62
    30
 10
288.52948599999991
 20
207.0
 30
0.0
 40
6.0
  0
LINE
  5
CF
  8
SIZE
  6
CONTINUOUS
 62
    30
 10
288.52948599999991
 20
207.0
 30
0.0
 11
288.52948599999991
 21
195.0
 31
0.0
  0
CIRCLE
  5
D0
  8
SIZE
  6
CONTINUOUS
 62
    30
 10
288.52948599999991
 20
0.0
 30
0.0
 40
6.0
  0
LINE
  5
D1
  8
SIZE
  6
CONTINUOUS
 62
    30
 10
288.52948599999991
 20
0.0
 30
0.0
 11
288.52948599999991
 21
12.0
 31
0.0
  0
TEXT
  5
D2
  8
SIZE
  6
CONTINUOUS
 62
    30
 10
263.52948599999991
 20
29.44285714285715
 30
0.0
 40
64.0
  1
207
 50
90.0
 41
0.9
 72
     1
 11
263.52948599999991
 21
103.4999999999999
 31
0.0
  0
LINE
  5
D6
  8
SIZE
  6
CONTINUOUS
 62
    30
 10
-10.0
 20
254.27275899999989
 30
0.0
 11
-10.0
 21
439.6644048259422
 31
0.0
  0
LINE
  5
D7
  8
SIZE
  6
CONTINUOUS
 62
    30
 10
0.0
 20
272.19215700000001
 30
0.0
 11
0.0
 21
439.6644048259422
 31
0.0
  0
LINE
  5
D8
  8
SIZE
  6
CONTINUOUS
 62
    30
 10
-22.0
 20
416.87909288979603
 30
0.0
 11
-34.0
 21
416.87909288979603
 31
0.0
  0
LINE
  5
D9
  8
SIZE
  6
CONTINUOUS
 62
    30
 10
12.0
 20
416.87909288979603
 30
0.0
 11
24.0
 21
416.87909288979603
 31
0.0
  0
LINE
  5
DA
  8
SIZE
  6
CONTINUOUS
 62
    30
 10
-236.72735199999991
 20
416.87909288979603
 30
0.0
 11
-10.0
 21
416.87909288979603
 31
0.0
  0
TEXT
  5
DB
  8
SIZE
  6
CONTINUOUS
 62
    30
 10
-211.72735114285709
 20
441.87909288979603
 30
0.0
 40
64.0
  1
10
 41
0.9
 72
     1
 11
-170.58449400000001
 21
441.87909288979603
 31
0.0
  0
LINE
  5
DC
  8
SIZE
  6
CONTINUOUS
 62
    30
 10
-10.0
 20
416.87909288979603
 30
0.0
 11
0.0
 21
416.87909288979603
 31
0.0
  0
LINE
  5
DD
  8
SIZE
  6
CONTINUOUS
 62
    30
 10
-10.0
 20
416.87909288979603
 30
0.0
 11
0.0
 21
416.87909288979603
 31
0.0
  0
CIRCLE
  5
DE
  8
SIZE
  6
CONTINUOUS
 62
    30
 10
-10.0
 20
416.87909288979603
 30
0.0
 40
6.0
  0
LINE
  5
DF
  8
SIZE
  6
CONTINUOUS
 62
    30
 10
-10.0
 20
416.87909288979603
 30
0.0
 11
-22.0
 21
416.87909288979603
 31
0.0
  0
CIRCLE
  5
E0
  8
SIZE
  6
CONTINUOUS
 62
    30
 10
0.0
 20
416.87909288979603
 30
0.0
 40
6.0
  0
LINE
  5
E1
  8
SIZE
  6
CONTINUOUS
 62
    30
 10
0.0
 20
416.87909288979603
 30
0.0
 11
12.0
 21
416.87909288979603
 31
0.0
  0
LINE
  5
E5
  8
SIZE
  6
CONTINUOUS
 62
    30
 10
-40.499999999999993
 20
235.0
 30
0.0
 11
-40.499999999999993
 21
551.0592631804343
 31
0.0
  0
LINE
  5
E6
  8
SIZE
  6
CONTINUOUS
 62
    30
 10
20.5
 20
235.0
 30
0.0
 11
20.5
 21
553.59096450667255
 31
0.0
  0
LINE
  5
E7
  8
SIZE
  6
CONTINUOUS
 62
    30
 10
-52.5
 20
529.31357775889978
 30
0.0
 11
-64.5
 21
529.31357775889978
 31
0.0
  0
LINE
  5
E8
  8
SIZE
  6
CONTINUOUS
 62
    30
 10
32.5
 20
529.31357775889978
 30
0.0
 11
44.5
 21
529.31357775889978
 31
0.0
  0
LINE
  5
E9
  8
SIZE
  6
CONTINUOUS
 62
    30
 10
-281.27719500000001
 20
529.31357775889978
 30
0.0
 11
-40.499999999999993
 21
529.31357775889978
 31
0.0
  0
TEXT
  5
EA
  8
SIZE
  6
CONTINUOUS
 62
    30
 10
-270.54005228571418
 20
548.52756185419594
 30
0.0
 40
64.0
  1
âË61
 41
0.9
 72
     1
 11
-195.93433799999991
 21
548.52756185419594
 31
0.0
  0
LINE
  5
EB
  8
SIZE
  6
CONTINUOUS
 62
    30
 10
-40.499999999999993
 20
529.31357775889978
 30
0.0
 11
20.5
 21
529.31357775889978
 31
0.0
  0
LINE
  5
EC
  8
SIZE
  6
CONTINUOUS
 62
    30
 10
-40.499999999999993
 20
529.31357775889978
 30
0.0
 11
20.5
 21
529.31357775889978
 31
0.0
  0
CIRCLE
  5
ED
  8
SIZE
  6
CONTINUOUS
 62
    30
 10
-40.499999999999993
 20
529.31357775889978
 30
0.0
 40
6.0
  0
LINE
  5
EE
  8
SIZE
  6
CONTINUOUS
 62
    30
 10
-40.499999999999993
 20
529.31357775889978
 30
0.0
 11
-52.5
 21
529.31357775889978
 31
0.0
  0
CIRCLE
  5
EF
  8
SIZE
  6
CONTINUOUS
 62
    30
 10
20.5
 20
529.31357775889978
 30
0.0
 40
6.0
  0
LINE
  5
F0
  8
SIZE
  6
CONTINUOUS
 62
    30
 10
20.5
 20
529.31357775889978
 30
0.0
 11
32.5
 21
529.31357775889978
 31
0.0
  0
LINE
  5
F4
  8
SIZE
  6
CONTINUOUS
 62
    30
 10
-85.5
 20
201.5
 30
0.0
 11
-85.5
 21
648.07851100000005
 31
0.0
  0
LINE
  5
F5
  8
SIZE
  6
CONTINUOUS
 62
    30
 10
85.5
 20
227.0
 30
0.0
 11
85.5
 21
648.07851100000005
 31
0.0
  0
LINE
  5
F6
  8
SIZE
  6
CONTINUOUS
 62
    30
 10
-97.5
 20
628.07851100000005
 30
0.0
 11
-109.4999999999999
 21
628.07851100000005
 31
0.0
  0
LINE
  5
F7
  8
SIZE
  6
CONTINUOUS
 62
    30
 10
97.5
 20
628.07851100000005
 30
0.0
 11
109.4999999999999
 21
628.07851100000005
 31
0.0
  0
LINE
  5
F8
  8
SIZE
  6
CONTINUOUS
 62
    30
 10
-85.5
 20
628.07851100000005
 30
0.0
 11
85.5
 21
628.07851100000005
 31
0.0
  0
CIRCLE
  5
F9
  8
SIZE
  6
CONTINUOUS
 62
    30
 10
-85.5
 20
628.07851100000005
 30
0.0
 40
6.0
  0
LINE
  5
FA
  8
SIZE
  6
CONTINUOUS
 62
    30
 10
-85.5
 20
628.07851100000005
 30
0.0
 11
-97.5
 21
628.07851100000005
 31
0.0
  0
CIRCLE
  5
FB
  8
SIZE
  6
CONTINUOUS
 62
    30
 10
85.5
 20
628.07851100000005
 30
0.0
 40
6.0
  0
LINE
  5
FC
  8
SIZE
  6
CONTINUOUS
 62
    30
 10
85.5
 20
628.07851100000005
 30
0.0
 11
97.5
 21
628.07851100000005
 31
0.0
  0
TEXT
  5
FD
  8
SIZE
  6
CONTINUOUS
 62
    30
 10
-92.708571428571446
 20
653.07851100000005
 30
0.0
 40
64.0
  1
üá171
 41
0.9
 72
     1
 11
0.0
 21
653.07851100000005
 31
0.0
  0
LINE
  5
101
  8
SIZE
  6
CONTINUOUS
 62
    30
 10
-103.0
 20
226.5
 30
0.0
 11
-103.0
 21
774.30684599999995
 31
0.0
  0
LINE
  5
102
  8
SIZE
  6
CONTINUOUS
 62
    30
 10
103.0
 20
226.5
 30
0.0
 11
103.0
 21
774.30684599999995
 31
0.0
  0
LINE
  5
103
  8
SIZE
  6
CONTINUOUS
 62
    30
 10
-91.0
 20
754.30684599999995
 30
0.0
 11
91.0
 21
754.30684599999995
 31
0.0
  0
CIRCLE
  5
104
  8
SIZE
  6
CONTINUOUS
 62
    30
 10
-103.0
 20
754.30684599999995
 30
0.0
 40
6.0
  0
LINE
  5
105
  8
SIZE
  6
CONTINUOUS
 62
    30
 10
-103.0
 20
754.30684599999995
 30
0.0
 11
-91.0
 21
754.30684599999995
 31
0.0
  0
CIRCLE
  5
106
  8
SIZE
  6
CONTINUOUS
 62
    30
 10
103.0
 20
754.30684599999995
 30
0.0
 40
6.0
  0
LINE
  5
107
  8
SIZE
  6
CONTINUOUS
 62
    30
 10
103.0
 20
754.30684599999995
 30
0.0
 11
91.0
 21
754.30684599999995
 31
0.0
  0
TEXT
  5
108
  8
SIZE
  6
CONTINUOUS
 62
    30
 10
-72.685714285714283
 20
779.30684599999995
 30
0.0
 40
64.0
  1
206
 41
0.9
 72
     1
 11
0.0
 21
779.30684599999995
 31
0.0
  0
LINE
  5
10C
  8
NOTE
  6
CONTINUOUS
 62
     4
 10
98.500000000000014
 20
0.0
 30
0.0
 11
227.01253199999999
 21
-352.955423
 31
0.0
  0
LINE
  5
10D
  8
NOTE
  6
CONTINUOUS
 62
     4
 10
121.618894
 20
-32.642254000000001
 30
0.0
 11
98.500000000000014
 21
0.0
 31
0.0
  0
LINE
  5
10E
  8
NOTE
  6
CONTINUOUS
 62
     4
 10
98.500000000000014
 20
0.0
 30
0.0
 11
102.200423
 21
-39.828468000000001
 31
0.0
  0
LINE
  5
10F
  8
DETAIL
  6
CONTINOUS
 62
     5
 10
-63.5
 20
178.5
 30
0.0
 11
-65.5
 21
178.5
 31
0.0
  0
LINE
  5
110
  8
DETAIL
  6
CONTINUOUS
 62
     5
 10
-63.5
 20
178.5
 30
0.0
 11
-63.5
 21
207.0
 31
0.0
  0
LINE
  5
111
  8
DETAIL
  6
CONTINUOUS
 62
     5
 10
-85.5
 20
0.0
 30
0.0
 11
-85.5
 21
181.49999999999989
 31
0.0
  0
LINE
  5
112
  8
DETAIL
  6
CONTINUOUS
 62
     5
 10
85.5
 20
178.5
 30
0.0
 11
-85.5
 21
178.5
 31
0.0
  0
LINE
  5
113
  8
DETAIL
  6
CONTINUOUS
 62
     5
 10
85.5
 20
168.5
 30
0.0
 11
-85.5
 21
168.5
 31
0.0
  0
LINE
  5
114
  8
SIZE
  6
CONTINUOUS
 62
    30
 10
-105.4999999999999
 20
178.5
 30
0.0
 11
-353.977439
 21
178.5
 31
0.0
  0
LINE
  5
115
  8
SIZE
  6
CONTINUOUS
 62
    30
 10
-143.0
 20
186.5
 30
0.0
 11
-353.977439
 21
186.5
 31
0.0
  0
LINE
  5
116
  8
SIZE
  6
CONTINUOUS
 62
    30
 10
-333.977439
 20
166.5
 30
0.0
 11
-333.977439
 21
154.49999999999989
 31
0.0
  0
LINE
  5
117
  8
SIZE
  6
CONTINUOUS
 62
    30
 10
-333.977439
 20
198.5
 30
0.0
 11
-333.977439
 21
210.49999999999989
 31
0.0
  0
LINE
  5
118
  8
SIZE
  6
CONTINUOUS
 62
    30
 10
-333.977439
 20
300.84842099999992
 30
0.0
 11
-333.977439
 21
186.5
 31
0.0
  0
TEXT
  5
119
  8
SIZE
  6
CONTINUOUS
 62
    30
 10
-358.977439
 20
237.44842099999991
 30
0.0
 40
64.0
  1
8
 50
90.0
 41
0.9
 72
     1
 11
-358.977439
 21
256.64842099999998
 31
0.0
  0
LINE
  5
11A
  8
SIZE
  6
CONTINUOUS
 62
    30
 10
-333.977439
 20
178.5
 30
0.0
 11
-333.977439
 21
186.5
 31
0.0
  0
LINE
  5
11B
  8
SIZE
  6
CONTINUOUS
 62
    30
 10
-333.977439
 20
178.5
 30
0.0
 11
-333.977439
 21
186.5
 31
0.0
  0
CIRCLE
  5
11C
  8
SIZE
  6
CONTINUOUS
 62
    30
 10
-333.977439
 20
178.5
 30
0.0
 40
6.0
  0
LINE
  5
11D
  8
SIZE
  6
CONTINUOUS
 62
    30
 10
-333.977439
 20
178.5
 30
0.0
 11
-333.977439
 21
166.5
 31
0.0
  0
CIRCLE
  5
11E
  8
SIZE
  6
CONTINUOUS
 62
    30
 10
-333.977439
 20
186.5
 30
0.0
 40
6.0
  0
LINE
  5
11F
  8
SIZE
  6
CONTINUOUS
 62
    30
 10
-333.977439
 20
186.5
 30
0.0
 11
-333.977439
 21
198.5
 31
0.0
  0
LINE
  5
123
  8
NOTE
  6
CONTINUOUS
 62
     4
 10
103.0
 20
186.5
 30
0.0
 11
228.31573700000001
 21
314.44628799999992
 31
0.0
  0
LINE
  5
124
  8
NOTE
  6
CONTINUOUS
 62
     4
 10
123.17701099999999
 20
221.03821400000001
 30
0.0
 11
103.0
 21
186.5
 31
0.0
  0
LINE
  5
125
  8
NOTE
  6
CONTINUOUS
 62
     4
 10
103.0
 20
186.5
 30
0.0
 11
137.74291099999999
 21
206.32246499999991
 31
0.0
  0
LINE
  5
126
  8
DETAIL
  6
CONTINUOUS
 62
     5
 10
-55.5
 20
185.5
 30
0.0
 11
35.5
 21
185.5
 31
0.0
  0
LINE
  5
127
  8
DETAIL
  6
CONTINUOUS
 62
     5
 10
-55.5
 20
185.5
 30
0.0
 11
-60.5
 21
178.5
 31
0.0
  0
LINE
  5
128
  8
DETAIL
  6
CONTINUOUS
 62
     5
 10
35.5
 20
185.5
 30
0.0
 11
40.499999999999993
 21
178.5
 31
0.0
  0
LINE
  5
129
  8
DETAIL
  6
CONTINUOUS
 62
     5
 10
-40.499999999999993
 20
207.0
 30
0.0
 11
-63.5
 21
207.0
 31
0.0
  0
LINE
  5
12A
  8
OUTLINE
  6
CONTINUOUS
 62
     3
 10
85.5
 20
0.0
 30
0.0
 11
85.5
 21
178.5
 31
0.0
  0
LINE
  5
12B
  8
OUTLINE
  6
CONTINUOUS
 62
     3
 10
-85.5
 20
0.0
 30
0.0
 11
-85.5
 21
178.5
 31
0.0
  0
LINE
  5
12C
  8
OUTLINE
  6
CONTINUOUS
 62
     3
 10
-125.0
 20
0.0
 30
0.0
 11
125.0
 21
0.0
 31
0.0
  0
LINE
  5
12D
  8
OUTLINE
  6
CONTINUOUS
 62
     3
 10
85.5
 20
178.5
 30
0.0
 11
-85.5
 21
178.5
 31
0.0
  0
LINE
  5
12E
  8
NOTE
  6
CONTINUOUS
 62
     4
 10
-67.0
 20
158.49999999999989
 30
0.0
 11
-67.0
 21
198.5
 31
0.0
  0
LINE
  5
12F
  8
NOTE
  6
CONTINUOUS
 62
     4
 10
-87.0
 20
178.5
 30
0.0
 11
-47.0
 21
178.5
 31
0.0
  0
LINE
  5
130
  8
SIZE
  6
CONTINUOUS
 62
    30
 10
0.0
 20
272.19215700000001
 30
0.0
 11
0.0
 21
321.59797700000001
 31
0.0
  0
LINE
  5
131
  8
SIZE
  6
CONTINUOUS
 62
    30
 10
-67.0
 20
218.5
 30
0.0
 11
-67.0
 21
321.59797700000001
 31
0.0
  0
LINE
  5
132
  8
SIZE
  6
CONTINUOUS
 62
    30
 10
12.0
 20
301.59797700000001
 30
0.0
 11
24.0
 21
301.59797700000001
 31
0.0
  0
LINE
  5
133
  8
SIZE
  6
CONTINUOUS
 62
    30
 10
-79.0
 20
301.59797700000001
 30
0.0
 11
-91.0
 21
301.59797700000001
 31
0.0
  0
LINE
  5
134
  8
SIZE
  6
CONTINUOUS
 62
    30
 10
-242.10797799999989
 20
301.59797700000001
 30
0.0
 11
-67.0
 21
301.59797700000001
 31
0.0
  0
TEXT
  5
135
  8
SIZE
  6
CONTINUOUS
 62
    30
 10
-217.10797842857141
 20
326.59797700000001
 30
0.0
 40
64.0
  1
67
 41
0.9
 72
     1
 11
-170.47940700000001
 21
326.59797700000001
 31
0.0
  0
LINE
  5
136
  8
SIZE
  6
CONTINUOUS
 62
    30
 10
0.0
 20
301.59797700000001
 30
0.0
 11
-67.0
 21
301.59797700000001
 31
0.0
  0
LINE
  5
137
  8
SIZE
  6
CONTINUOUS
 62
    30
 10
0.0
 20
301.59797700000001
 30
0.0
 11
-67.0
 21
301.59797700000001
 31
0.0
  0
CIRCLE
  5
138
  8
SIZE
  6
CONTINUOUS
 62
    30
 10
0.0
 20
301.59797700000001
 30
0.0
 40
6.0
  0
LINE
  5
139
  8
SIZE
  6
CONTINUOUS
 62
    30
 10
0.0
 20
301.59797700000001
 30
0.0
 11
12.0
 21
301.59797700000001
 31
0.0
  0
CIRCLE
  5
13A
  8
SIZE
  6
CONTINUOUS
 62
    30
 10
-67.0
 20
301.59797700000001
 30
0.0
 40
6.0
  0
LINE
  5
13B
  8
SIZE
  6
CONTINUOUS
 62
    30
 10
-67.0
 20
301.59797700000001
 30
0.0
 11
-79.0
 21
301.59797700000001
 31
0.0
  0
TEXT
  5
13F
  8
NOTE
  6
CONTINUOUS
 62
     4
 10
-263.9575759999999
 20
89.596970999999996
 30
0.0
 40
64.0
  1
EL
 41
0.9
  0
LINE
  5
140
  8
NOTE
  6
CONTINUOUS
 62
     4
 10
-279.67559199999988
 20
57.540388
 30
0.0
 11
-169.62920999999989
 21
57.540388
 31
0.0
  0
LINE
  5
141
  8
NOTE
  6
CONTINUOUS
 62
     4
 10
-67.0
 20
178.5
 30
0.0
 11
-169.62920999999989
 21
57.540388
 31
0.0
  0
LINE
  5
142
  8
NOTE
  6
CONTINUOUS
 62
     4
 10
-84.113781000000003
 20
142.34590600000001
 30
0.0
 11
-67.0
 21
178.5
 31
0.0
  0
LINE
  5
143
  8
NOTE
  6
CONTINUOUS
 62
     4
 10
-67.0
 20
178.5
 30
0.0
 11
-99.898015999999984
 21
155.74652699999999
 31
0.0
  0
TEXT
  5
14C
  8
ETC
  6
CONTINUOUS
 62
    61
 10
461.15249934305882
 20
749.77060802588835
 30
0.0
 40
64.0
  1
VD-10ZJ7_3
 41
0.9
  0
TEXT
  5
14D
  8
ETC
  6
CONTINUOUS
 62
    61
 10
572.82217820467145
 20
581.43968024941455
 30
0.0
 40
50.0
  1
VD-10ZJ7
 41
0.9
  0
TEXT
  5
14E
  8
ETC
  6
CONTINUOUS
 62
    61
 10
456.0744743430588
 20
653.81856702588834
 30
0.0
 40
64.0
  1
èÀïCÉ¯
 41
0.9
  0
ENDSEC
  0
EOF
