  0
SECTION
  2
HEADER
  9
$ACADVER
  1
AC1009
  9
$INSBASE
 10
0.0
 20
0.0
 30
0.0
  9
$EXTMIN
 10
-869.66398518959249
 20
-495.71226862691401
 30
-0.0015257624927045
  9
$EXTMAX
 10
968.00538259326095
 20
937.59156116003942
 30
50.001525995323327
  9
$LIMMIN
 10
-2970.0
 20
-2100.0
  9
$LIMMAX
 10
2970.0
 20
2100.0
  9
$ORTHOMODE
 70
     1
  9
$REGENMODE
 70
     0
  9
$FILLMODE
 70
     1
  9
$QTEXTMODE
 70
     0
  9
$MIRRTEXT
 70
     0
  9
$DRAGMODE
 70
     2
  9
$LTSCALE
 40
20.0
  9
$OSMODE
 70
    33
  9
$ATTMODE
 70
     1
  9
$TEXTSIZE
 40
64.0
  9
$TRACEWID
 40
0.05
  9
$TEXTSTYLE
  7
STANDARD
  9
$CLAYER
  8
ETC
  9
$CELTYPE
  6
CONTINUOUS
  9
$CECOLOR
 62
    30
  9
$DIMSCALE
 40
1.0
  9
$DIMASZ
 40
12.0
  9
$DIMEXO
 40
20.0
  9
$DIMDLI
 40
200.0
  9
$DIMRND
 40
0.0
  9
$DIMDLE
 40
0.0
  9
$DIMEXE
 40
20.0
  9
$DIMTP
 40
0.0
  9
$DIMTM
 40
0.0
  9
$DIMTXT
 40
64.0
  9
$DIMCEN
 40
0.09
  9
$DIMTSZ
 40
0.0
  9
$DIMTOL
 70
     0
  9
$DIMLIM
 70
     0
  9
$DIMTIH
 70
     0
  9
$DIMTOH
 70
     0
  9
$DIMSE1
 70
     0
  9
$DIMSE2
 70
     0
  9
$DIMTAD
 70
     1
  9
$DIMZIN
 70
     8
  9
$DIMBLK
  1
DOT1
  9
$DIMASO
 70
     1
  9
$DIMSHO
 70
     0
  9
$DIMPOST
  1

  9
$DIMAPOST
  1

  9
$DIMALT
 70
     0
  9
$DIMALTD
 70
     2
  9
$DIMALTF
 40
25.399999999999999
  9
$DIMLFAC
 40
1.0
  9
$DIMTOFL
 70
     1
  9
$DIMTVP
 40
0.0
  9
$DIMTIX
 70
     1
  9
$DIMSOXD
 70
     0
  9
$DIMSAH
 70
     1
  9
$DIMBLK1
  1
ORIGIN
  9
$DIMBLK2
  1
ORIGIN
  9
$DIMSTYLE
  2
STANDARD
  9
$DIMCLRD
 70
     7
  9
$DIMCLRE
 70
     7
  9
$DIMCLRT
 70
     7
  9
$DIMTFAC
 40
1.0
  9
$DIMGAP
 40
25.0
  9
$LUNITS
 70
     2
  9
$LUPREC
 70
     4
  9
$SKETCHINC
 40
0.1
  9
$FILLETRAD
 40
15.0
  9
$AUNITS
 70
     1
  9
$AUPREC
 70
     3
  9
$MENU
  1
ACAD
  9
$ELEVATION
 40
0.0
  9
$PELEVATION
 40
0.0
  9
$THICKNESS
 40
50.0
  9
$LIMCHECK
 70
     0
  9
$BLIPMODE
 70
     0
  9
$CHAMFERA
 40
0.0
  9
$CHAMFERB
 40
0.0
  9
$SKPOLY
 70
     0
  9
$TDCREATE
 40
2453111.4692612621
  9
$TDUPDATE
 40
2454726.5790911228
  9
$TDINDWG
 40
0.0958278125
  9
$TDUSRTIMER
 40
0.0958276273
  9
$USRTIMER
 70
     1
  9
$ANGBASE
 50
0.0
  9
$ANGDIR
 70
     0
  9
$PDMODE
 70
     3
  9
$PDSIZE
 40
-2.0
  9
$PLINEWID
 40
0.0
  9
$COORDS
 70
     1
  9
$SPLFRAME
 70
     0
  9
$SPLINETYPE
 70
     6
  9
$SPLINESEGS
 70
     8
  9
$ATTDIA
 70
     0
  9
$ATTREQ
 70
     1
  9
$HANDLING
 70
     1
  9
$HANDSEED
  5
301
  9
$SURFTAB1
 70
     6
  9
$SURFTAB2
 70
     6
  9
$SURFTYPE
 70
     6
  9
$SURFU
 70
     6
  9
$SURFV
 70
     6
  9
$UCSNAME
  2

  9
$UCSORG
 10
0.0
 20
0.0
 30
0.0
  9
$UCSXDIR
 10
1.0
 20
0.0
 30
0.0
  9
$UCSYDIR
 10
0.0
 20
1.0
 30
0.0
  9
$PUCSNAME
  2

  9
$PUCSORG
 10
0.0
 20
0.0
 30
0.0
  9
$PUCSXDIR
 10
1.0
 20
0.0
 30
0.0
  9
$PUCSYDIR
 10
0.0
 20
1.0
 30
0.0
  9
$USERI1
 70
     0
  9
$USERI2
 70
     0
  9
$USERI3
 70
     0
  9
$USERI4
 70
     0
  9
$USERI5
 70
     0
  9
$USERR1
 40
20.0
  9
$USERR2
 40
0.0
  9
$USERR3
 40
0.0
  9
$USERR4
 40
0.0
  9
$USERR5
 40
0.0
  9
$WORLDVIEW
 70
     1
  9
$SHADEDGE
 70
     3
  9
$SHADEDIF
 70
    70
  9
$TILEMODE
 70
     1
  9
$MAXACTVP
 70
    48
  9
$PLIMCHECK
 70
     0
  9
$PEXTMIN
 10
-1.0000000000000000E+020
 20
-1.0000000000000000E+020
 30
-1.0000000000000000E+020
  9
$PEXTMAX
 10
1.0000000000000000E+020
 20
1.0000000000000000E+020
 30
1.0000000000000000E+020
  9
$PLIMMIN
 10
0.0
 20
0.0
  9
$PLIMMAX
 10
12.0
 20
9.0
  9
$UNITMODE
 70
     0
  9
$VISRETAIN
 70
     0
  9
$PLINEGEN
 70
     0
  9
$PSLTSCALE
 70
     0
  0
ENDSEC
  0
SECTION
  2
TABLES
  0
TABLE
  2
VPORT
 70
     1
  0
VPORT
  2
*ACTIVE
 70
     0
 10
0.0
 20
0.0
 11
1.0
 21
1.0
 12
49.17069870183429
 22
220.9396462665627
 13
0.0
 23
0.0
 14
1.0
 24
1.0
 15
0.0
 25
0.0
 16
0.0
 26
0.0
 36
1.0
 17
0.0
 27
0.0
 37
0.0
 40
1445.3483997851631
 41
1.771388499298737
 42
50.0
 43
0.0
 44
0.0
 50
0.0
 51
0.0
 71
     0
 72
  1000
 73
     1
 74
     0
 75
     0
 76
     0
 77
     0
 78
     0
  0
ENDTAB
  0
TABLE
  2
LTYPE
 70
     5
  0
LTYPE
  2
CONTINUOUS
 70
     0
  3
Ä└É³
 72
    65
 73
     0
 40
0.0
  0
LTYPE
  2
DASHDOT
 70
     0
  3
____ _ ____ _ ____ _ ____ _ ____ _ ____ _ ____
 72
    65
 73
     4
 40
5.5
 49
4.0
 49
-0.6
 49
0.3
 49
-0.6
  0
LTYPE
  2
DASHED
 70
     0
  3
-- -- -- -- -- -- -- -- -- -- -- -- -- -- --
 72
    65
 73
     2
 40
0.75
 49
0.5
 49
-0.25
  0
LTYPE
  2
CONTINOUS
 70
     0
  3
Solid line
 72
    65
 73
     0
 40
0.0
  0
ENDTAB
  0
TABLE
  2
LAYER
 70
    12
  0
LAYER
  2
0
 70
     0
 62
     7
  6
CONTINUOUS
  0
LAYER
  2
BASIS
 70
     0
 62
     6
  6
DASHDOT
  0
LAYER
  2
OUTLINE
 70
     0
 62
     3
  6
CONTINUOUS
  0
LAYER
  2
DETAIL
 70
     0
 62
     5
  6
CONTINUOUS
  0
LAYER
  2
SIZE
 70
     0
 62
    30
  6
CONTINUOUS
  0
LAYER
  2
ARRANGE
 70
     0
 62
     1
  6
CONTINUOUS
  0
LAYER
  2
DEFPOINTS
 70
     0
 62
     7
  6
CONTINUOUS
  0
LAYER
  2
ETC
 70
     0
 62
    61
  6
CONTINUOUS
  0
LAYER
  2
FIX
 70
     0
 62
    11
  6
CONTINUOUS
  0
LAYER
  2
NOTE
 70
     0
 62
     4
  6
CONTINUOUS
  0
LAYER
  2
SERVICESPACE
 70
     0
 62
     2
  6
DASHDOT
  0
LAYER
  2
SYMBOLLINE
 70
     0
 62
    15
  6
CONTINUOUS
  0
ENDTAB
  0
TABLE
  2
STYLE
 70
     2
  0
STYLE
  2
STANDARD
 70
     0
 40
64.0
 41
0.9
 50
0.0
 71
     0
 42
64.0
  3
SIMPLEX.shx
  4
BIGFONT.shx
  0
STYLE
  2
ANNOTATIVE
 70
     0
 40
0.0
 41
1.0
 50
0.0
 71
     0
 42
0.2
  3
txt
  4

  0
ENDTAB
  0
TABLE
  2
VIEW
 70
     1
  0
VIEW
  2
ALL
 70
     0
 40
4282.6198079999976
 10
0.0
 20
41.309903999999989
 41
5940.0
 11
0.0
 21
0.0
 31
1.0
 12
0.0
 22
0.0
 32
0.0
 42
50.0
 43
0.0
 44
0.0
 50
0.0
 71
     0
  0
ENDTAB
  0
TABLE
  2
UCS
 70
     0
  0
ENDTAB
  0
TABLE
  2
APPID
 70
     5
  0
APPID
  2
ACAD
 70
     0
  0
APPID
  2
ACADANNOTATIVE
 70
     0
  0
APPID
  2
ACAD_MLEADERVER
 70
     0
  0
APPID
  2
AUTOCAD_POSTSCRIPT_FIGURE
 70
     0
  0
APPID
  2
ACAD_EXEMPT_FROM_CAD_STANDARDS
 70
     0
  0
ENDTAB
  0
TABLE
  2
DIMSTYLE
 70
     2
  0
DIMSTYLE
  2
STANDARD
 70
     0
  3

  4

  5

  6

  7

 40
1.0
 41
0.18
 42
0.0625
 43
0.38
 44
0.18
 45
0.0
 46
0.0
 47
0.0
 48
0.0
140
0.18
141
0.09
142
0.0
143
25.399999999999999
144
1.0
145
0.0
146
1.0
147
0.09
 71
     0
 72
     0
 73
     1
 74
     1
 75
     0
 76
     0
 77
     0
 78
     0
170
     0
171
     2
172
     0
173
     0
174
     0
175
     0
176
     7
177
     7
178
     7
  0
DIMSTYLE
  2
ANNOTATIVE
 70
     0
  3

  4

  5

  6

  7

 40
1.0
 41
0.18
 42
0.0625
 43
0.38
 44
0.18
 45
0.0
 46
0.0
 47
0.0
 48
0.0
140
0.18
141
0.09
142
0.0
143
25.399999999999999
144
1.0
145
0.0
146
1.0
147
0.09
 71
     0
 72
     0
 73
     1
 74
     1
 75
     0
 76
     0
 77
     0
 78
     0
170
     0
171
     2
172
     0
173
     0
174
     0
175
     0
176
     0
177
     0
178
     0
  0
ENDTAB
  0
ENDSEC
  0
SECTION
  2
BLOCKS
  0
BLOCK
  8
0
  2
$MODEL_SPACE
 70
     0
 10
0.0
 20
0.0
 30
0.0
  3
$MODEL_SPACE
  1

  0
ENDBLK
  5
2A8
  8
0
  0
BLOCK
 67
     1
  8
0
  2
$PAPER_SPACE
 70
     0
 10
0.0
 20
0.0
 30
0.0
  3
$PAPER_SPACE
  1

  0
ENDBLK
  5
2A4
 67
     1
  8
0
  0
BLOCK
  8
0
  2
DOT1
 70
     0
 10
0.0
 20
0.0
 30
0.0
  3
DOT1
  1

  0
CIRCLE
  5
38
  8
SIZE
  6
CONTINUOUS
 62
     7
 10
0.0
 20
0.0
 30
0.0
 40
3.0
  0
ENDBLK
  5
39
  8
0
  0
BLOCK
  8
0
  2
_ORIGIN
 70
     0
 10
0.0
 20
0.0
 30
0.0
  3
_ORIGIN
  1

  0
CIRCLE
  5
3C
  8
0
  6
CONTINUOUS
 62
     7
 10
0.0
 20
0.0
 30
0.0
 40
0.5
  0
LINE
  5
3D
  8
0
  6
CONTINUOUS
 62
     7
 10
0.0
 20
0.0
 30
0.0
 11
-1.0
 21
0.0
 31
0.0
  0
ENDBLK
  5
3E
  8
0
  0
ENDSEC
  0
SECTION
  2
ENTITIES
  0
LINE
  5
41
  8
DETAIL
  6
CONTINUOUS
 62
     5
 10
89.500000000000014
 20
179.49999999999989
 30
0.0
 11
89.500000000000014
 21
0.0
 31
0.0
  0
LINE
  5
42
  8
DETAIL
  6
CONTINUOUS
 62
     5
 10
116.5
 20
186.5
 30
0.0
 11
116.5
 21
182.5
 31
0.0
  0
LINE
  5
43
  8
DETAIL
  6
CONTINUOUS
 62
     5
 10
116.5
 20
186.5
 30
0.0
 11
90.5
 21
186.5
 31
0.0
  0
LINE
  5
44
  8
DETAIL
  6
CONTINUOUS
 62
     5
 10
-116.5
 20
186.5
 30
0.0
 11
-116.5
 21
182.5
 31
0.0
  0
LINE
  5
45
  8
DETAIL
  6
CONTINUOUS
 62
     5
 10
-89.500000000000014
 20
179.49999999999989
 30
0.0
 11
-89.500000000000014
 21
0.0
 31
0.0
  0
LINE
  5
46
  8
DETAIL
  6
CONTINUOUS
 62
     5
 10
-116.5
 20
186.5
 30
0.0
 11
-90.5
 21
186.5
 31
0.0
  0
LINE
  5
47
  8
NOTE
  6
CONTINUOUS
 62
     4
 10
98.500000000000014
 20
-20.0
 30
0.0
 11
98.500000000000014
 21
20.0
 31
0.0
  0
LINE
  5
48
  8
NOTE
  6
CONTINUOUS
 62
     4
 10
78.5
 20
0.0
 30
0.0
 11
118.5
 21
0.0
 31
0.0
  0
CIRCLE
  5
49
  8
FIX
  6
CONTINUOUS
 62
    11
 39
50.0
 10
98.500000000000014
 20
0.0
 30
0.0
 40
2.5
  0
CIRCLE
  5
4A
  8
FIX
  6
CONTINUOUS
 62
    11
 39
50.0
 10
65.0
 20
0.0
 30
0.0
 40
2.5
  0
LINE
  5
4B
  8
NOTE
  6
CONTINUOUS
 62
     4
 10
65.0
 20
-20.0
 30
0.0
 11
65.0
 21
20.0
 31
0.0
  0
LINE
  5
4C
  8
NOTE
  6
CONTINUOUS
 62
     4
 10
45.0
 20
0.0
 30
0.0
 11
85.0
 21
0.0
 31
0.0
  0
CIRCLE
  5
4D
  8
FIX
  6
CONTINUOUS
 62
    11
 39
50.0
 10
-65.0
 20
0.0
 30
0.0
 40
2.5
  0
LINE
  5
4E
  8
NOTE
  6
CONTINUOUS
 62
     4
 10
-65.0
 20
-20.0
 30
0.0
 11
-65.0
 21
20.0
 31
0.0
  0
LINE
  5
4F
  8
NOTE
  6
CONTINUOUS
 62
     4
 10
-85.0
 20
0.0
 30
0.0
 11
-45.0
 21
0.0
 31
0.0
  0
CIRCLE
  5
50
  8
FIX
  6
CONTINUOUS
 62
    11
 39
50.0
 10
103.0
 20
186.5
 30
0.0
 40
7.5
  0
CIRCLE
  5
51
  8
FIX
  6
CONTINUOUS
 62
    11
 39
50.0
 10
-103.0
 20
186.5
 30
0.0
 40
7.5
  0
LINE
  5
52
  8
NOTE
  6
CONTINUOUS
 62
     4
 10
-98.500000000000014
 20
-20.0
 30
0.0
 11
-98.500000000000014
 21
20.0
 31
0.0
  0
LINE
  5
53
  8
NOTE
  6
CONTINUOUS
 62
     4
 10
-118.5
 20
0.0
 30
0.0
 11
-78.5
 21
0.0
 31
0.0
  0
CIRCLE
  5
54
  8
FIX
  6
CONTINUOUS
 62
    11
 39
50.0
 10
-98.500000000000014
 20
0.0
 30
0.0
 40
2.5
  0
LINE
  5
55
  8
NOTE
  6
CONTINUOUS
 62
     4
 10
-123.0
 20
186.5
 30
0.0
 11
-83.0
 21
186.5
 31
0.0
  0
LINE
  5
56
  8
NOTE
  6
CONTINUOUS
 62
     4
 10
-103.0
 20
206.49999999999989
 30
0.0
 11
-103.0
 21
166.5
 31
0.0
  0
LINE
  5
57
  8
NOTE
  6
CONTINUOUS
 62
     4
 10
103.0
 20
206.49999999999989
 30
0.0
 11
103.0
 21
166.5
 31
0.0
  0
LINE
  5
58
  8
NOTE
  6
CONTINUOUS
 62
     4
 10
123.0
 20
186.5
 30
0.0
 11
83.0
 21
186.5
 31
0.0
  0
LINE
  5
5B
  8
NOTE
  6
CONTINUOUS
 62
     4
 10
-227.01253199999999
 20
-352.955423
 30
0.0
 11
-642.75782900000002
 21
-352.955423
 31
0.0
  0
TEXT
  5
5C
  8
NOTE
  6
CONTINUOUS
 62
     4
 10
-630.26397099999997
 20
-329.35449599999993
 30
0.0
 40
64.0
  1
8-âË5ü~10
 41
0.9
  0
LINE
  5
5D
  8
NOTE
  6
CONTINUOUS
 62
     4
 10
-228.31573700000001
 20
314.44628799999992
 30
0.0
 11
-869.44730900000002
 21
314.44628799999992
 31
0.0
  0
TEXT
  5
5E
  8
NOTE
  6
CONTINUOUS
 62
     4
 10
-855.69089499999984
 20
346.50287099999991
 30
0.0
 40
64.0
  1
AH 2-âË15ü~22
 41
0.9
  0
LINE
  5
5F
  8
DETAIL
  6
CONTINUOUS
 62
     5
 10
65.5
 20
207.0
 30
0.0
 11
-85.5
 21
207.0
 31
0.0
  0
LINE
  5
60
  8
DETAIL
  6
CONTINUOUS
 62
     5
 10
-39.5
 20
207.0
 30
0.0
 11
-20.5
 21
207.0
 31
0.0
  0
LINE
  5
61
  8
DETAIL
  6
CONTINUOUS
 62
     5
 10
-116.5
 20
182.5
 30
0.0
 11
-92.5
 21
182.5
 31
0.0
  0
LINE
  5
62
  8
DETAIL
  6
CONTINUOUS
 62
     5
 10
-85.5
 20
181.49999999999989
 30
0.0
 11
-85.5
 21
178.5
 31
0.0
  0
LINE
  5
63
  8
DETAIL
  6
CONTINUOUS
 62
     5
 10
116.5
 20
182.5
 30
0.0
 11
92.5
 21
182.5
 31
0.0
  0
ARC
  5
64
  8
DETAIL
  6
CONTINUOUS
 62
     5
 10
-90.5
 20
181.49999999999989
 30
0.0
 40
5.0
 50
0.0
 51
90.0
  0
ARC
  5
65
  8
DETAIL
  6
CONTINUOUS
 62
     5
 10
90.5
 20
181.49999999999989
 30
0.0
 40
5.0
 50
90.0
 51
180.0
  0
ARC
  5
66
  8
DETAIL
  6
CONTINUOUS
 62
     5
 10
-92.5
 20
179.49999999999989
 30
0.0
 40
3.0
 50
0.0
 51
90.0
  0
ARC
  5
67
  8
DETAIL
  6
CONTINUOUS
 62
     5
 10
92.5
 20
179.49999999999989
 30
0.0
 40
3.0
 50
90.0
 51
180.0
  0
POINT
  5
68
  8
ARRANGE
  6
CONTINUOUS
 62
     1
 10
0.0
 20
0.0
 30
0.0
  0
CIRCLE
  5
69
  8
ARRANGE
  6
CONTINUOUS
 62
     1
 10
0.0
 20
0.0
 30
0.0
 40
40.0
  0
LINE
  5
6A
  8
DETAIL
  6
CONTINUOUS
 62
     5
 10
-17.5
 20
218.0
 30
0.0
 11
37.5
 21
218.0
 31
0.0
  0
ARC
  5
6B
  8
DETAIL
  6
CONTINUOUS
 62
     5
 10
-17.5
 20
215.0
 30
0.0
 40
3.0
 50
90.0
 51
180.0
  0
LINE
  5
6C
  8
DETAIL
  6
CONTINUOUS
 62
     5
 10
-20.5
 20
215.0
 30
0.0
 11
-20.5
 21
207.0
 31
0.0
  0
ARC
  5
6D
  8
DETAIL
  6
CONTINUOUS
 62
     5
 10
37.5
 20
215.0
 30
0.0
 40
3.0
 50
0.0
 51
90.0
  0
LINE
  5
6E
  8
DETAIL
  6
CONTINUOUS
 62
     5
 10
40.499999999999993
 20
215.0
 30
0.0
 11
40.499999999999993
 21
207.0
 31
0.0
  0
LINE
  5
6F
  8
DETAIL
  6
CONTINUOUS
 62
     5
 10
-85.5
 20
0.0
 30
0.0
 11
-85.5
 21
207.0
 31
0.0
  0
LINE
  5
70
  8
DETAIL
  6
CONTINUOUS
 62
     5
 10
82.0
 20
-15.0
 30
0.0
 11
-82.0
 21
-15.0
 31
0.0
  0
LINE
  5
71
  8
DETAIL
  6
CONTINUOUS
 62
     5
 10
-82.0
 20
-8.0
 30
0.0
 11
82.0
 21
-8.0
 31
0.0
  0
LINE
  5
72
  8
DETAIL
  6
CONTINUOUS
 62
     5
 10
125.0
 20
0.0
 30
0.0
 11
-125.0
 21
0.0
 31
0.0
  0
ARC
  5
73
  8
DETAIL
  6
CONTINUOUS
 62
     5
 10
-83.499999999999986
 20
165.0
 30
0.0
 40
180.0
 50
257.69778400000001
 51
270.0
  0
LINE
  5
74
  8
DETAIL
  6
CONTINUOUS
 62
     5
 10
-83.499999999999986
 20
-8.0
 30
0.0
 11
-118.28852999999999
 21
-8.0
 31
0.0
  0
LINE
  5
75
  8
DETAIL
  6
CONTINUOUS
 62
     5
 10
-125.0
 20
0.0
 30
0.0
 11
-125.0
 21
-6.9585710000000001
 31
0.0
  0
ARC
  5
76
  8
DETAIL
  6
CONTINUOUS
 62
     5
 10
-121.0
 20
-6.9585710000000001
 30
0.0
 40
4.0
 50
180.0
 51
257.69778400000001
  0
LINE
  5
77
  8
DETAIL
  6
CONTINUOUS
 62
     5
 10
-83.499999999999986
 20
-14.0
 30
0.0
 11
-82.0
 21
-14.0
 31
0.0
  0
LINE
  5
78
  8
DETAIL
  6
CONTINUOUS
 62
     5
 10
-82.0
 20
-15.0
 30
0.0
 11
-82.0
 21
0.0
 31
0.0
  0
LINE
  5
79
  8
DETAIL
  6
CONTINUOUS
 62
     5
 10
-83.499999999999986
 20
-15.0
 30
0.0
 11
-83.499999999999986
 21
0.0
 31
0.0
  0
LINE
  5
7A
  8
DETAIL
  6
CONTINUOUS
 62
     5
 10
83.499999999999986
 20
-14.0
 30
0.0
 11
82.0
 21
-14.0
 31
0.0
  0
LINE
  5
7B
  8
DETAIL
  6
CONTINUOUS
 62
     5
 10
82.0
 20
-15.0
 30
0.0
 11
82.0
 21
0.0
 31
0.0
  0
ARC
  5
7C
  8
DETAIL
  6
CONTINUOUS
 62
     5
 10
121.0
 20
-6.9585710000000001
 30
0.0
 40
4.0
 50
282.30221599999987
 51
0.0
  0
LINE
  5
7D
  8
DETAIL
  6
CONTINUOUS
 62
     5
 10
125.0
 20
0.0
 30
0.0
 11
125.0
 21
-6.9585710000000001
 31
0.0
  0
LINE
  5
7E
  8
DETAIL
  6
CONTINUOUS
 62
     5
 10
83.499999999999986
 20
-15.0
 30
0.0
 11
83.499999999999986
 21
0.0
 31
0.0
  0
LINE
  5
7F
  8
DETAIL
  6
CONTINUOUS
 62
     5
 10
83.499999999999986
 20
-8.0
 30
0.0
 11
118.28852999999999
 21
-8.0
 31
0.0
  0
ARC
  5
80
  8
DETAIL
  6
CONTINUOUS
 62
     5
 10
83.499999999999986
 20
165.0
 30
0.0
 40
180.0
 50
270.0
 51
282.30221599999987
  0
LINE
  5
81
  8
SIZE
  6
CONTINUOUS
 62
    30
 10
125.0
 20
-26.958570999999999
 30
0.0
 11
125.0
 21
-495.64233999999999
 31
0.0
  0
LINE
  5
82
  8
SIZE
  6
CONTINUOUS
 62
    30
 10
-125.0
 20
-26.958570999999999
 30
0.0
 11
-125.0
 21
-495.64233999999999
 31
0.0
  0
LINE
  5
83
  8
SIZE
  6
CONTINUOUS
 62
    30
 10
137.0
 20
-475.64233999999999
 30
0.0
 11
149.0
 21
-475.64233999999999
 31
0.0
  0
LINE
  5
84
  8
SIZE
  6
CONTINUOUS
 62
    30
 10
-137.0
 20
-475.64233999999999
 30
0.0
 11
-149.0
 21
-475.64233999999999
 31
0.0
  0
LINE
  5
85
  8
SIZE
  6
CONTINUOUS
 62
    30
 10
125.0
 20
-475.64233999999999
 30
0.0
 11
-125.0
 21
-475.64233999999999
 31
0.0
  0
CIRCLE
  5
86
  8
SIZE
  6
CONTINUOUS
 62
    30
 10
125.0
 20
-475.64233999999999
 30
0.0
 40
6.0
  0
LINE
  5
87
  8
SIZE
  6
CONTINUOUS
 62
    30
 10
125.0
 20
-475.64233999999999
 30
0.0
 11
137.0
 21
-475.64233999999999
 31
0.0
  0
CIRCLE
  5
88
  8
SIZE
  6
CONTINUOUS
 62
    30
 10
-125.0
 20
-475.64233999999999
 30
0.0
 40
6.0
  0
LINE
  5
89
  8
SIZE
  6
CONTINUOUS
 62
    30
 10
-125.0
 20
-475.64233999999999
 30
0.0
 11
-137.0
 21
-475.64233999999999
 31
0.0
  0
TEXT
  5
8A
  8
SIZE
  6
CONTINUOUS
 62
    30
 10
-110.5371428571428
 20
-450.64233999999999
 30
0.0
 40
64.0
  1
üá250
 41
0.9
 72
     1
 11
0.0
 21
-450.64233999999999
 31
0.0
  0
LINE
  5
8E
  8
SIZE
  6
CONTINUOUS
 62
    30
 10
98.500000000000014
 20
-40.0
 30
0.0
 11
98.500000000000014
 21
-367.21926200000001
 31
0.0
  0
LINE
  5
8F
  8
SIZE
  6
CONTINUOUS
 62
    30
 10
-98.500000000000014
 20
-40.0
 30
0.0
 11
-98.500000000000014
 21
-367.21926200000001
 31
0.0
  0
LINE
  5
90
  8
SIZE
  6
CONTINUOUS
 62
    30
 10
86.5
 20
-347.21926200000001
 30
0.0
 11
-86.5
 21
-347.21926200000001
 31
0.0
  0
CIRCLE
  5
91
  8
SIZE
  6
CONTINUOUS
 62
    30
 10
98.500000000000014
 20
-347.21926200000001
 30
0.0
 40
6.0
  0
LINE
  5
92
  8
SIZE
  6
CONTINUOUS
 62
    30
 10
98.500000000000014
 20
-347.21926200000001
 30
0.0
 11
86.5
 21
-347.21926200000001
 31
0.0
  0
CIRCLE
  5
93
  8
SIZE
  6
CONTINUOUS
 62
    30
 10
-98.500000000000014
 20
-347.21926200000001
 30
0.0
 40
6.0
  0
LINE
  5
94
  8
SIZE
  6
CONTINUOUS
 62
    30
 10
-98.500000000000014
 20
-347.21926200000001
 30
0.0
 11
-86.5
 21
-347.21926200000001
 31
0.0
  0
TEXT
  5
95
  8
SIZE
  6
CONTINUOUS
 62
    30
 10
-68.571428571428569
 20
-322.21926200000001
 30
0.0
 40
64.0
  1
197
 41
0.9
 72
     1
 11
0.0
 21
-322.21926200000001
 31
0.0
  0
LINE
  5
99
  8
SIZE
  6
CONTINUOUS
 62
    30
 10
65.0
 20
-40.0
 30
0.0
 11
65.0
 21
-239.893821
 31
0.0
  0
LINE
  5
9A
  8
SIZE
  6
CONTINUOUS
 62
    30
 10
-65.0
 20
-40.0
 30
0.0
 11
-65.0
 21
-239.893821
 31
0.0
  0
LINE
  5
9B
  8
SIZE
  6
CONTINUOUS
 62
    30
 10
77.0
 20
-219.893821
 30
0.0
 11
89.0
 21
-219.893821
 31
0.0
  0
LINE
  5
9C
  8
SIZE
  6
CONTINUOUS
 62
    30
 10
-77.0
 20
-219.893821
 30
0.0
 11
-89.0
 21
-219.893821
 31
0.0
  0
LINE
  5
9D
  8
SIZE
  6
CONTINUOUS
 62
    30
 10
65.0
 20
-219.893821
 30
0.0
 11
-65.0
 21
-219.893821
 31
0.0
  0
CIRCLE
  5
9E
  8
SIZE
  6
CONTINUOUS
 62
    30
 10
65.0
 20
-219.893821
 30
0.0
 40
6.0
  0
LINE
  5
9F
  8
SIZE
  6
CONTINUOUS
 62
    30
 10
65.0
 20
-219.893821
 30
0.0
 11
77.0
 21
-219.893821
 31
0.0
  0
CIRCLE
  5
A0
  8
SIZE
  6
CONTINUOUS
 62
    30
 10
-65.0
 20
-219.893821
 30
0.0
 40
6.0
  0
LINE
  5
A1
  8
SIZE
  6
CONTINUOUS
 62
    30
 10
-65.0
 20
-219.893821
 30
0.0
 11
-77.0
 21
-219.893821
 31
0.0
  0
TEXT
  5
A2
  8
SIZE
  6
CONTINUOUS
 62
    30
 10
-68.571428571428569
 20
-194.893821
 30
0.0
 40
64.0
  1
130
 41
0.9
 72
     1
 11
0.0
 21
-194.893821
 31
0.0
  0
LINE
  5
A6
  8
SIZE
  6
CONTINUOUS
 62
    30
 10
145.0
 20
0.0
 30
0.0
 11
701.20638699999995
 21
0.0
 31
0.0
  0
LINE
  5
A7
  8
SIZE
  6
CONTINUOUS
 62
    30
 10
105.4999999999999
 20
178.5
 30
0.0
 11
701.20638699999995
 21
178.5
 31
0.0
  0
LINE
  5
A8
  8
SIZE
  6
CONTINUOUS
 62
    30
 10
681.20638700000018
 20
12.0
 30
0.0
 11
681.20638700000018
 21
166.5
 31
0.0
  0
LINE
  5
A9
  8
SIZE
  6
CONTINUOUS
 62
    30
 10
681.20638700000018
 20
-294.39790399999993
 30
0.0
 11
681.20638700000018
 21
0.0
 31
0.0
  0
TEXT
  5
AA
  8
SIZE
  6
CONTINUOUS
 62
    30
 10
656.20638700000018
 20
-269.39790371428558
 30
0.0
 40
64.0
  1
178.5
 50
90.0
 41
0.9
 72
     1
 11
656.20638700000018
 21
-159.68361799999991
 31
0.0
  0
CIRCLE
  5
AB
  8
SIZE
  6
CONTINUOUS
 62
    30
 10
681.20638700000018
 20
0.0
 30
0.0
 40
6.0
  0
LINE
  5
AC
  8
SIZE
  6
CONTINUOUS
 62
    30
 10
681.20638700000018
 20
0.0
 30
0.0
 11
681.20638700000018
 21
12.0
 31
0.0
  0
CIRCLE
  5
AD
  8
SIZE
  6
CONTINUOUS
 62
    30
 10
681.20638700000018
 20
178.5
 30
0.0
 40
6.0
  0
LINE
  5
AE
  8
SIZE
  6
CONTINUOUS
 62
    30
 10
681.20638700000018
 20
178.5
 30
0.0
 11
681.20638700000018
 21
166.5
 31
0.0
  0
LINE
  5
B2
  8
SIZE
  6
CONTINUOUS
 62
    30
 10
-145.0
 20
0.0
 30
0.0
 11
-512.70040400000005
 21
0.0
 31
0.0
  0
LINE
  5
B3
  8
SIZE
  6
CONTINUOUS
 62
    30
 10
-37.5
 20
218.0
 30
0.0
 11
-512.70040400000005
 21
218.0
 31
0.0
  0
LINE
  5
B4
  8
SIZE
  6
CONTINUOUS
 62
    30
 10
-492.70040399999988
 20
12.0
 30
0.0
 11
-492.70040399999988
 21
206.0
 31
0.0
  0
CIRCLE
  5
B5
  8
SIZE
  6
CONTINUOUS
 62
    30
 10
-492.70040399999988
 20
0.0
 30
0.0
 40
6.0
  0
LINE
  5
B6
  8
SIZE
  6
CONTINUOUS
 62
    30
 10
-492.70040399999988
 20
0.0
 30
0.0
 11
-492.70040399999988
 21
12.0
 31
0.0
  0
CIRCLE
  5
B7
  8
SIZE
  6
CONTINUOUS
 62
    30
 10
-492.70040399999988
 20
218.0
 30
0.0
 40
6.0
  0
LINE
  5
B8
  8
SIZE
  6
CONTINUOUS
 62
    30
 10
-492.70040399999988
 20
218.0
 30
0.0
 11
-492.70040399999988
 21
206.0
 31
0.0
  0
TEXT
  5
B9
  8
SIZE
  6
CONTINUOUS
 62
    30
 10
-517.70040400000005
 20
40.428571428571438
 30
0.0
 40
64.0
  1
218
 50
90.0
 41
0.9
 72
     1
 11
-517.70040400000005
 21
109.0
 31
0.0
  0
LINE
  5
BD
  8
SIZE
  6
CONTINUOUS
 62
    30
 10
-145.0
 20
0.0
 30
0.0
 11
-512.70040400000005
 21
0.0
 31
0.0
  0
LINE
  5
BE
  8
SIZE
  6
CONTINUOUS
 62
    30
 10
-103.4999999999999
 20
-15.0
 30
0.0
 11
-512.70040400000005
 21
-15.0
 31
0.0
  0
LINE
  5
BF
  8
SIZE
  6
CONTINUOUS
 62
    30
 10
-492.70040399999988
 20
12.0
 30
0.0
 11
-492.70040399999988
 21
24.0
 31
0.0
  0
LINE
  5
C0
  8
SIZE
  6
CONTINUOUS
 62
    30
 10
-492.70040399999988
 20
-27.0
 30
0.0
 11
-492.70040399999988
 21
-39.0
 31
0.0
  0
LINE
  5
C1
  8
SIZE
  6
CONTINUOUS
 62
    30
 10
-492.70040399999988
 20
-182.70893499999991
 30
0.0
 11
-492.70040399999988
 21
-15.0
 31
0.0
  0
TEXT
  5
C2
  8
SIZE
  6
CONTINUOUS
 62
    30
 10
-517.70040400000005
 20
-157.70893514285709
 30
0.0
 40
64.0
  1
15
 50
90.0
 41
0.9
 72
     1
 11
-517.70040400000005
 21
-116.566078
 31
0.0
  0
LINE
  5
C3
  8
SIZE
  6
CONTINUOUS
 62
    30
 10
-492.70040399999988
 20
0.0
 30
0.0
 11
-492.70040399999988
 21
-15.0
 31
0.0
  0
LINE
  5
C4
  8
SIZE
  6
CONTINUOUS
 62
    30
 10
-492.70040399999988
 20
0.0
 30
0.0
 11
-492.70040399999988
 21
-15.0
 31
0.0
  0
CIRCLE
  5
C5
  8
SIZE
  6
CONTINUOUS
 62
    30
 10
-492.70040399999988
 20
0.0
 30
0.0
 40
6.0
  0
LINE
  5
C6
  8
SIZE
  6
CONTINUOUS
 62
    30
 10
-492.70040399999988
 20
0.0
 30
0.0
 11
-492.70040399999988
 21
12.0
 31
0.0
  0
CIRCLE
  5
C7
  8
SIZE
  6
CONTINUOUS
 62
    30
 10
-492.70040399999988
 20
-15.0
 30
0.0
 40
6.0
  0
LINE
  5
C8
  8
SIZE
  6
CONTINUOUS
 62
    30
 10
-492.70040399999988
 20
-15.0
 30
0.0
 11
-492.70040399999988
 21
-27.0
 31
0.0
  0
LINE
  5
CC
  8
SIZE
  6
CONTINUOUS
 62
    30
 10
-105.4999999999999
 20
207.0
 30
0.0
 11
-394.16677099999993
 21
207.0
 31
0.0
  0
LINE
  5
CD
  8
SIZE
  6
CONTINUOUS
 62
    30
 10
-145.0
 20
0.0
 30
0.0
 11
-394.16677099999993
 21
0.0
 31
0.0
  0
LINE
  5
CE
  8
SIZE
  6
CONTINUOUS
 62
    30
 10
-374.16677099999993
 20
195.0
 30
0.0
 11
-374.16677099999993
 21
12.0
 31
0.0
  0
CIRCLE
  5
CF
  8
SIZE
  6
CONTINUOUS
 62
    30
 10
-374.16677099999993
 20
207.0
 30
0.0
 40
6.0
  0
LINE
  5
D0
  8
SIZE
  6
CONTINUOUS
 62
    30
 10
-374.16677099999993
 20
207.0
 30
0.0
 11
-374.16677099999993
 21
195.0
 31
0.0
  0
CIRCLE
  5
D1
  8
SIZE
  6
CONTINUOUS
 62
    30
 10
-374.16677099999993
 20
0.0
 30
0.0
 40
6.0
  0
LINE
  5
D2
  8
SIZE
  6
CONTINUOUS
 62
    30
 10
-374.16677099999993
 20
0.0
 30
0.0
 11
-374.16677099999993
 21
12.0
 31
0.0
  0
TEXT
  5
D3
  8
SIZE
  6
CONTINUOUS
 62
    30
 10
-399.16677099999993
 20
29.442857142857051
 30
0.0
 40
64.0
  1
207
 50
90.0
 41
0.9
 72
     1
 11
-399.16677099999993
 21
103.4999999999999
 31
0.0
  0
LINE
  5
D7
  8
SIZE
  6
CONTINUOUS
 62
    30
 10
10.0
 20
254.27275899999989
 30
0.0
 11
10.0
 21
443.81680799999992
 31
0.0
  0
LINE
  5
D8
  8
SIZE
  6
CONTINUOUS
 62
    30
 10
0.0
 20
272.19215700000001
 30
0.0
 11
0.0
 21
443.81680799999992
 31
0.0
  0
LINE
  5
D9
  8
SIZE
  6
CONTINUOUS
 62
    30
 10
22.0
 20
423.81680799999992
 30
0.0
 11
34.0
 21
423.81680799999992
 31
0.0
  0
LINE
  5
DA
  8
SIZE
  6
CONTINUOUS
 62
    30
 10
-12.0
 20
423.81680799999992
 30
0.0
 11
-24.0
 21
423.81680799999992
 31
0.0
  0
LINE
  5
DB
  8
SIZE
  6
CONTINUOUS
 62
    30
 10
236.72735199999991
 20
423.81680799999992
 30
0.0
 11
10.0
 21
423.81680799999992
 31
0.0
  0
TEXT
  5
DC
  8
SIZE
  6
CONTINUOUS
 62
    30
 10
129.44163685714281
 20
448.81680799999998
 30
0.0
 40
64.0
  1
10
 41
0.9
 72
     1
 11
170.58449400000001
 21
448.81680799999998
 31
0.0
  0
LINE
  5
DD
  8
SIZE
  6
CONTINUOUS
 62
    30
 10
10.0
 20
423.81680799999992
 30
0.0
 11
0.0
 21
423.81680799999992
 31
0.0
  0
LINE
  5
DE
  8
SIZE
  6
CONTINUOUS
 62
    30
 10
10.0
 20
423.81680799999992
 30
0.0
 11
0.0
 21
423.81680799999992
 31
0.0
  0
CIRCLE
  5
DF
  8
SIZE
  6
CONTINUOUS
 62
    30
 10
10.0
 20
423.81680799999992
 30
0.0
 40
6.0
  0
LINE
  5
E0
  8
SIZE
  6
CONTINUOUS
 62
    30
 10
10.0
 20
423.81680799999992
 30
0.0
 11
22.0
 21
423.81680799999992
 31
0.0
  0
CIRCLE
  5
E1
  8
SIZE
  6
CONTINUOUS
 62
    30
 10
0.0
 20
423.81680799999992
 30
0.0
 40
6.0
  0
LINE
  5
E2
  8
SIZE
  6
CONTINUOUS
 62
    30
 10
0.0
 20
423.81680799999992
 30
0.0
 11
-12.0
 21
423.81680799999992
 31
0.0
  0
LINE
  5
E6
  8
SIZE
  6
CONTINUOUS
 62
    30
 10
40.499999999999993
 20
235.0
 30
0.0
 11
40.499999999999993
 21
560.58267599999999
 31
0.0
  0
LINE
  5
E7
  8
SIZE
  6
CONTINUOUS
 62
    30
 10
-20.5
 20
235.0
 30
0.0
 11
-20.5
 21
560.58267599999999
 31
0.0
  0
LINE
  5
E8
  8
SIZE
  6
CONTINUOUS
 62
    30
 10
52.5
 20
540.58267599999999
 30
0.0
 11
64.5
 21
540.58267599999999
 31
0.0
  0
LINE
  5
E9
  8
SIZE
  6
CONTINUOUS
 62
    30
 10
-32.5
 20
540.58267599999999
 30
0.0
 11
-44.5
 21
540.58267599999999
 31
0.0
  0
LINE
  5
EA
  8
SIZE
  6
CONTINUOUS
 62
    30
 10
281.27719500000001
 20
540.58267599999999
 30
0.0
 11
40.499999999999993
 21
540.58267599999999
 31
0.0
  0
TEXT
  5
EB
  8
SIZE
  6
CONTINUOUS
 62
    30
 10
121.3286237142856
 20
565.58267599999999
 30
0.0
 40
64.0
  1
âË61
 41
0.9
 72
     1
 11
195.93433799999991
 21
565.58267599999999
 31
0.0
  0
LINE
  5
EC
  8
SIZE
  6
CONTINUOUS
 62
    30
 10
40.499999999999993
 20
540.58267599999999
 30
0.0
 11
-20.5
 21
540.58267599999999
 31
0.0
  0
LINE
  5
ED
  8
SIZE
  6
CONTINUOUS
 62
    30
 10
40.499999999999993
 20
540.58267599999999
 30
0.0
 11
-20.5
 21
540.58267599999999
 31
0.0
  0
CIRCLE
  5
EE
  8
SIZE
  6
CONTINUOUS
 62
    30
 10
40.499999999999993
 20
540.58267599999999
 30
0.0
 40
6.0
  0
LINE
  5
EF
  8
SIZE
  6
CONTINUOUS
 62
    30
 10
40.499999999999993
 20
540.58267599999999
 30
0.0
 11
52.5
 21
540.58267599999999
 31
0.0
  0
CIRCLE
  5
F0
  8
SIZE
  6
CONTINUOUS
 62
    30
 10
-20.5
 20
540.58267599999999
 30
0.0
 40
6.0
  0
LINE
  5
F1
  8
SIZE
  6
CONTINUOUS
 62
    30
 10
-20.5
 20
540.58267599999999
 30
0.0
 11
-32.5
 21
540.58267599999999
 31
0.0
  0
LINE
  5
F5
  8
SIZE
  6
CONTINUOUS
 62
    30
 10
85.5
 20
201.5
 30
0.0
 11
85.5
 21
742.34376099999974
 31
0.0
  0
LINE
  5
F6
  8
SIZE
  6
CONTINUOUS
 62
    30
 10
-85.5
 20
227.0
 30
0.0
 11
-85.5
 21
742.34376099999974
 31
0.0
  0
LINE
  5
F7
  8
SIZE
  6
CONTINUOUS
 62
    30
 10
97.5
 20
722.3437610000002
 30
0.0
 11
109.4999999999999
 21
722.3437610000002
 31
0.0
  0
LINE
  5
F8
  8
SIZE
  6
CONTINUOUS
 62
    30
 10
-97.5
 20
722.3437610000002
 30
0.0
 11
-109.4999999999999
 21
722.3437610000002
 31
0.0
  0
LINE
  5
F9
  8
SIZE
  6
CONTINUOUS
 62
    30
 10
85.5
 20
722.3437610000002
 30
0.0
 11
-85.5
 21
722.3437610000002
 31
0.0
  0
CIRCLE
  5
FA
  8
SIZE
  6
CONTINUOUS
 62
    30
 10
85.5
 20
722.3437610000002
 30
0.0
 40
6.0
  0
LINE
  5
FB
  8
SIZE
  6
CONTINUOUS
 62
    30
 10
85.5
 20
722.3437610000002
 30
0.0
 11
97.5
 21
722.3437610000002
 31
0.0
  0
CIRCLE
  5
FC
  8
SIZE
  6
CONTINUOUS
 62
    30
 10
-85.5
 20
722.3437610000002
 30
0.0
 40
6.0
  0
LINE
  5
FD
  8
SIZE
  6
CONTINUOUS
 62
    30
 10
-85.5
 20
722.3437610000002
 30
0.0
 11
-97.5
 21
722.3437610000002
 31
0.0
  0
TEXT
  5
FE
  8
SIZE
  6
CONTINUOUS
 62
    30
 10
-92.708571428571446
 20
747.3437610000002
 30
0.0
 40
64.0
  1
üá171
 41
0.9
 72
     1
 11
0.0
 21
747.3437610000002
 31
0.0
  0
LINE
  5
102
  8
SIZE
  6
CONTINUOUS
 62
    30
 10
103.0
 20
226.5
 30
0.0
 11
103.0
 21
868.5720960000001
 31
0.0
  0
LINE
  5
103
  8
SIZE
  6
CONTINUOUS
 62
    30
 10
-103.0
 20
226.5
 30
0.0
 11
-103.0
 21
868.5720960000001
 31
0.0
  0
LINE
  5
104
  8
SIZE
  6
CONTINUOUS
 62
    30
 10
91.0
 20
848.5720960000001
 30
0.0
 11
-91.0
 21
848.5720960000001
 31
0.0
  0
CIRCLE
  5
105
  8
SIZE
  6
CONTINUOUS
 62
    30
 10
103.0
 20
848.5720960000001
 30
0.0
 40
6.0
  0
LINE
  5
106
  8
SIZE
  6
CONTINUOUS
 62
    30
 10
103.0
 20
848.5720960000001
 30
0.0
 11
91.0
 21
848.5720960000001
 31
0.0
  0
CIRCLE
  5
107
  8
SIZE
  6
CONTINUOUS
 62
    30
 10
-103.0
 20
848.5720960000001
 30
0.0
 40
6.0
  0
LINE
  5
108
  8
SIZE
  6
CONTINUOUS
 62
    30
 10
-103.0
 20
848.5720960000001
 30
0.0
 11
-91.0
 21
848.5720960000001
 31
0.0
  0
TEXT
  5
109
  8
SIZE
  6
CONTINUOUS
 62
    30
 10
-72.685714285714283
 20
873.5720960000001
 30
0.0
 40
64.0
  1
206
 41
0.9
 72
     1
 11
0.0
 21
873.5720960000001
 31
0.0
  0
LINE
  5
10D
  8
NOTE
  6
CONTINUOUS
 62
     4
 10
-98.500000000000014
 20
0.0
 30
0.0
 11
-227.01253199999999
 21
-352.955423
 31
0.0
  0
LINE
  5
10E
  8
NOTE
  6
CONTINUOUS
 62
     4
 10
-121.618894
 20
-32.642254000000001
 30
0.0
 11
-98.500000000000014
 21
0.0
 31
0.0
  0
LINE
  5
10F
  8
NOTE
  6
CONTINUOUS
 62
     4
 10
-98.500000000000014
 20
0.0
 30
0.0
 11
-102.200423
 21
-39.828468000000001
 31
0.0
  0
LINE
  5
110
  8
DETAIL
  6
CONTINUOUS
 62
     5
 10
63.5
 20
172.0
 30
0.0
 11
63.5
 21
207.0
 31
0.0
  0
LINE
  5
111
  8
DETAIL
  6
CONTINUOUS
 62
     5
 10
85.5
 20
0.0
 30
0.0
 11
85.5
 21
181.49999999999989
 31
0.0
  0
LINE
  5
112
  8
DETAIL
  6
CONTINUOUS
 62
     5
 10
65.5
 20
178.5
 30
0.0
 11
85.5
 21
178.5
 31
0.0
  0
LINE
  5
113
  8
DETAIL
  6
CONTINUOUS
 62
     5
 10
65.5
 20
168.5
 30
0.0
 11
85.5
 21
168.5
 31
0.0
  0
LINE
  5
114
  8
SIZE
  6
CONTINUOUS
 62
    30
 10
105.4999999999999
 20
178.5
 30
0.0
 11
701.20638699999995
 21
178.5
 31
0.0
  0
LINE
  5
115
  8
SIZE
  6
CONTINUOUS
 62
    30
 10
143.0
 20
186.5
 30
0.0
 11
701.20638699999995
 21
186.5
 31
0.0
  0
LINE
  5
116
  8
SIZE
  6
CONTINUOUS
 62
    30
 10
681.20638700000018
 20
166.5
 30
0.0
 11
681.20638700000018
 21
154.4999999999998
 31
0.0
  0
LINE
  5
117
  8
SIZE
  6
CONTINUOUS
 62
    30
 10
681.20638700000018
 20
198.5
 30
0.0
 11
681.20638700000018
 21
210.49999999999989
 31
0.0
  0
LINE
  5
118
  8
SIZE
  6
CONTINUOUS
 62
    30
 10
681.20638700000018
 20
300.84842099999992
 30
0.0
 11
681.20638700000018
 21
186.5
 31
0.0
  0
TEXT
  5
119
  8
SIZE
  6
CONTINUOUS
 62
    30
 10
656.20638700000018
 20
237.448421
 30
0.0
 40
64.0
  1
8
 50
90.0
 41
0.9
 72
     1
 11
656.20638700000018
 21
256.64842099999998
 31
0.0
  0
LINE
  5
11A
  8
SIZE
  6
CONTINUOUS
 62
    30
 10
681.20638700000018
 20
178.5
 30
0.0
 11
681.20638700000018
 21
186.5
 31
0.0
  0
LINE
  5
11B
  8
SIZE
  6
CONTINUOUS
 62
    30
 10
681.20638700000018
 20
178.5
 30
0.0
 11
681.20638700000018
 21
186.5
 31
0.0
  0
CIRCLE
  5
11C
  8
SIZE
  6
CONTINUOUS
 62
    30
 10
681.20638700000018
 20
178.5
 30
0.0
 40
6.0
  0
LINE
  5
11D
  8
SIZE
  6
CONTINUOUS
 62
    30
 10
681.20638700000018
 20
178.5
 30
0.0
 11
681.20638700000018
 21
166.5
 31
0.0
  0
CIRCLE
  5
11E
  8
SIZE
  6
CONTINUOUS
 62
    30
 10
681.20638700000018
 20
186.5
 30
0.0
 40
6.0
  0
LINE
  5
11F
  8
SIZE
  6
CONTINUOUS
 62
    30
 10
681.20638700000018
 20
186.5
 30
0.0
 11
681.20638700000018
 21
198.5
 31
0.0
  0
LINE
  5
123
  8
NOTE
  6
CONTINUOUS
 62
     4
 10
-103.0
 20
186.5
 30
0.0
 11
-228.31573700000001
 21
314.44628799999992
 31
0.0
  0
LINE
  5
124
  8
NOTE
  6
CONTINUOUS
 62
     4
 10
-123.17701099999999
 20
221.03821400000001
 30
0.0
 11
-103.0
 21
186.5
 31
0.0
  0
LINE
  5
125
  8
NOTE
  6
CONTINUOUS
 62
     4
 10
-103.0
 20
186.5
 30
0.0
 11
-137.74291099999999
 21
206.32246499999991
 31
0.0
  0
ARC
  5
12B
  8
DETAIL
  6
CONTINUOUS
 62
     5
 10
-50.5
 20
172.0
 30
0.0
 40
35.0
 50
90.0
 51
180.0
  0
ARC
  5
12C
  8
DETAIL
  6
CONTINUOUS
 62
     5
 10
28.5
 20
172.0
 30
0.0
 40
35.0
 50
0.0
 51
90.0
  0
LINE
  5
12D
  8
DETAIL
  6
CONTINUOUS
 62
     5
 10
-59.0
 20
85.0
 30
0.0
 11
-11.0
 21
85.0
 31
0.0
  0
LINE
  5
12E
  8
DETAIL
  6
CONTINUOUS
 62
     5
 10
-53.5
 20
140.0
 30
0.0
 11
-11.0
 21
140.0
 31
0.0
  0
ARC
  5
12F
  8
DETAIL
  6
CONTINUOUS
 62
     5
 10
-11.0
 20
140.0
 30
0.0
 40
53.0
 50
90.0
 51
270.0
  0
ARC
  5
130
  8
DETAIL
  6
CONTINUOUS
 62
     5
 10
-11.0
 20
140.0
 30
0.0
 40
47.0
 50
90.0
 51
270.0
  0
ARC
  5
131
  8
DETAIL
  6
CONTINUOUS
 62
     5
 10
-11.0
 20
140.0
 30
0.0
 40
49.0
 50
90.0
 51
270.0
  0
CIRCLE
  5
132
  8
DETAIL
  6
CONTINUOUS
 62
     5
 10
-11.0
 20
140.0
 30
0.0
 40
52.5
  0
LINE
  5
133
  8
DETAIL
  6
CONTINUOUS
 62
     5
 10
-59.0
 20
195.0
 30
0.0
 11
-11.0
 21
195.0
 31
0.0
  0
LINE
  5
134
  8
DETAIL
  6
CONTINUOUS
 62
     5
 10
-50.5
 20
73.0
 30
0.0
 11
-11.0
 21
73.0
 31
0.0
  0
LINE
  5
135
  8
DETAIL
  6
CONTINUOUS
 62
     5
 10
-74.0
 20
100.0
 30
0.0
 11
-74.0
 21
180.0
 31
0.0
  0
LINE
  5
136
  8
DETAIL
  6
CONTINUOUS
 62
     5
 10
-51.0
 20
117.284367
 30
0.0
 11
-51.0
 21
135.66987299999991
 31
0.0
  0
LINE
  5
137
  8
DETAIL
  6
CONTINUOUS
 62
     5
 10
-85.5
 20
108.0
 30
0.0
 11
-85.5
 21
172.0
 31
0.0
  0
ARC
  5
138
  8
DETAIL
  6
CONTINUOUS
 62
     5
 10
-59.0
 20
100.0
 30
0.0
 40
15.0
 50
180.0
 51
270.0
  0
ARC
  5
139
  8
DETAIL
  6
CONTINUOUS
 62
     5
 10
-50.5
 20
108.0
 30
0.0
 40
35.0
 50
180.0
 51
270.0
  0
LINE
  5
13A
  8
DETAIL
  6
CONTINUOUS
 62
     5
 10
-51.0
 20
116.6761919999999
 30
0.0
 11
-51.0
 21
117.284367
 31
0.0
  0
ARC
  5
13B
  8
DETAIL
  6
CONTINUOUS
 62
     5
 10
-41.0
 20
116.6761919999999
 30
0.0
 40
10.0
 50
180.0
 51
188.90862200000001
  0
ARC
  5
13C
  8
DETAIL
  6
CONTINUOUS
 62
     5
 10
-59.0
 20
180.0
 30
0.0
 40
15.0
 50
90.0
 51
180.0
  0
LINE
  5
13D
  8
DETAIL
  6
CONTINUOUS
 62
     5
 10
-36.0
 20
162.26457400000001
 30
0.0
 11
-36.0
 21
176.06875999999991
 31
0.0
  0
LINE
  5
13E
  8
DETAIL
  6
CONTINUOUS
 62
     5
 10
-35.70000000000001
 20
160.0
 30
0.0
 11
-35.70000000000001
 21
179.98637299999999
 31
0.0
  0
LINE
  5
13F
  8
DETAIL
  6
CONTINUOUS
 62
     5
 10
-37.0
 20
162.5
 30
0.0
 11
-37.0
 21
179.1535439999999
 31
0.0
  0
LINE
  5
140
  8
DETAIL
  6
CONTINUOUS
 62
     5
 10
-39.0
 20
162.5
 30
0.0
 11
-39.0
 21
177.7491719999999
 31
0.0
  0
LINE
  5
141
  8
DETAIL
  6
CONTINUOUS
 62
     5
 10
-36.0
 20
162.26457400000001
 30
0.0
 11
-35.70000000000001
 21
162.26457400000001
 31
0.0
  0
LINE
  5
142
  8
DETAIL
  6
CONTINUOUS
 62
     5
 10
-35.70000000000001
 20
176.06875999999991
 30
0.0
 11
-36.0
 21
176.06875999999991
 31
0.0
  0
LINE
  5
143
  8
DETAIL
  6
CONTINUOUS
 62
     5
 10
-37.0
 20
173.0
 30
0.0
 11
-36.5
 21
173.0
 31
0.0
  0
LINE
  5
144
  8
DETAIL
  6
CONTINUOUS
 62
     5
 10
-36.5
 20
172.0
 30
0.0
 11
-36.0
 21
172.0
 31
0.0
  0
LINE
  5
145
  8
DETAIL
  6
CONTINUOUS
 62
     5
 10
-36.5
 20
168.0
 30
0.0
 11
-36.0
 21
168.0
 31
0.0
  0
ARC
  5
146
  8
DETAIL
  6
CONTINUOUS
 62
     5
 10
-34.0
 20
170.0
 30
0.0
 40
2.0
 50
270.0
 51
90.0
  0
LINE
  5
147
  8
DETAIL
  6
CONTINUOUS
 62
     5
 10
-35.70000000000001
 20
168.0
 30
0.0
 11
-34.0
 21
168.0
 31
0.0
  0
LINE
  5
148
  8
DETAIL
  6
CONTINUOUS
 62
     5
 10
-35.70000000000001
 20
172.0
 30
0.0
 11
-34.0
 21
172.0
 31
0.0
  0
LINE
  5
149
  8
DETAIL
  6
CONTINUOUS
 62
     5
 10
-37.0
 20
167.0
 30
0.0
 11
-36.5
 21
167.0
 31
0.0
  0
LINE
  5
14A
  8
DETAIL
  6
CONTINUOUS
 62
     5
 10
-39.0
 20
167.0
 30
0.0
 11
-47.0
 21
167.0
 31
0.0
  0
LINE
  5
14B
  8
DETAIL
  6
CONTINUOUS
 62
     5
 10
-39.0
 20
165.5
 30
0.0
 11
-47.0
 21
165.5
 31
0.0
  0
LINE
  5
14C
  8
DETAIL
  6
CONTINUOUS
 62
     5
 10
-47.0
 20
165.5
 30
0.0
 11
-47.0
 21
167.0
 31
0.0
  0
LINE
  5
14D
  8
DETAIL
  6
CONTINUOUS
 62
     5
 10
-36.5
 20
167.0
 30
0.0
 11
-36.5
 21
173.0
 31
0.0
  0
ARC
  5
14E
  8
DETAIL
  6
CONTINUOUS
 62
     5
 10
-50.5
 20
157.0
 30
0.0
 40
3.0
 50
90.0
 51
180.0
  0
LINE
  5
14F
  8
DETAIL
  6
CONTINUOUS
 62
     5
 10
-35.70000000000001
 20
160.0
 30
0.0
 11
-50.5
 21
160.0
 31
0.0
  0
LINE
  5
150
  8
DETAIL
  6
CONTINUOUS
 62
     5
 10
-52.264391000000003
 20
162.5
 30
0.0
 11
-37.0
 21
162.5
 31
0.0
  0
LINE
  5
151
  8
DETAIL
  6
CONTINUOUS
 62
     5
 10
-53.5
 20
140.0
 30
0.0
 11
-58.0
 21
140.0
 31
0.0
  0
LINE
  5
152
  8
DETAIL
  6
CONTINUOUS
 62
     5
 10
-51.0
 20
135.66987299999991
 30
0.0
 11
-53.5
 21
140.0
 31
0.0
  0
LINE
  5
153
  8
DETAIL
  6
CONTINUOUS
 62
     5
 10
-53.5
 20
140.0
 30
0.0
 11
-53.5
 21
157.0
 31
0.0
  0
LINE
  5
154
  8
DETAIL
  6
CONTINUOUS
 62
     5
 10
52.0
 20
100.0
 30
0.0
 11
52.0
 21
180.0
 31
0.0
  0
LINE
  5
155
  8
DETAIL
  6
CONTINUOUS
 62
     5
 10
29.0
 20
117.284367
 30
0.0
 11
29.0
 21
135.66987299999991
 31
0.0
  0
ARC
  5
156
  8
DETAIL
  6
CONTINUOUS
 62
     5
 10
-11.0
 20
140.0
 30
0.0
 40
49.0
 50
270.0
 51
90.0
  0
ARC
  5
157
  8
DETAIL
  6
CONTINUOUS
 62
     5
 10
-11.0
 20
140.0
 30
0.0
 40
47.0
 50
270.0
 51
90.0
  0
ARC
  5
158
  8
DETAIL
  6
CONTINUOUS
 62
     5
 10
-11.0
 20
140.0
 30
0.0
 40
53.0
 50
270.0
 51
90.0
  0
LINE
  5
159
  8
DETAIL
  6
CONTINUOUS
 62
     5
 10
63.5
 20
108.0
 30
0.0
 11
63.5
 21
172.0
 31
0.0
  0
ARC
  5
15A
  8
DETAIL
  6
CONTINUOUS
 62
     5
 10
37.0
 20
100.0
 30
0.0
 40
15.0
 50
270.0
 51
0.0
  0
ARC
  5
15B
  8
DETAIL
  6
CONTINUOUS
 62
     5
 10
28.5
 20
108.0
 30
0.0
 40
35.0
 50
270.0
 51
0.0
  0
LINE
  5
15C
  8
DETAIL
  6
CONTINUOUS
 62
     5
 10
37.0
 20
85.0
 30
0.0
 11
-11.0
 21
85.0
 31
0.0
  0
ARC
  5
15D
  8
DETAIL
  6
CONTINUOUS
 62
     5
 10
19.0
 20
116.6761919999999
 30
0.0
 40
10.0
 50
351.09137799999991
 51
0.0
  0
LINE
  5
15E
  8
DETAIL
  6
CONTINUOUS
 62
     5
 10
29.0
 20
116.6761919999999
 30
0.0
 11
29.0
 21
117.284367
 31
0.0
  0
LINE
  5
15F
  8
DETAIL
  6
CONTINUOUS
 62
     5
 10
28.5
 20
73.0
 30
0.0
 11
-11.0
 21
73.0
 31
0.0
  0
ARC
  5
160
  8
DETAIL
  6
CONTINUOUS
 62
     5
 10
37.0
 20
180.0
 30
0.0
 40
15.0
 50
0.0
 51
90.0
  0
LINE
  5
161
  8
DETAIL
  6
CONTINUOUS
 62
     5
 10
17.0
 20
162.5
 30
0.0
 11
17.0
 21
177.7491719999999
 31
0.0
  0
LINE
  5
162
  8
DETAIL
  6
CONTINUOUS
 62
     5
 10
15.0
 20
162.5
 30
0.0
 11
15.0
 21
179.1535439999999
 31
0.0
  0
LINE
  5
163
  8
DETAIL
  6
CONTINUOUS
 62
     5
 10
13.699999999999999
 20
155.0
 30
0.0
 11
13.699999999999999
 21
174.9863729999999
 31
0.0
  0
LINE
  5
164
  8
DETAIL
  6
CONTINUOUS
 62
     5
 10
14.0
 20
162.26457400000001
 30
0.0
 11
14.0
 21
176.06875999999991
 31
0.0
  0
LINE
  5
165
  8
DETAIL
  6
CONTINUOUS
 62
     5
 10
30.264390999999989
 20
162.5
 30
0.0
 11
15.0
 21
162.5
 31
0.0
  0
LINE
  5
166
  8
DETAIL
  6
CONTINUOUS
 62
     5
 10
13.699999999999999
 20
160.0
 30
0.0
 11
28.5
 21
160.0
 31
0.0
  0
LINE
  5
167
  8
DETAIL
  6
CONTINUOUS
 62
     5
 10
14.0
 20
162.26457400000001
 30
0.0
 11
13.699999999999999
 21
162.26457400000001
 31
0.0
  0
ARC
  5
168
  8
DETAIL
  6
CONTINUOUS
 62
     5
 10
28.5
 20
157.0
 30
0.0
 40
3.0
 50
0.0
 51
90.0
  0
LINE
  5
169
  8
DETAIL
  6
CONTINUOUS
 62
     5
 10
14.5
 20
167.0
 30
0.0
 11
14.5
 21
173.0
 31
0.0
  0
LINE
  5
16A
  8
DETAIL
  6
CONTINUOUS
 62
     5
 10
25.0
 20
165.5
 30
0.0
 11
25.0
 21
167.0
 31
0.0
  0
LINE
  5
16B
  8
DETAIL
  6
CONTINUOUS
 62
     5
 10
17.0
 20
165.5
 30
0.0
 11
25.0
 21
165.5
 31
0.0
  0
LINE
  5
16C
  8
DETAIL
  6
CONTINUOUS
 62
     5
 10
17.0
 20
167.0
 30
0.0
 11
25.0
 21
167.0
 31
0.0
  0
LINE
  5
16D
  8
DETAIL
  6
CONTINUOUS
 62
     5
 10
15.0
 20
167.0
 30
0.0
 11
14.5
 21
167.0
 31
0.0
  0
LINE
  5
16E
  8
DETAIL
  6
CONTINUOUS
 62
     5
 10
13.699999999999999
 20
172.0
 30
0.0
 11
12.0
 21
172.0
 31
0.0
  0
LINE
  5
16F
  8
DETAIL
  6
CONTINUOUS
 62
     5
 10
13.699999999999999
 20
168.0
 30
0.0
 11
12.0
 21
168.0
 31
0.0
  0
ARC
  5
170
  8
DETAIL
  6
CONTINUOUS
 62
     5
 10
12.0
 20
170.0
 30
0.0
 40
2.0
 50
90.0
 51
270.0
  0
LINE
  5
171
  8
DETAIL
  6
CONTINUOUS
 62
     5
 10
14.5
 20
168.0
 30
0.0
 11
14.0
 21
168.0
 31
0.0
  0
LINE
  5
172
  8
DETAIL
  6
CONTINUOUS
 62
     5
 10
14.5
 20
172.0
 30
0.0
 11
14.0
 21
172.0
 31
0.0
  0
LINE
  5
173
  8
DETAIL
  6
CONTINUOUS
 62
     5
 10
15.0
 20
173.0
 30
0.0
 11
14.5
 21
173.0
 31
0.0
  0
LINE
  5
174
  8
DETAIL
  6
CONTINUOUS
 62
     5
 10
13.699999999999999
 20
176.06875999999991
 30
0.0
 11
14.0
 21
176.06875999999991
 31
0.0
  0
LINE
  5
175
  8
DETAIL
  6
CONTINUOUS
 62
     5
 10
29.0
 20
135.66987299999991
 30
0.0
 11
31.5
 21
140.0
 31
0.0
  0
LINE
  5
176
  8
DETAIL
  6
CONTINUOUS
 62
     5
 10
31.5
 20
140.0
 30
0.0
 11
36.0
 21
140.0
 31
0.0
  0
LINE
  5
177
  8
DETAIL
  6
CONTINUOUS
 62
     5
 10
31.5
 20
140.0
 30
0.0
 11
31.5
 21
157.0
 31
0.0
  0
LINE
  5
178
  8
DETAIL
  6
CONTINUOUS
 62
     5
 10
31.5
 20
140.0
 30
0.0
 11
-11.0
 21
140.0
 31
0.0
  0
LINE
  5
179
  8
DETAIL
  6
CONTINUOUS
 62
     5
 10
37.0
 20
195.0
 30
0.0
 11
-11.0
 21
195.0
 31
0.0
  0
LINE
  5
17A
  8
DETAIL
  6
CONTINUOUS
 62
     5
 10
-50.5
 20
207.0
 30
0.0
 11
28.5
 21
207.0
 31
0.0
  0
LINE
  5
17C
  8
DETAIL
  6
CONTINUOUS
 62
     5
 10
-87.5
 20
178.5
 30
0.0
 11
-87.5
 21
3.0
 31
0.0
  0
LINE
  5
17D
  8
DETAIL
  6
CONTINOUS
 62
     5
 10
-85.5
 20
178.5
 30
0.0
 11
-87.5
 21
178.5
 31
0.0
  0
LINE
  5
17E
  8
DETAIL
  6
CONTINUOUS
 62
     5
 10
-85.5
 20
2.0
 30
0.0
 11
-85.5
 21
0.0
 31
0.0
  0
LINE
  5
17F
  8
DETAIL
  6
CONTINOUS
 62
     5
 10
-85.5
 20
3.0
 30
0.0
 11
-87.5
 21
3.0
 31
0.0
  0
LINE
  5
180
  8
DETAIL
  6
CONTINUOUS
 62
     5
 10
-85.5
 20
0.0
 30
0.0
 11
-85.5
 21
2.0
 31
0.0
  0
LINE
  5
181
  8
DETAIL
  6
CONTINUOUS
 62
     5
 10
-85.5
 20
3.0
 30
0.0
 11
65.5
 21
3.0
 31
0.0
  0
LINE
  5
182
  8
DETAIL
  6
CONTINUOUS
 62
     5
 10
63.5
 20
108.0
 30
0.0
 11
63.5
 21
0.0
 31
0.0
  0
LINE
  5
183
  8
DETAIL
  6
CONTINUOUS
 62
     5
 10
65.5
 20
207.0
 30
0.0
 11
65.5
 21
3.0
 31
0.0
  0
LINE
  5
185
  8
SIZE
  6
CONTINUOUS
 62
    30
 10
9.0
 20
189.0
 30
0.0
 11
464.071594
 21
189.0
 31
0.0
  0
LINE
  5
186
  8
SIZE
  6
CONTINUOUS
 62
    30
 10
9.0
 20
91.0
 30
0.0
 11
464.071594
 21
91.0
 31
0.0
  0
LINE
  5
187
  8
SIZE
  6
CONTINUOUS
 62
    30
 10
444.071594
 20
177.0
 30
0.0
 11
444.071594
 21
103.0
 31
0.0
  0
LINE
  5
188
  8
SIZE
  6
CONTINUOUS
 62
    30
 10
444.071594
 20
407.09701999999987
 30
0.0
 11
444.071594
 21
189.0
 31
0.0
  0
TEXT
  5
189
  8
SIZE
  6
CONTINUOUS
 62
    30
 10
419.071594
 20
222.4627345714286
 30
0.0
 40
64.0
  1
âË98
 50
90.0
 41
0.9
 72
     1
 11
419.071594
 21
309.41130600000002
 31
0.0
  0
CIRCLE
  5
18A
  8
SIZE
  6
CONTINUOUS
 62
    30
 10
444.071594
 20
189.0
 30
0.0
 40
6.0
  0
LINE
  5
18B
  8
SIZE
  6
CONTINUOUS
 62
    30
 10
444.071594
 20
189.0
 30
0.0
 11
444.071594
 21
177.0
 31
0.0
  0
CIRCLE
  5
18C
  8
SIZE
  6
CONTINUOUS
 62
    30
 10
444.071594
 20
91.0
 30
0.0
 40
6.0
  0
LINE
  5
18D
  8
SIZE
  6
CONTINUOUS
 62
    30
 10
444.071594
 20
91.0
 30
0.0
 11
444.071594
 21
103.0
 31
0.0
  0
LINE
  5
191
  8
SIZE
  6
CONTINUOUS
 62
    30
 10
9.0
 20
192.5
 30
0.0
 11
580.55105199999969
 21
192.5
 31
0.0
  0
LINE
  5
192
  8
SIZE
  6
CONTINUOUS
 62
    30
 10
9.0
 20
87.5
 30
0.0
 11
580.55105199999969
 21
87.5
 31
0.0
  0
LINE
  5
193
  8
SIZE
  6
CONTINUOUS
 62
    30
 10
560.55105199999991
 20
180.49999999999989
 30
0.0
 11
560.55105199999991
 21
99.500000000000014
 31
0.0
  0
LINE
  5
194
  8
SIZE
  6
CONTINUOUS
 62
    30
 10
560.55105199999991
 20
454.96126199999992
 30
0.0
 11
560.55105199999991
 21
192.5
 31
0.0
  0
TEXT
  5
195
  8
SIZE
  6
CONTINUOUS
 62
    30
 10
535.55105199999991
 20
226.44126142857141
 30
0.0
 40
64.0
  1
âË105
 50
90.0
 41
0.9
 72
     1
 11
535.55105199999991
 21
335.33269000000001
 31
0.0
  0
CIRCLE
  5
196
  8
SIZE
  6
CONTINUOUS
 62
    30
 10
560.55105199999991
 20
192.5
 30
0.0
 40
6.0
  0
LINE
  5
197
  8
SIZE
  6
CONTINUOUS
 62
    30
 10
560.55105199999991
 20
192.5
 30
0.0
 11
560.55105199999991
 21
180.49999999999989
 31
0.0
  0
CIRCLE
  5
198
  8
SIZE
  6
CONTINUOUS
 62
    30
 10
560.55105199999991
 20
87.5
 30
0.0
 40
6.0
  0
LINE
  5
199
  8
SIZE
  6
CONTINUOUS
 62
    30
 10
560.55105199999991
 20
87.5
 30
0.0
 11
560.55105199999991
 21
99.500000000000014
 31
0.0
  0
LINE
  5
19D
  8
SIZE
  6
CONTINUOUS
 62
    30
 10
-85.5
 20
3.0
 30
0.0
 11
-262.66451599999988
 21
3.0
 31
0.0
  0
LINE
  5
19E
  8
SIZE
  6
CONTINUOUS
 62
    30
 10
-57.0
 20
85.0
 30
0.0
 11
-262.66451599999988
 21
85.0
 31
0.0
  0
LINE
  5
19F
  8
SIZE
  6
CONTINUOUS
 62
    30
 10
-242.66451599999999
 20
15.0
 30
0.0
 11
-242.66451599999999
 21
73.0
 31
0.0
  0
LINE
  5
1A0
  8
SIZE
  6
CONTINUOUS
 62
    30
 10
-242.66451599999999
 20
-171.58922999999999
 30
0.0
 11
-242.66451599999999
 21
3.0
 31
0.0
  0
TEXT
  5
1A1
  8
SIZE
  6
CONTINUOUS
 62
    30
 10
-267.66451599999999
 20
-146.5892304285714
 30
0.0
 40
64.0
  1
82
 50
90.0
 41
0.9
 72
     1
 11
-267.66451599999999
 21
-99.960659000000007
 31
0.0
  0
CIRCLE
  5
1A2
  8
SIZE
  6
CONTINUOUS
 62
    30
 10
-242.66451599999999
 20
3.0
 30
0.0
 40
6.0
  0
LINE
  5
1A3
  8
SIZE
  6
CONTINUOUS
 62
    30
 10
-242.66451599999999
 20
3.0
 30
0.0
 11
-242.66451599999999
 21
15.0
 31
0.0
  0
CIRCLE
  5
1A4
  8
SIZE
  6
CONTINUOUS
 62
    30
 10
-242.66451599999999
 20
85.0
 30
0.0
 40
6.0
  0
LINE
  5
1A5
  8
SIZE
  6
CONTINUOUS
 62
    30
 10
-242.66451599999999
 20
85.0
 30
0.0
 11
-242.66451599999999
 21
73.0
 31
0.0
  0
LINE
  5
1A9
  8
SIZE
  6
CONTINUOUS
 62
    30
 10
0.0
 20
272.19215700000001
 30
0.0
 11
0.0
 21
443.81680799999992
 31
0.0
  0
LINE
  5
1AA
  8
SIZE
  6
CONTINUOUS
 62
    30
 10
-11.0
 20
253.566473
 30
0.0
 11
-11.0
 21
443.81680799999992
 31
0.0
  0
LINE
  5
1AB
  8
SIZE
  6
CONTINUOUS
 62
    30
 10
12.0
 20
423.81680799999992
 30
0.0
 11
24.0
 21
423.81680799999992
 31
0.0
  0
LINE
  5
1AC
  8
SIZE
  6
CONTINUOUS
 62
    30
 10
-23.0
 20
423.81680799999992
 30
0.0
 11
-35.0
 21
423.81680799999992
 31
0.0
  0
LINE
  5
1AD
  8
SIZE
  6
CONTINUOUS
 62
    30
 10
-225.84158099999999
 20
423.81680799999992
 30
0.0
 11
-11.0
 21
423.81680799999992
 31
0.0
  0
TEXT
  5
1AE
  8
SIZE
  6
CONTINUOUS
 62
    30
 10
-200.84158099999999
 20
448.81680799999998
 30
0.0
 40
64.0
  1
11
 41
0.9
 72
     1
 11
-172.04158100000001
 21
448.81680799999998
 31
0.0
  0
LINE
  5
1AF
  8
SIZE
  6
CONTINUOUS
 62
    30
 10
0.0
 20
423.81680799999992
 30
0.0
 11
-11.0
 21
423.81680799999992
 31
0.0
  0
LINE
  5
1B0
  8
SIZE
  6
CONTINUOUS
 62
    30
 10
0.0
 20
423.81680799999992
 30
0.0
 11
-11.0
 21
423.81680799999992
 31
0.0
  0
CIRCLE
  5
1B1
  8
SIZE
  6
CONTINUOUS
 62
    30
 10
0.0
 20
423.81680799999992
 30
0.0
 40
6.0
  0
LINE
  5
1B2
  8
SIZE
  6
CONTINUOUS
 62
    30
 10
0.0
 20
423.81680799999992
 30
0.0
 11
12.0
 21
423.81680799999992
 31
0.0
  0
CIRCLE
  5
1B3
  8
SIZE
  6
CONTINUOUS
 62
    30
 10
-11.0
 20
423.81680799999992
 30
0.0
 40
6.0
  0
LINE
  5
1B4
  8
SIZE
  6
CONTINUOUS
 62
    30
 10
-11.0
 20
423.81680799999992
 30
0.0
 11
-23.0
 21
423.81680799999992
 31
0.0
  0
LINE
  5
1B8
  8
SIZE
  6
CONTINUOUS
 62
    30
 10
52.0
 20
200.0
 30
0.0
 11
52.0
 21
634.13518499999975
 31
0.0
  0
LINE
  5
1B9
  8
SIZE
  6
CONTINUOUS
 62
    30
 10
-74.0
 20
198.5
 30
0.0
 11
-74.0
 21
634.13518499999975
 31
0.0
  0
LINE
  5
1BA
  8
SIZE
  6
CONTINUOUS
 62
    30
 10
64.0
 20
614.13518499999975
 30
0.0
 11
76.0
 21
614.13518499999975
 31
0.0
  0
LINE
  5
1BB
  8
SIZE
  6
CONTINUOUS
 62
    30
 10
-86.0
 20
614.13518499999975
 30
0.0
 11
-98.0
 21
614.13518499999975
 31
0.0
  0
LINE
  5
1BC
  8
SIZE
  6
CONTINUOUS
 62
    30
 10
52.0
 20
614.13518499999975
 30
0.0
 11
-74.0
 21
614.13518499999975
 31
0.0
  0
CIRCLE
  5
1BD
  8
SIZE
  6
CONTINUOUS
 62
    30
 10
52.0
 20
614.13518499999975
 30
0.0
 40
6.0
  0
LINE
  5
1BE
  8
SIZE
  6
CONTINUOUS
 62
    30
 10
52.0
 20
614.13518499999975
 30
0.0
 11
64.0
 21
614.13518499999975
 31
0.0
  0
CIRCLE
  5
1BF
  8
SIZE
  6
CONTINUOUS
 62
    30
 10
-74.0
 20
614.13518499999975
 30
0.0
 40
6.0
  0
LINE
  5
1C0
  8
SIZE
  6
CONTINUOUS
 62
    30
 10
-74.0
 20
614.13518499999975
 30
0.0
 11
-86.0
 21
614.13518499999975
 31
0.0
  0
TEXT
  5
1C1
  8
SIZE
  6
CONTINUOUS
 62
    30
 10
-78.200000000000003
 20
639.13518499999975
 30
0.0
 40
64.0
  1
126
 41
0.9
 72
     1
 11
-11.0
 21
639.13518499999975
 31
0.0
  0
LINE
  5
1C5
  8
SIZE
  6
CONTINUOUS
 62
    30
 10
145.0
 20
0.0
 30
0.0
 11
375.37184999999999
 21
0.0
 31
0.0
  0
LINE
  5
1C6
  8
SIZE
  6
CONTINUOUS
 62
    30
 10
90.375339999999994
 20
140.0
 30
0.0
 11
375.37184999999999
 21
140.0
 31
0.0
  0
LINE
  5
1C7
  8
SIZE
  6
CONTINUOUS
 62
    30
 10
355.37184999999999
 20
12.0
 30
0.0
 11
355.37184999999999
 21
128.0
 31
0.0
  0
LINE
  5
1C8
  8
SIZE
  6
CONTINUOUS
 62
    30
 10
355.37184999999999
 20
-207.2887419999999
 30
0.0
 11
355.37184999999999
 21
0.0
 31
0.0
  0
TEXT
  5
1C9
  8
SIZE
  6
CONTINUOUS
 62
    30
 10
330.37184999999999
 20
-182.28874157142849
 30
0.0
 40
64.0
  1
140
 50
90.0
 41
0.9
 72
     1
 11
330.37184999999999
 21
-113.7173129999999
 31
0.0
  0
CIRCLE
  5
1CA
  8
SIZE
  6
CONTINUOUS
 62
    30
 10
355.37184999999999
 20
0.0
 30
0.0
 40
6.0
  0
LINE
  5
1CB
  8
SIZE
  6
CONTINUOUS
 62
    30
 10
355.37184999999999
 20
0.0
 30
0.0
 11
355.37184999999999
 21
12.0
 31
0.0
  0
CIRCLE
  5
1CC
  8
SIZE
  6
CONTINUOUS
 62
    30
 10
355.37184999999999
 20
140.0
 30
0.0
 40
6.0
  0
LINE
  5
1CD
  8
SIZE
  6
CONTINUOUS
 62
    30
 10
355.37184999999999
 20
140.0
 30
0.0
 11
355.37184999999999
 21
128.0
 31
0.0
  0
LINE
  5
1D1
  8
SIZE
  6
CONTINUOUS
 62
    30
 10
-79.0
 20
195.0
 30
0.0
 11
-262.66451599999988
 21
195.0
 31
0.0
  0
LINE
  5
1D2
  8
SIZE
  6
CONTINUOUS
 62
    30
 10
-79.0
 20
85.0
 30
0.0
 11
-262.66451599999988
 21
85.0
 31
0.0
  0
LINE
  5
1D3
  8
SIZE
  6
CONTINUOUS
 62
    30
 10
-242.66451599999999
 20
207.0
 30
0.0
 11
-242.66451599999999
 21
219.0
 31
0.0
  0
LINE
  5
1D4
  8
SIZE
  6
CONTINUOUS
 62
    30
 10
-242.66451599999999
 20
73.0
 30
0.0
 11
-242.66451599999999
 21
61.0
 31
0.0
  0
LINE
  5
1D5
  8
SIZE
  6
CONTINUOUS
 62
    30
 10
-242.66451599999999
 20
195.0
 30
0.0
 11
-242.66451599999999
 21
85.0
 31
0.0
  0
CIRCLE
  5
1D6
  8
SIZE
  6
CONTINUOUS
 62
    30
 10
-242.66451599999999
 20
195.0
 30
0.0
 40
6.0
  0
LINE
  5
1D7
  8
SIZE
  6
CONTINUOUS
 62
    30
 10
-242.66451599999999
 20
195.0
 30
0.0
 11
-242.66451599999999
 21
207.0
 31
0.0
  0
CIRCLE
  5
1D8
  8
SIZE
  6
CONTINUOUS
 62
    30
 10
-242.66451599999999
 20
85.0
 30
0.0
 40
6.0
  0
LINE
  5
1D9
  8
SIZE
  6
CONTINUOUS
 62
    30
 10
-242.66451599999999
 20
85.0
 30
0.0
 11
-242.66451599999999
 21
73.0
 31
0.0
  0
TEXT
  5
1DA
  8
SIZE
  6
CONTINUOUS
 62
    30
 10
-267.66451599999999
 20
76.914285714285725
 30
0.0
 40
64.0
  1
110
 50
90.0
 41
0.9
 72
     1
 11
-267.66451599999999
 21
140.0
 31
0.0
  0
TEXT
  5
1E6
  8
ETC
  6
CONTINUOUS
 62
    61
 10
427.55650922270002
 20
855.02255762252173
 30
0.0
 40
64.0
  1
VD-10ZJ8_2
 41
0.9
  0
TEXT
  5
1E7
  8
ETC
  6
CONTINUOUS
 62
    61
 10
539.22618808431275
 20
686.69162984604793
 30
0.0
 40
50.0
  1
VD-10ZJ7
 41
0.9
  0
TEXT
  5
1E8
  8
ETC
  6
CONTINUOUS
 62
    61
 10
422.47848422269999
 20
759.07051662252184
 30
0.0
 40
64.0
  1
èÀïCÉ¯
 41
0.9
  0
LINE
  5
1E9
  8
OUTLINE
  6
CONTINUOUS
 62
     3
 10
85.5
 20
0.0
 30
0.0
 11
85.5
 21
178.5
 31
0.0
  0
LINE
  5
1EA
  8
BASIS
  6
DASHDOT
 62
     6
 10
0.0
 20
-49.328414000000002
 30
0.0
 11
0.0
 21
252.1921569999999
 31
0.0
  0
LINE
  5
1EB
  8
OUTLINE
  6
CONTINUOUS
 62
     3
 10
-85.5
 20
0.0
 30
0.0
 11
-85.5
 21
178.5
 31
0.0
  0
LINE
  5
1EC
  8
OUTLINE
  6
CONTINUOUS
 62
     3
 10
125.0
 20
0.0
 30
0.0
 11
-125.0
 21
0.0
 31
0.0
  0
LINE
  5
1ED
  8
BASIS
  6
DASHDOT
 62
     6
 10
70.375339999999994
 20
140.0
 30
0.0
 11
-92.533562999999958
 21
140.0
 31
0.0
  0
LINE
  5
1EE
  8
OUTLINE
  6
DASHED
 62
     3
 39
50.0
 10
65.5
 20
178.5
 30
0.0
 11
-85.5
 21
178.5
 31
0.0
  0
LINE
  5
1EF
  8
BASIS
  6
DASHDOT
 62
     6
 10
-11.0
 20
57.347788999999999
 30
0.0
 11
-11.0
 21
233.56647299999989
 31
0.0
  0
LINE
  5
1F0
  8
BASIS
  6
DASHDOT
 62
     6
 10
10.0
 20
171.71875800000001
 30
0.0
 11
10.0
 21
234.27275899999989
 31
0.0
  0
LINE
  5
1F1
  8
OUTLINE
  6
CONTINUOUS
 62
     3
 10
65.5
 20
178.5
 30
0.0
 11
85.5
 21
178.5
 31
0.0
  0
TEXT
  5
2C6
  8
ETC
  6
CONTINUOUS
 62
    61
 10
539.22618808431275
 20
616.69162984604793
 30
0.0
 40
50.0
  1
VD-10ZJ8
 41
0.9
  0
ENDSEC
  0
EOF
