  0
SECTION
  2
HEADER
  9
$ACADVER
  1
AC1009
  9
$DWGCODEPAGE
  3
dos932
  9
$INSBASE
 10
0.0
 20
0.0
 30
0.0
  9
$EXTMIN
 10
-370.25297386601409
 20
-413.68101853141712
 30
-0.0015258207003583
  9
$EXTMAX
 10
1434.7869993476029
 20
621.96350903478742
 30
0.0000000349246037
  9
$LIMMIN
 10
-2970.0
 20
-2100.0
  9
$LIMMAX
 10
2970.0
 20
2100.0
  9
$ORTHOMODE
 70
     1
  9
$REGENMODE
 70
     1
  9
$FILLMODE
 70
     1
  9
$QTEXTMODE
 70
     0
  9
$MIRRTEXT
 70
     0
  9
$LTSCALE
 40
20.0
  9
$ATTMODE
 70
     1
  9
$TEXTSIZE
 40
64.0
  9
$TRACEWID
 40
0.05
  9
$TEXTSTYLE
  7
STANDARD
  9
$CLAYER
  8
SIZE
  9
$CELTYPE
  6
CONTINUOUS
  9
$CECOLOR
 62
     7
  9
$DIMSCALE
 40
1.0
  9
$DIMASZ
 40
12.0
  9
$DIMEXO
 40
20.0
  9
$DIMDLI
 40
200.0
  9
$DIMRND
 40
0.0
  9
$DIMDLE
 40
0.0
  9
$DIMEXE
 40
20.0
  9
$DIMTP
 40
0.0
  9
$DIMTM
 40
0.0
  9
$DIMTXT
 40
64.0
  9
$DIMCEN
 40
0.09
  9
$DIMTSZ
 40
0.0
  9
$DIMTOL
 70
     0
  9
$DIMLIM
 70
     0
  9
$DIMTIH
 70
     0
  9
$DIMTOH
 70
     0
  9
$DIMSE1
 70
     0
  9
$DIMSE2
 70
     0
  9
$DIMTAD
 70
     1
  9
$DIMZIN
 70
     8
  9
$DIMBLK
  1

  9
$DIMASO
 70
     1
  9
$DIMSHO
 70
     0
  9
$DIMPOST
  1

  9
$DIMAPOST
  1

  9
$DIMALT
 70
     0
  9
$DIMALTD
 70
     2
  9
$DIMALTF
 40
25.399999999999999
  9
$DIMLFAC
 40
1.0
  9
$DIMTOFL
 70
     1
  9
$DIMTVP
 40
0.0
  9
$DIMTIX
 70
     1
  9
$DIMSOXD
 70
     0
  9
$DIMSAH
 70
     0
  9
$DIMBLK1
  1

  9
$DIMBLK2
  1

  9
$DIMSTYLE
  2
STANDARD
  9
$DIMCLRD
 70
     7
  9
$DIMCLRE
 70
     7
  9
$DIMCLRT
 70
     7
  9
$DIMTFAC
 40
1.0
  9
$DIMGAP
 40
25.0
  9
$LUNITS
 70
     2
  9
$LUPREC
 70
     4
  9
$SKETCHINC
 40
0.1
  9
$FILLETRAD
 40
3.0
  9
$AUNITS
 70
     1
  9
$AUPREC
 70
     3
  9
$MENU
  1
ACAD
  9
$ELEVATION
 40
0.0
  9
$PELEVATION
 40
0.0
  9
$THICKNESS
 40
0.0
  9
$LIMCHECK
 70
     0
  9
$CHAMFERA
 40
0.0
  9
$CHAMFERB
 40
0.0
  9
$SKPOLY
 70
     0
  9
$TDCREATE
 40
2453019.62301037
  9
$TDUPDATE
 40
2459025.488215486
  9
$TDINDWG
 40
1.7127821875
  9
$TDUSRTIMER
 40
1.7127821875
  9
$USRTIMER
 70
     1
  9
$ANGBASE
 50
0.0
  9
$ANGDIR
 70
     0
  9
$PDMODE
 70
     3
  9
$PDSIZE
 40
-2.0
  9
$PLINEWID
 40
0.0
  9
$SPLFRAME
 70
     0
  9
$SPLINETYPE
 70
     6
  9
$SPLINESEGS
 70
     8
  9
$SURFTAB1
 70
     6
  9
$SURFTAB2
 70
     6
  9
$SURFTYPE
 70
     6
  9
$SURFU
 70
     6
  9
$SURFV
 70
     6
  9
$UCSNAME
  2

  9
$UCSORG
 10
0.0
 20
0.0
 30
0.0
  9
$UCSXDIR
 10
1.0
 20
0.0
 30
0.0
  9
$UCSYDIR
 10
0.0
 20
1.0
 30
0.0
  9
$PUCSNAME
  2

  9
$PUCSORG
 10
0.0
 20
0.0
 30
0.0
  9
$PUCSXDIR
 10
1.0
 20
0.0
 30
0.0
  9
$PUCSYDIR
 10
0.0
 20
1.0
 30
0.0
  9
$USERI1
 70
     0
  9
$USERI2
 70
     0
  9
$USERI3
 70
     0
  9
$USERI4
 70
     0
  9
$USERI5
 70
     0
  9
$USERR1
 40
20.0
  9
$USERR2
 40
0.0
  9
$USERR3
 40
0.0
  9
$USERR4
 40
0.0
  9
$USERR5
 40
0.0
  9
$WORLDVIEW
 70
     1
  9
$SHADEDGE
 70
     3
  9
$SHADEDIF
 70
    70
  9
$TILEMODE
 70
     1
  9
$MAXACTVP
 70
    48
  9
$PINSBASE
 10
0.0
 20
0.0
 30
0.0
  9
$PLIMCHECK
 70
     0
  9
$PEXTMIN
 10
-100000000000000000000.0
 20
-100000000000000000000.0
 30
-100000000000000000000.0
  9
$PEXTMAX
 10
100000000000000000000.0
 20
100000000000000000000.0
 30
100000000000000000000.0
  9
$PLIMMIN
 10
0.0
 20
0.0
  9
$PLIMMAX
 10
12.0
 20
9.0
  9
$UNITMODE
 70
     0
  9
$VISRETAIN
 70
     0
  9
$PLINEGEN
 70
     0
  9
$PSLTSCALE
 70
     0
  9
$TREEDEPTH
 70
  3020
  9
$ATTDIA
 70
     0
  9
$ATTREQ
 70
     1
  9
$BLIPMODE
 70
     1
  9
$COORDS
 70
     1
  9
$DRAGMODE
 70
     2
  9
$OSMODE
 70
     0
  9
$HANDLING
 70
     0
  9
$HANDSEED
  5
F278
  0
ENDSEC
  0
SECTION
  2
TABLES
  0
TABLE
  2
LTYPE
 70
     3
  0
LTYPE
  2
CONTINUOUS
 70
     0
  3
実線
 72
    65
 73
     0
 40
0.0
  0
LTYPE
  2
DASHDOT
 70
     0
  3
____ _ ____ _ ____ _ ____ _ ____ _ ____ _ ____
 72
    65
 73
     4
 40
5.5
 49
4.0
 49
-0.6
 49
0.3
 49
-0.6
  0
LTYPE
  2
CENTER
 70
     0
  3
Center ____ _ ____ _ ____ _ ____ _ ____ _ ____
 72
    65
 73
     4
 40
1.0
 49
0.5
 49
-0.25
 49
0.0
 49
-0.25
  0
ENDTAB
  0
TABLE
  2
LAYER
 70
    12
  0
LAYER
  2
0
 70
     0
 62
     7
  6
CONTINUOUS
  0
LAYER
  2
BASIS
 70
     0
 62
     6
  6
DASHDOT
  0
LAYER
  2
OUTLINE
 70
     0
 62
     3
  6
CONTINUOUS
  0
LAYER
  2
DETAIL
 70
     0
 62
     5
  6
CONTINUOUS
  0
LAYER
  2
SIZE
 70
     0
 62
    30
  6
CONTINUOUS
  0
LAYER
  2
ARRANGE
 70
     0
 62
     1
  6
CONTINUOUS
  0
LAYER
  2
DEFPOINTS
 70
     0
 62
     7
  6
CONTINUOUS
  0
LAYER
  2
ETC
 70
     0
 62
    61
  6
CONTINUOUS
  0
LAYER
  2
FIX
 70
     0
 62
    11
  6
CONTINUOUS
  0
LAYER
  2
NOTE
 70
     0
 62
     4
  6
CONTINUOUS
  0
LAYER
  2
SERVICESPACE
 70
    64
 62
     2
  6
DASHDOT
  0
LAYER
  2
SYMBOLLINE
 70
    64
 62
    15
  6
CONTINUOUS
  0
ENDTAB
  0
TABLE
  2
STYLE
 70
     1
  0
STYLE
  2
STANDARD
 70
     0
 40
64.0
 41
0.9
 50
0.0
 71
     0
 42
64.0
  3
SIMPLEX.shx
  4
BIGFONT.shx
  0
ENDTAB
  0
TABLE
  2
APPID
 70
    19
  0
APPID
  2
ACAD
 70
     0
  0
APPID
  2
AUTOCAD_POSTSCRIPT_FIGURE
 70
     0
  0
APPID
  2
ACAD_EXEMPT_FROM_CAD_STANDARDS
 70
     0
  0
APPID
  2
ACAD_PSEXT
 70
     0
  0
APPID
  2
ACAUTHENVIRON
 70
     0
  0
APPID
  2
GENIUS_GENOENT_13
 70
     0
  0
APPID
  2
GENIUS_GENCFG_13
 70
     0
  0
APPID
  2
GENIUS_GENCFG0_13
 70
     0
  0
APPID
  2
GENIUS_GENCFG1_13
 70
     0
  0
APPID
  2
GENIUS_GENCFG2_13
 70
     0
  0
APPID
  2
GENIUS_GENCFG3_13
 70
     0
  0
APPID
  2
GENIUS_GENCFG4_13
 70
     0
  0
APPID
  2
GENIUS_GEVCFG0_13
 70
     0
  0
APPID
  2
CONTENTBLOCKICON
 70
     0
  0
APPID
  2
CONTENTBLOCKDESCRIPTION
 70
     0
  0
APPID
  2
ACAD_NAV_VCDISPLAY
 70
     0
  0
APPID
  2
ACAD_MLEADERVER
 70
     0
  0
APPID
  2
ACDBDYNAMICBLOCKTRUENAME
 70
     0
  0
APPID
  2
ACDBDYNAMICBLOCKGUID
 70
     0
  0
ENDTAB
  0
TABLE
  2
DIMSTYLE
 70
     1
  0
DIMSTYLE
  2
STANDARD
 70
     0
  3

  4

  5
_ORIGIN
  6

  7

 40
1.0
 41
12.0
 42
20.0
 43
200.0
 44
20.0
 45
0.0
 46
0.0
 47
0.0
 48
0.0
140
64.0
141
0.09
142
0.0
143
25.399999999999999
144
1.0
145
0.0
146
1.0
147
25.0
 71
     0
 72
     0
 73
     0
 74
     0
 75
     0
 76
     0
 77
     1
 78
     8
170
     0
171
     2
172
     1
173
     0
174
     1
175
     0
176
     7
177
     7
178
     7
  0
ENDTAB
  0
TABLE
  2
VIEW
 70
     1
  0
VIEW
  2
ALL
 70
     0
 40
4282.6198079999986
 10
0.0
 20
41.309904000000003
 41
5940.0
 11
0.0
 21
0.0
 31
1.0
 12
0.0
 22
0.0
 32
0.0
 42
50.0
 43
0.0
 44
0.0
 50
0.0
 71
     0
  0
ENDTAB
  0
TABLE
  2
UCS
 70
     0
  0
ENDTAB
  0
TABLE
  2
VPORT
 70
     1
  0
VPORT
  2
*ACTIVE
 70
     0
 10
0.0
 20
0.0
 11
1.0
 21
1.0
 12
532.2670127407946
 22
104.14124525168521
 13
0.0
 23
0.0
 14
1.0
 24
1.0
 15
0.0
 25
0.0
 16
0.0
 26
0.0
 36
1.0
 17
0.0
 27
0.0
 37
0.0
 40
1042.5106791301789
 41
1.747787610619469
 42
50.0
 43
0.0
 44
0.0
 50
0.0
 51
0.0
 71
     0
 72
  1000
 73
     1
 74
     3
 75
     0
 76
     0
 77
     0
 78
     0
  0
ENDTAB
  0
ENDSEC
  0
SECTION
  2
BLOCKS
  0
BLOCK
  8
0
  2
_ORIGIN
 70
     0
 10
0.0
 20
0.0
 30
0.0
  3
_ORIGIN
  1
_ORIGIN
  0
CIRCLE
  8
0
  6
CONTINUOUS
 62
     7
 10
0.0
 20
0.0
 30
0.0
 40
0.5
  0
LINE
  8
0
  6
CONTINUOUS
 62
     7
 10
0.0
 20
0.0
 30
0.0
 11
-1.0
 21
0.0
 31
0.0
  0
ENDBLK
  8
0
  0
ENDSEC
  0
SECTION
  2
ENTITIES
  0
TEXT
  8
ETC
  6
CONTINUOUS
 62
    61
 10
789.82778646299403
 20
557.83560581222309
 30
0.0
 40
64.0
  1
VD-10ZLC13_2
 41
0.9
  0
TEXT
  8
ETC
  6
CONTINUOUS
 62
    61
 10
785.64179246299364
 20
439.88029579739191
 30
0.0
 40
64.0
  1
換気扇
 41
0.9
  0
TEXT
  8
ETC
  6
CONTINUOUS
 62
    61
 10
836.3431907115496
 20
331.73152291116662
 30
0.0
 40
40.0
  1
VD-10ZLC13
 41
0.9
  0
TEXT
  8
NOTE
  6
CONTINUOUS
 62
     4
 10
-43.873879225403932
 20
70.986625103944959
 30
0.0
 40
64.0
  1
EA
 41
0.9
  0
LINE
  8
OUTLINE
  6
CONTINUOUS
 62
     3
 10
-61.112665000000113
 20
177.72866999999999
 30
0.0
 11
-21.083243000000039
 21
177.72866999999999
 31
0.0
  0
LINE
  8
OUTLINE
  6
CONTINUOUS
 62
     3
 10
61.11266599999999
 20
177.72866999999999
 30
0.0
 11
41.044037000000117
 21
177.72866999999999
 31
0.0
  0
ARC
  8
OUTLINE
  6
CONTINUOUS
 62
     3
 10
117.8066899999999
 20
-14.0
 30
0.0
 40
1.0
 50
270.0
 51
313.49999999999483
  0
LINE
  8
OUTLINE
  6
CONTINUOUS
 62
     3
 10
124.2389350000001
 20
-9.2746259999998983
 30
0.0
 11
118.4950450000001
 21
-14.725374999999991
 31
0.0
  0
ARC
  8
OUTLINE
  6
CONTINUOUS
 62
     3
 10
123.55058099999999
 20
-8.5492519999999104
 30
0.0
 40
1.0
 50
313.49999999999483
 51
357.00000000000102
  0
LINE
  8
OUTLINE
  6
CONTINUOUS
 62
     3
 10
124.5492100000001
 20
-8.6015879999999925
 30
0.0
 11
124.9724249999999
 21
-0.5261679999999842
 31
0.0
  0
ARC
  8
OUTLINE
  6
CONTINUOUS
 62
     3
 10
124.47310999999991
 20
-0.5
 30
0.0
 40
0.5
 50
357.00000000000102
 51
90.0
  0
LINE
  8
OUTLINE
  6
CONTINUOUS
 62
     3
 10
61.99256000000014
 20
172.72927000000001
 30
0.0
 11
61.99256000000014
 21
176.8487749999999
 31
0.0
  0
ARC
  8
OUTLINE
  6
CONTINUOUS
 62
     3
 10
61.11266599999999
 20
176.8487749999999
 30
0.0
 40
0.8798940000000001
 50
0.0
 51
90.0
  0
LINE
  8
OUTLINE
  6
CONTINUOUS
 62
     3
 10
77.990639999999985
 20
172.72926699999991
 30
0.0
 11
77.993690000000015
 21
172.72837000000001
 31
0.0
  0
LINE
  8
OUTLINE
  6
CONTINUOUS
 62
     3
 10
86.989868999999999
 20
0.0
 30
0.0
 11
84.041388000000097
 21
167.81769299999999
 31
0.0
  0
LINE
  8
OUTLINE
  6
CONTINUOUS
 62
     3
 10
84.083641000000171
 20
166.48002
 30
0.0
 11
84.064890999999989
 21
166.48002
 31
0.0
  0
LINE
  8
OUTLINE
  6
CONTINUOUS
 62
     3
 10
79.456760999999915
 20
172.70357000000001
 30
0.0
 11
79.486758000000009
 21
172.708437
 31
0.0
  0
LINE
  8
OUTLINE
  6
CONTINUOUS
 62
     3
 10
79.486758000000009
 20
172.708437
 30
0.0
 11
79.490459999999985
 21
172.70917299999999
 31
0.0
  0
LINE
  8
OUTLINE
  6
CONTINUOUS
 62
     3
 10
77.993690000000015
 20
172.72837000000001
 30
0.0
 11
78.01854000000003
 21
172.72214899999989
 31
0.0
  0
LINE
  8
OUTLINE
  6
CONTINUOUS
 62
     3
 10
78.01854000000003
 20
172.72214899999989
 30
0.0
 11
78.040268000000196
 21
172.7170620000002
 31
0.0
  0
LINE
  8
OUTLINE
  6
CONTINUOUS
 62
     3
 10
78.040268000000196
 20
172.7170620000002
 30
0.0
 11
78.067485999999917
 21
172.71097700000001
 31
0.0
  0
LINE
  8
OUTLINE
  6
CONTINUOUS
 62
     3
 10
78.067485999999917
 20
172.71097700000001
 30
0.0
 11
78.099880000000212
 21
172.70424299999999
 31
0.0
  0
LINE
  8
OUTLINE
  6
CONTINUOUS
 62
     3
 10
78.099880000000212
 20
172.70424299999999
 30
0.0
 11
78.13695000000007
 21
172.697169
 31
0.0
  0
LINE
  8
OUTLINE
  6
CONTINUOUS
 62
     3
 10
78.13695000000007
 20
172.697169
 30
0.0
 11
78.178431000000046
 21
172.69007500000001
 31
0.0
  0
LINE
  8
OUTLINE
  6
CONTINUOUS
 62
     3
 10
78.178431000000046
 20
172.69007500000001
 30
0.0
 11
78.224136000000044
 21
172.68326999999999
 31
0.0
  0
LINE
  8
OUTLINE
  6
CONTINUOUS
 62
     3
 10
78.224136000000044
 20
172.68326999999999
 30
0.0
 11
78.273441000000275
 21
172.67710099999999
 31
0.0
  0
LINE
  8
OUTLINE
  6
CONTINUOUS
 62
     3
 10
78.273441000000275
 20
172.67710099999999
 30
0.0
 11
78.325941999999941
 21
172.67195000000001
 31
0.0
  0
LINE
  8
OUTLINE
  6
CONTINUOUS
 62
     3
 10
78.325941999999941
 20
172.67195000000001
 30
0.0
 11
78.380398000000014
 21
172.66802600000011
 31
0.0
  0
LINE
  8
OUTLINE
  6
CONTINUOUS
 62
     3
 10
78.380398000000014
 20
172.66802600000011
 30
0.0
 11
78.435449999999946
 21
172.665708
 31
0.0
  0
LINE
  8
OUTLINE
  6
CONTINUOUS
 62
     3
 10
78.435449999999946
 20
172.665708
 30
0.0
 11
78.490580000000136
 21
172.66487000000009
 31
0.0
  0
LINE
  8
OUTLINE
  6
CONTINUOUS
 62
     3
 10
78.490580000000136
 20
172.66487000000009
 30
0.0
 11
79.003619000000072
 21
172.66491500000009
 31
0.0
  0
LINE
  8
OUTLINE
  6
CONTINUOUS
 62
     3
 10
79.003619000000072
 20
172.66491500000009
 30
0.0
 11
79.016691000000264
 21
172.6650480000001
 31
0.0
  0
LINE
  8
OUTLINE
  6
CONTINUOUS
 62
     3
 10
79.016691000000264
 20
172.6650480000001
 30
0.0
 11
79.029738000000179
 21
172.66526999999999
 31
0.0
  0
LINE
  8
OUTLINE
  6
CONTINUOUS
 62
     3
 10
79.029738000000179
 20
172.66526999999999
 30
0.0
 11
79.042760000000044
 21
172.66558000000001
 31
0.0
  0
LINE
  8
OUTLINE
  6
CONTINUOUS
 62
     3
 10
79.042760000000044
 20
172.66557599999999
 30
0.0
 11
79.101957000000084
 21
172.66781900000001
 31
0.0
  0
LINE
  8
OUTLINE
  6
CONTINUOUS
 62
     3
 10
79.101957000000084
 20
172.66781900000001
 30
0.0
 11
79.159902999999986
 21
172.67092600000001
 31
0.0
  0
LINE
  8
OUTLINE
  6
CONTINUOUS
 62
     3
 10
79.159902999999986
 20
172.67092600000001
 30
0.0
 11
79.215836000000081
 21
172.67502400000001
 31
0.0
  0
LINE
  8
OUTLINE
  6
CONTINUOUS
 62
     3
 10
79.215836000000081
 20
172.67502400000001
 30
0.0
 11
79.268508999999995
 21
172.6797369999999
 31
0.0
  0
LINE
  8
OUTLINE
  6
CONTINUOUS
 62
     3
 10
79.268508999999995
 20
172.6797369999999
 30
0.0
 11
79.316720000000032
 21
172.68481800000001
 31
0.0
  0
LINE
  8
OUTLINE
  6
CONTINUOUS
 62
     3
 10
79.316720000000032
 20
172.68481800000001
 30
0.0
 11
79.360175000000254
 21
172.69000399999999
 31
0.0
  0
LINE
  8
OUTLINE
  6
CONTINUOUS
 62
     3
 10
79.360175000000254
 20
172.69000399999999
 30
0.0
 11
79.398380999999972
 21
172.69503399999999
 31
0.0
  0
LINE
  8
OUTLINE
  6
CONTINUOUS
 62
     3
 10
79.398380999999972
 20
172.69503399999999
 30
0.0
 11
79.430722999999944
 21
172.69964999999999
 31
0.0
  0
LINE
  8
OUTLINE
  6
CONTINUOUS
 62
     3
 10
79.430722999999944
 20
172.69964999999999
 30
0.0
 11
79.456760999999915
 21
172.70357000000001
 31
0.0
  0
ARC
  8
OUTLINE
  6
CONTINUOUS
 62
     3
 10
79.042760000000044
 20
167.72987000000001
 30
0.0
 40
4.9993999999999996
 50
1.0051130000008079
 51
84.862227000000686
  0
LINE
  8
OUTLINE
  6
CONTINUOUS
 62
     3
 10
0.0
 20
-15.0
 30
0.0
 11
117.8066899999999
 21
-15.0
 31
0.0
  0
ARC
  8
OUTLINE
  6
CONTINUOUS
 62
     3
 10
-117.80668900000001
 20
-14.0
 30
0.0
 40
1.0
 50
226.50000000000489
 51
270.0
  0
LINE
  8
OUTLINE
  6
CONTINUOUS
 62
     3
 10
-124.238934
 20
-9.2746259999998983
 30
0.0
 11
-118.49504399999979
 21
-14.725374999999991
 31
0.0
  0
ARC
  8
OUTLINE
  6
CONTINUOUS
 62
     3
 10
-123.5505800000001
 20
-8.5492519999999104
 30
0.0
 40
1.0
 50
182.99999999999901
 51
226.50000000000489
  0
LINE
  8
OUTLINE
  6
CONTINUOUS
 62
     3
 10
-124.54920899999981
 20
-8.6015879999999925
 30
0.0
 11
-124.972424
 21
-0.5261679999999842
 31
0.0
  0
ARC
  8
OUTLINE
  6
CONTINUOUS
 62
     3
 10
-124.47310899999999
 20
-0.5
 30
0.0
 40
0.5
 50
90.0
 51
182.99999999999901
  0
LINE
  8
OUTLINE
  6
CONTINUOUS
 62
     3
 10
-61.992559999999912
 20
172.72927000000001
 30
0.0
 11
-61.992559999999912
 21
176.8487749999999
 31
0.0
  0
ARC
  8
OUTLINE
  6
CONTINUOUS
 62
     3
 10
-61.112665000000113
 20
176.8487749999999
 30
0.0
 40
0.8798940000000001
 50
90.0
 51
180.0
  0
LINE
  8
OUTLINE
  6
CONTINUOUS
 62
     3
 10
-77.990639999999985
 20
172.72926699999991
 30
0.0
 11
-77.993688999999904
 21
172.72837000000001
 31
0.0
  0
LINE
  8
OUTLINE
  6
CONTINUOUS
 62
     3
 10
-86.989868000000115
 20
0.0
 30
0.0
 11
-84.041386999999759
 21
167.81769299999999
 31
0.0
  0
LINE
  8
OUTLINE
  6
CONTINUOUS
 62
     3
 10
-84.083639999999832
 20
166.48002
 30
0.0
 11
-84.064890000000105
 21
166.48002
 31
0.0
  0
LINE
  8
OUTLINE
  6
CONTINUOUS
 62
     3
 10
-79.456760000000031
 20
172.70357000000001
 30
0.0
 11
-79.486756999999898
 21
172.708437
 31
0.0
  0
LINE
  8
OUTLINE
  6
CONTINUOUS
 62
     3
 10
-79.486756999999898
 20
172.708437
 30
0.0
 11
-79.490459999999985
 21
172.70917299999999
 31
0.0
  0
LINE
  8
OUTLINE
  6
CONTINUOUS
 62
     3
 10
-77.993688999999904
 20
172.72837000000001
 30
0.0
 11
-78.018538999999919
 21
172.72214899999989
 31
0.0
  0
LINE
  8
OUTLINE
  6
CONTINUOUS
 62
     3
 10
-78.018538999999919
 20
172.72214899999989
 30
0.0
 11
-78.040266999999858
 21
172.7170620000002
 31
0.0
  0
LINE
  8
OUTLINE
  6
CONTINUOUS
 62
     3
 10
-78.040266999999858
 20
172.7170620000002
 30
0.0
 11
-78.067485000000033
 21
172.71097700000001
 31
0.0
  0
LINE
  8
OUTLINE
  6
CONTINUOUS
 62
     3
 10
-78.067485000000033
 20
172.71097700000001
 30
0.0
 11
-78.099878999999873
 21
172.70424299999999
 31
0.0
  0
LINE
  8
OUTLINE
  6
CONTINUOUS
 62
     3
 10
-78.099878999999873
 20
172.70424299999999
 30
0.0
 11
-78.136948999999959
 21
172.697169
 31
0.0
  0
LINE
  8
OUTLINE
  6
CONTINUOUS
 62
     3
 10
-78.136948999999959
 20
172.697169
 30
0.0
 11
-78.178429999999935
 21
172.69007500000001
 31
0.0
  0
LINE
  8
OUTLINE
  6
CONTINUOUS
 62
     3
 10
-78.178429999999935
 20
172.69007500000001
 30
0.0
 11
-78.224134999999933
 21
172.68326999999999
 31
0.0
  0
LINE
  8
OUTLINE
  6
CONTINUOUS
 62
     3
 10
-78.224134999999933
 20
172.68326999999999
 30
0.0
 11
-78.273439999999937
 21
172.67710099999999
 31
0.0
  0
LINE
  8
OUTLINE
  6
CONTINUOUS
 62
     3
 10
-78.273439999999937
 20
172.67710099999999
 30
0.0
 11
-78.325941000000057
 21
172.67195000000001
 31
0.0
  0
LINE
  8
OUTLINE
  6
CONTINUOUS
 62
     3
 10
-78.325941000000057
 20
172.67195000000001
 30
0.0
 11
-78.380397999999786
 21
172.66802600000011
 31
0.0
  0
LINE
  8
OUTLINE
  6
CONTINUOUS
 62
     3
 10
-78.380397999999786
 20
172.66802600000011
 30
0.0
 11
-78.435449000000062
 21
172.665708
 31
0.0
  0
LINE
  8
OUTLINE
  6
CONTINUOUS
 62
     3
 10
-78.435449000000062
 20
172.665708
 30
0.0
 11
-78.490580000000136
 21
172.66487000000009
 31
0.0
  0
LINE
  8
OUTLINE
  6
CONTINUOUS
 62
     3
 10
-78.490580000000136
 20
172.66487000000009
 30
0.0
 11
-79.00361799999996
 21
172.66491500000009
 31
0.0
  0
LINE
  8
OUTLINE
  6
CONTINUOUS
 62
     3
 10
-79.00361799999996
 20
172.66491500000009
 30
0.0
 11
-79.016689999999926
 21
172.6650480000001
 31
0.0
  0
LINE
  8
OUTLINE
  6
CONTINUOUS
 62
     3
 10
-79.016689999999926
 20
172.6650480000001
 30
0.0
 11
-79.029736999999841
 21
172.66526999999999
 31
0.0
  0
LINE
  8
OUTLINE
  6
CONTINUOUS
 62
     3
 10
-79.029736999999841
 20
172.66526999999999
 30
0.0
 11
-79.042758999999933
 21
172.66558000000001
 31
0.0
  0
LINE
  8
OUTLINE
  6
CONTINUOUS
 62
     3
 10
-79.042758999999933
 20
172.66557599999999
 30
0.0
 11
-79.101955999999973
 21
172.66781900000001
 31
0.0
  0
LINE
  8
OUTLINE
  6
CONTINUOUS
 62
     3
 10
-79.101955999999973
 20
172.66781900000001
 30
0.0
 11
-79.159901999999875
 21
172.67092600000001
 31
0.0
  0
LINE
  8
OUTLINE
  6
CONTINUOUS
 62
     3
 10
-79.159901999999875
 20
172.67092600000001
 30
0.0
 11
-79.21583499999997
 21
172.67502400000001
 31
0.0
  0
LINE
  8
OUTLINE
  6
CONTINUOUS
 62
     3
 10
-79.21583499999997
 20
172.67502400000001
 30
0.0
 11
-79.268507999999883
 21
172.6797369999999
 31
0.0
  0
LINE
  8
OUTLINE
  6
CONTINUOUS
 62
     3
 10
-79.268507999999883
 20
172.6797369999999
 30
0.0
 11
-79.316718999999921
 21
172.68481800000001
 31
0.0
  0
LINE
  8
OUTLINE
  6
CONTINUOUS
 62
     3
 10
-79.316718999999921
 20
172.68481800000001
 30
0.0
 11
-79.360173999999915
 21
172.69000399999999
 31
0.0
  0
LINE
  8
OUTLINE
  6
CONTINUOUS
 62
     3
 10
-79.360173999999915
 20
172.69000399999999
 30
0.0
 11
-79.398380000000088
 21
172.69503399999999
 31
0.0
  0
LINE
  8
OUTLINE
  6
CONTINUOUS
 62
     3
 10
-79.398380000000088
 20
172.69503399999999
 30
0.0
 11
-79.43072200000006
 21
172.69964999999999
 31
0.0
  0
LINE
  8
OUTLINE
  6
CONTINUOUS
 62
     3
 10
-79.43072200000006
 20
172.69964999999999
 30
0.0
 11
-79.456760000000031
 21
172.70357000000001
 31
0.0
  0
ARC
  8
OUTLINE
  6
CONTINUOUS
 62
     3
 10
-79.042758999999933
 20
167.72987000000001
 30
0.0
 40
4.9993999999999996
 50
95.137772999999314
 51
178.99488699999921
  0
LINE
  8
OUTLINE
  6
CONTINUOUS
 62
     3
 10
0.0
 20
-15.0
 30
0.0
 11
-117.80668900000001
 21
-15.0
 31
0.0
  0
LINE
  8
OUTLINE
  6
CONTINUOUS
 62
     3
 10
-86.989868000000115
 20
0.0
 30
0.0
 11
-124.47310899999999
 21
0.0
 31
0.0
  0
LINE
  8
OUTLINE
  6
CONTINUOUS
 62
     3
 10
86.989868999999999
 20
0.0
 30
0.0
 11
124.47310999999991
 21
0.0
 31
0.0
  0
LINE
  8
OUTLINE
  6
CONTINUOUS
 62
     3
 10
61.99256000000014
 20
172.72927000000001
 30
0.0
 11
77.990639999999985
 21
172.72927000000001
 31
0.0
  0
LINE
  8
OUTLINE
  6
CONTINUOUS
 62
     3
 10
-61.992559999999912
 20
172.72927000000001
 30
0.0
 11
-77.990639999999985
 21
172.72927000000001
 31
0.0
  0
LINE
  8
DETAIL
  6
CONTINUOUS
 62
     5
 10
-65.0
 20
60.399600000000078
 30
0.0
 11
-65.0
 21
139.23431600000001
 31
0.0
  0
ARC
  8
DETAIL
  6
CONTINUOUS
 62
     5
 10
-48.0
 20
139.23431600000001
 30
0.0
 40
17.0
 50
93.64114499999944
 51
180.0
  0
LINE
  8
DETAIL
  6
CONTINUOUS
 62
     5
 10
-49.079623000000083
 20
156.19999999999999
 30
0.0
 11
0.0
 21
156.19999999999999
 31
0.0
  0
ARC
  8
DETAIL
  6
CONTINUOUS
 62
     5
 10
-117.8066899999999
 20
-14.0
 30
0.0
 40
1.0
 50
226.5000000000027
 51
270.0
  0
LINE
  8
DETAIL
  6
CONTINUOUS
 62
     5
 10
-124.2389350000001
 20
-9.274626000000012
 30
0.0
 11
-118.4950450000001
 21
-14.725374999999991
 31
0.0
  0
ARC
  8
DETAIL
  6
CONTINUOUS
 62
     5
 10
-123.55058099999999
 20
-8.5492520000000241
 30
0.0
 40
1.0
 50
182.99999999999901
 51
226.5000000000027
  0
LINE
  8
DETAIL
  6
CONTINUOUS
 62
     5
 10
-124.5492100000001
 20
-8.6015879999999925
 30
0.0
 11
-124.9724249999999
 21
-0.5261679999999842
 31
0.0
  0
ARC
  8
DETAIL
  6
CONTINUOUS
 62
     5
 10
-124.47310999999991
 20
-0.5
 30
0.0
 40
0.5
 50
90.0
 51
182.99999999999901
  0
LINE
  8
DETAIL
  6
CONTINUOUS
 62
     5
 10
0.0
 20
-9.274626000000012
 30
0.0
 11
-124.2389350000001
 21
-9.274626000000012
 31
0.0
  0
LINE
  8
DETAIL
  6
CONTINUOUS
 62
     5
 10
0.0
 20
0.0
 30
0.0
 11
-124.47310999999991
 21
0.0
 31
0.0
  0
LINE
  8
DETAIL
  6
CONTINUOUS
 62
     5
 10
-54.337833000000053
 20
183.97792000000001
 30
0.0
 11
-53.984832999999981
 21
183.97792000000001
 31
0.0
  0
ARC
  8
DETAIL
  6
CONTINUOUS
 62
     5
 10
-54.00220800000011
 20
182.97803500000001
 30
0.0
 40
0.9998799999999999
 50
90.0
 51
179.49976300000111
  0
LINE
  8
DETAIL
  6
CONTINUOUS
 62
     5
 10
-45.985793000000058
 20
183.97792000000001
 30
0.0
 11
-46.003168000000187
 21
183.97792000000001
 31
0.0
  0
ARC
  8
DETAIL
  6
CONTINUOUS
 62
     5
 10
-46.003168000000187
 20
182.97803500000001
 30
0.0
 40
0.9998799999999999
 50
90.0
 51
179.49976300000111
  0
LINE
  8
DETAIL
  6
CONTINUOUS
 62
     5
 10
-55.254793000000063
 20
183.3767180000001
 30
0.0
 11
-57.710465999999997
 21
177.72867000000011
 31
0.0
  0
ARC
  8
DETAIL
  6
CONTINUOUS
 62
     5
 10
-53.984832999999981
 20
182.97803500000001
 30
0.0
 40
0.9998799999999999
 50
0.5002730000015718
 51
90.0
  0
LINE
  8
DETAIL
  6
CONTINUOUS
 62
     5
 10
-55.002050000000047
 20
182.98676499999999
 30
0.0
 11
-55.047937000000267
 21
177.72867000000011
 31
0.0
  0
LINE
  8
DETAIL
  6
CONTINUOUS
 62
     5
 10
-52.939104000000043
 20
177.72867000000011
 30
0.0
 11
-52.984991000000257
 21
182.98676499999999
 31
0.0
  0
LINE
  8
DETAIL
  6
CONTINUOUS
 62
     5
 10
-47.003009999999897
 20
182.98676499999999
 30
0.0
 11
-47.048897000000117
 21
177.72867000000011
 31
0.0
  0
LINE
  8
DETAIL
  6
CONTINUOUS
 62
     5
 10
-44.985951000000107
 20
182.98676499999999
 30
0.0
 11
-44.94006400000012
 21
177.72867000000011
 31
0.0
  0
ARC
  8
DETAIL
  6
CONTINUOUS
 62
     5
 10
-45.985793000000058
 20
182.97803400000001
 30
0.0
 40
0.9998799999999999
 50
0.5003079999974969
 51
90.0
  0
LINE
  8
DETAIL
  6
CONTINUOUS
 62
     5
 10
0.0
 20
45.399600000000078
 30
0.0
 11
-50.0
 21
45.399600000000078
 31
0.0
  0
ARC
  8
DETAIL
  6
CONTINUOUS
 62
     5
 10
-50.0
 20
60.399600000000078
 30
0.0
 40
15.0
 50
180.0
 51
270.0
  0
ARC
  8
DETAIL
  6
CONTINUOUS
 62
     5
 10
0.0
 20
102.0
 30
0.0
 40
48.899999999999999
 50
90.0
 51
270.0
  0
ARC
  8
DETAIL
  6
CONTINUOUS
 62
     5
 10
0.0
 20
102.0
 30
0.0
 40
52.813999999999993
 50
90.0
 51
270.0
  0
ARC
  8
DETAIL
  6
CONTINUOUS
 62
     5
 10
0.0
 20
102.0
 30
0.0
 40
46.899999999999999
 50
90.0
 51
270.0
  0
LINE
  8
DETAIL
  6
CONTINUOUS
 62
     5
 10
-61.99256000000014
 20
172.72927000000001
 30
0.0
 11
-61.99256000000014
 21
176.8487749999999
 31
0.0
  0
LINE
  8
DETAIL
  6
CONTINUOUS
 62
     5
 10
-61.11266599999999
 20
177.72867000000011
 30
0.0
 11
0.0
 21
177.72867000000011
 31
0.0
  0
ARC
  8
DETAIL
  6
CONTINUOUS
 62
     5
 10
-61.11266599999999
 20
176.8487749999999
 30
0.0
 40
0.8798940000000001
 50
90.0
 51
180.0
  0
ARC
  8
DETAIL
  6
CONTINUOUS
 62
     5
 10
-54.337833000000053
 20
182.97804000000011
 30
0.0
 40
0.9998799999999999
 50
90.0
 51
156.50143400000101
  0
LINE
  8
DETAIL
  6
CONTINUOUS
 62
     5
 10
0.0
 20
172.72927000000001
 30
0.0
 11
-77.990639999999985
 21
172.72927000000001
 31
0.0
  0
LINE
  8
DETAIL
  6
CONTINUOUS
 62
     5
 10
-77.990639999999985
 20
172.72926699999991
 30
0.0
 11
-77.993690000000015
 21
172.72837000000001
 31
0.0
  0
LINE
  8
DETAIL
  6
CONTINUOUS
 62
     5
 10
-86.989868999999999
 20
0.0
 30
0.0
 11
-84.041388000000097
 21
167.81769300000019
 31
0.0
  0
LINE
  8
DETAIL
  6
CONTINUOUS
 62
     5
 10
-84.083641000000171
 20
166.4800200000002
 30
0.0
 11
-84.064890999999989
 21
166.4800200000002
 31
0.0
  0
LINE
  8
DETAIL
  6
CONTINUOUS
 62
     5
 10
-79.456760999999915
 20
172.70357000000001
 30
0.0
 11
-79.486758000000009
 21
172.708437
 31
0.0
  0
LINE
  8
DETAIL
  6
CONTINUOUS
 62
     5
 10
-79.486758000000009
 20
172.708437
 30
0.0
 11
-79.490459999999985
 21
172.70917300000011
 31
0.0
  0
LINE
  8
DETAIL
  6
CONTINUOUS
 62
     5
 10
-77.993690000000015
 20
172.72837000000001
 30
0.0
 11
-78.01854000000003
 21
172.72214900000009
 31
0.0
  0
LINE
  8
DETAIL
  6
CONTINUOUS
 62
     5
 10
-78.01854000000003
 20
172.72214900000009
 30
0.0
 11
-78.040268000000196
 21
172.7170620000002
 31
0.0
  0
LINE
  8
DETAIL
  6
CONTINUOUS
 62
     5
 10
-78.040268000000196
 20
172.7170620000002
 30
0.0
 11
-78.067485999999917
 21
172.7109770000001
 31
0.0
  0
LINE
  8
DETAIL
  6
CONTINUOUS
 62
     5
 10
-78.067485999999917
 20
172.7109770000001
 30
0.0
 11
-78.099880000000212
 21
172.70424299999999
 31
0.0
  0
LINE
  8
DETAIL
  6
CONTINUOUS
 62
     5
 10
-78.099880000000212
 20
172.70424299999999
 30
0.0
 11
-78.13695000000007
 21
172.697169
 31
0.0
  0
LINE
  8
DETAIL
  6
CONTINUOUS
 62
     5
 10
-78.13695000000007
 20
172.697169
 30
0.0
 11
-78.178431000000046
 21
172.69007500000009
 31
0.0
  0
LINE
  8
DETAIL
  6
CONTINUOUS
 62
     5
 10
-78.178431000000046
 20
172.69007500000009
 30
0.0
 11
-78.224136000000044
 21
172.68327000000011
 31
0.0
  0
LINE
  8
DETAIL
  6
CONTINUOUS
 62
     5
 10
-78.224136000000044
 20
172.68327000000011
 30
0.0
 11
-78.273441000000275
 21
172.67710100000011
 31
0.0
  0
LINE
  8
DETAIL
  6
CONTINUOUS
 62
     5
 10
-78.273441000000275
 20
172.67710100000011
 30
0.0
 11
-78.325941999999941
 21
172.67195000000001
 31
0.0
  0
LINE
  8
DETAIL
  6
CONTINUOUS
 62
     5
 10
-78.325941999999941
 20
172.67195000000001
 30
0.0
 11
-78.380398000000014
 21
172.66802600000011
 31
0.0
  0
LINE
  8
DETAIL
  6
CONTINUOUS
 62
     5
 10
-78.380398000000014
 20
172.66802600000011
 30
0.0
 11
-78.435449999999946
 21
172.665708
 31
0.0
  0
LINE
  8
DETAIL
  6
CONTINUOUS
 62
     5
 10
-78.435449999999946
 20
172.665708
 30
0.0
 11
-78.490580000000136
 21
172.66487000000009
 31
0.0
  0
LINE
  8
DETAIL
  6
CONTINUOUS
 62
     5
 10
-78.490580000000136
 20
172.66487000000009
 30
0.0
 11
-79.003619000000072
 21
172.66491500000009
 31
0.0
  0
LINE
  8
DETAIL
  6
CONTINUOUS
 62
     5
 10
-79.003619000000072
 20
172.66491500000009
 30
0.0
 11
-79.016691000000264
 21
172.6650480000001
 31
0.0
  0
LINE
  8
DETAIL
  6
CONTINUOUS
 62
     5
 10
-79.016691000000264
 20
172.6650480000001
 30
0.0
 11
-79.029738000000179
 21
172.66527000000011
 31
0.0
  0
LINE
  8
DETAIL
  6
CONTINUOUS
 62
     5
 10
-79.029738000000179
 20
172.66527000000011
 30
0.0
 11
-79.042760000000044
 21
172.66558000000001
 31
0.0
  0
LINE
  8
DETAIL
  6
CONTINUOUS
 62
     5
 10
-79.042760000000044
 20
172.66557599999999
 30
0.0
 11
-79.101957000000084
 21
172.66781900000001
 31
0.0
  0
LINE
  8
DETAIL
  6
CONTINUOUS
 62
     5
 10
-79.101957000000084
 20
172.66781900000001
 30
0.0
 11
-79.159902999999986
 21
172.67092600000001
 31
0.0
  0
LINE
  8
DETAIL
  6
CONTINUOUS
 62
     5
 10
-79.159902999999986
 20
172.67092600000001
 30
0.0
 11
-79.215836000000081
 21
172.67502400000001
 31
0.0
  0
LINE
  8
DETAIL
  6
CONTINUOUS
 62
     5
 10
-79.215836000000081
 20
172.67502400000001
 30
0.0
 11
-79.268508999999995
 21
172.6797369999999
 31
0.0
  0
LINE
  8
DETAIL
  6
CONTINUOUS
 62
     5
 10
-79.268508999999995
 20
172.6797369999999
 30
0.0
 11
-79.316720000000032
 21
172.68481800000009
 31
0.0
  0
LINE
  8
DETAIL
  6
CONTINUOUS
 62
     5
 10
-79.316720000000032
 20
172.68481800000009
 30
0.0
 11
-79.360175000000254
 21
172.69000399999999
 31
0.0
  0
LINE
  8
DETAIL
  6
CONTINUOUS
 62
     5
 10
-79.360175000000254
 20
172.69000399999999
 30
0.0
 11
-79.398380999999972
 21
172.69503399999999
 31
0.0
  0
LINE
  8
DETAIL
  6
CONTINUOUS
 62
     5
 10
-79.398380999999972
 20
172.69503399999999
 30
0.0
 11
-79.430722999999944
 21
172.69964999999999
 31
0.0
  0
LINE
  8
DETAIL
  6
CONTINUOUS
 62
     5
 10
-79.430722999999944
 20
172.69964999999999
 30
0.0
 11
-79.456760999999915
 21
172.70357000000001
 31
0.0
  0
ARC
  8
DETAIL
  6
CONTINUOUS
 62
     5
 10
-79.042760000000044
 20
167.72987000000001
 30
0.0
 40
4.9993999999999996
 50
95.137772999999314
 51
178.99488699999921
  0
ARC
  8
DETAIL
  6
CONTINUOUS
 62
     5
 10
-50.0
 20
60.387080999999966
 30
0.0
 40
15.0
 50
180.0
 51
270.0
  0
LINE
  8
DETAIL
  6
CONTINUOUS
 62
     5
 10
0.0
 20
45.387080999999966
 30
0.0
 11
-50.0
 21
45.387080999999966
 31
0.0
  0
LINE
  8
DETAIL
  6
CONTINUOUS
 62
     5
 10
-65.0
 20
60.387080999999966
 30
0.0
 11
-65.0
 21
139.14215300000001
 31
0.0
  0
ARC
  8
DETAIL
  6
CONTINUOUS
 62
     5
 10
-48.0
 20
139.14215300000001
 30
0.0
 40
17.0
 50
93.64114499999944
 51
180.0
  0
LINE
  8
DETAIL
  6
CONTINUOUS
 62
     5
 10
-49.079623000000083
 20
156.10783599999999
 30
0.0
 11
0.0
 21
156.10783599999999
 31
0.0
  0
LINE
  8
DETAIL
  6
CONTINUOUS
 62
     5
 10
0.0
 20
-15.0
 30
0.0
 11
-117.8066899999999
 21
-15.0
 31
0.0
  0
LINE
  8
DETAIL
  6
CONTINUOUS
 62
     5
 10
65.0
 20
60.399600000000078
 30
0.0
 11
65.0
 21
139.23431600000001
 31
0.0
  0
ARC
  8
DETAIL
  6
CONTINUOUS
 62
     5
 10
48.0
 20
139.23431600000001
 30
0.0
 40
17.0
 50
0.0
 51
86.35885500000056
  0
LINE
  8
DETAIL
  6
CONTINUOUS
 62
     5
 10
49.079621999999972
 20
156.19999999999999
 30
0.0
 11
0.0
 21
156.19999999999999
 31
0.0
  0
ARC
  8
DETAIL
  6
CONTINUOUS
 62
     5
 10
117.80668900000001
 20
-14.0
 30
0.0
 40
1.0
 50
270.0
 51
313.49999999999733
  0
LINE
  8
DETAIL
  6
CONTINUOUS
 62
     5
 10
124.238934
 20
-9.274626000000012
 30
0.0
 11
118.49504399999979
 21
-14.725374999999991
 31
0.0
  0
ARC
  8
DETAIL
  6
CONTINUOUS
 62
     5
 10
123.5505800000001
 20
-8.5492520000000241
 30
0.0
 40
1.0
 50
313.49999999999733
 51
357.00000000000102
  0
LINE
  8
DETAIL
  6
CONTINUOUS
 62
     5
 10
124.54920899999981
 20
-8.6015879999999925
 30
0.0
 11
124.972424
 21
-0.5261679999999842
 31
0.0
  0
ARC
  8
DETAIL
  6
CONTINUOUS
 62
     5
 10
124.47310899999999
 20
-0.5
 30
0.0
 40
0.5
 50
357.00000000000102
 51
90.0
  0
LINE
  8
DETAIL
  6
CONTINUOUS
 62
     5
 10
0.0
 20
-9.274626000000012
 30
0.0
 11
124.238934
 21
-9.274626000000012
 31
0.0
  0
LINE
  8
DETAIL
  6
CONTINUOUS
 62
     5
 10
0.0
 20
0.0
 30
0.0
 11
124.47310899999999
 21
0.0
 31
0.0
  0
LINE
  8
DETAIL
  6
CONTINUOUS
 62
     5
 10
54.337831999999928
 20
183.97792000000001
 30
0.0
 11
53.984832000000097
 21
183.97792000000001
 31
0.0
  0
ARC
  8
DETAIL
  6
CONTINUOUS
 62
     5
 10
54.002206999999999
 20
182.97803500000001
 30
0.0
 40
0.9998799999999999
 50
0.5002369999988823
 51
90.0
  0
LINE
  8
DETAIL
  6
CONTINUOUS
 62
     5
 10
45.985791999999947
 20
183.97792000000001
 30
0.0
 11
46.003166999999848
 21
183.97792000000001
 31
0.0
  0
ARC
  8
DETAIL
  6
CONTINUOUS
 62
     5
 10
46.003166999999848
 20
182.97803500000001
 30
0.0
 40
0.9998799999999999
 50
0.5002369999988823
 51
90.0
  0
LINE
  8
DETAIL
  6
CONTINUOUS
 62
     5
 10
55.254791999999718
 20
183.3767180000001
 30
0.0
 11
57.710464999999893
 21
177.72867000000011
 31
0.0
  0
ARC
  8
DETAIL
  6
CONTINUOUS
 62
     5
 10
53.984832000000097
 20
182.97803500000001
 30
0.0
 40
0.9998799999999999
 50
90.0
 51
179.49972699999839
  0
LINE
  8
DETAIL
  6
CONTINUOUS
 62
     5
 10
55.002048999999943
 20
182.98676499999999
 30
0.0
 11
55.047935999999943
 21
177.72867000000011
 31
0.0
  0
LINE
  8
DETAIL
  6
CONTINUOUS
 62
     5
 10
52.939102999999932
 20
177.72867000000011
 30
0.0
 11
52.984989999999932
 21
182.98676499999999
 31
0.0
  0
LINE
  8
DETAIL
  6
CONTINUOUS
 62
     5
 10
47.00300900000002
 20
182.98676499999999
 30
0.0
 11
47.048895999999793
 21
177.72867000000011
 31
0.0
  0
LINE
  8
DETAIL
  6
CONTINUOUS
 62
     5
 10
44.985949999999782
 20
182.98676499999999
 30
0.0
 11
44.940063000000009
 21
177.72867000000011
 31
0.0
  0
ARC
  8
DETAIL
  6
CONTINUOUS
 62
     5
 10
45.985791999999947
 20
182.97803400000001
 30
0.0
 40
0.9998799999999999
 50
90.0
 51
179.49969200000251
  0
LINE
  8
DETAIL
  6
CONTINUOUS
 62
     5
 10
0.0
 20
45.399600000000078
 30
0.0
 11
50.0
 21
45.399600000000078
 31
0.0
  0
ARC
  8
DETAIL
  6
CONTINUOUS
 62
     5
 10
50.0
 20
60.399600000000078
 30
0.0
 40
15.0
 50
270.0
 51
0.0
  0
ARC
  8
DETAIL
  6
CONTINUOUS
 62
     5
 10
0.0
 20
102.0
 30
0.0
 40
48.899999999999999
 50
270.0
 51
90.0
  0
ARC
  8
DETAIL
  6
CONTINUOUS
 62
     5
 10
0.0
 20
102.0
 30
0.0
 40
52.813999999999993
 50
270.0
 51
90.0
  0
ARC
  8
DETAIL
  6
CONTINUOUS
 62
     5
 10
0.0
 20
102.0
 30
0.0
 40
46.899999999999999
 50
270.0
 51
90.0
  0
LINE
  8
DETAIL
  6
CONTINUOUS
 62
     5
 10
61.992559999999912
 20
172.72927000000001
 30
0.0
 11
61.992559999999912
 21
176.8487749999999
 31
0.0
  0
LINE
  8
DETAIL
  6
CONTINUOUS
 62
     5
 10
61.112665000000113
 20
177.72867000000011
 30
0.0
 11
0.0
 21
177.72867000000011
 31
0.0
  0
ARC
  8
DETAIL
  6
CONTINUOUS
 62
     5
 10
61.112665000000113
 20
176.8487749999999
 30
0.0
 40
0.8798940000000001
 50
0.0
 51
90.0
  0
ARC
  8
DETAIL
  6
CONTINUOUS
 62
     5
 10
54.337831999999928
 20
182.97804000000011
 30
0.0
 40
0.9998799999999999
 50
23.498565999999041
 51
90.0
  0
LINE
  8
DETAIL
  6
CONTINUOUS
 62
     5
 10
0.0
 20
172.72927000000001
 30
0.0
 11
77.990639999999985
 21
172.72927000000001
 31
0.0
  0
LINE
  8
DETAIL
  6
CONTINUOUS
 62
     5
 10
77.990639999999985
 20
172.72926699999991
 30
0.0
 11
77.993688999999904
 21
172.72837000000001
 31
0.0
  0
LINE
  8
DETAIL
  6
CONTINUOUS
 62
     5
 10
86.989868000000115
 20
0.0
 30
0.0
 11
84.041386999999759
 21
167.81769300000019
 31
0.0
  0
LINE
  8
DETAIL
  6
CONTINUOUS
 62
     5
 10
84.083639999999832
 20
166.4800200000002
 30
0.0
 11
84.064890000000105
 21
166.4800200000002
 31
0.0
  0
LINE
  8
DETAIL
  6
CONTINUOUS
 62
     5
 10
79.456760000000031
 20
172.70357000000001
 30
0.0
 11
79.486756999999898
 21
172.708437
 31
0.0
  0
LINE
  8
DETAIL
  6
CONTINUOUS
 62
     5
 10
79.486756999999898
 20
172.708437
 30
0.0
 11
79.490459999999985
 21
172.70917300000011
 31
0.0
  0
LINE
  8
DETAIL
  6
CONTINUOUS
 62
     5
 10
77.993688999999904
 20
172.72837000000001
 30
0.0
 11
78.018538999999919
 21
172.72214900000009
 31
0.0
  0
LINE
  8
DETAIL
  6
CONTINUOUS
 62
     5
 10
78.018538999999919
 20
172.72214900000009
 30
0.0
 11
78.040266999999858
 21
172.7170620000002
 31
0.0
  0
LINE
  8
DETAIL
  6
CONTINUOUS
 62
     5
 10
78.040266999999858
 20
172.7170620000002
 30
0.0
 11
78.067485000000033
 21
172.7109770000001
 31
0.0
  0
LINE
  8
DETAIL
  6
CONTINUOUS
 62
     5
 10
78.067485000000033
 20
172.7109770000001
 30
0.0
 11
78.099878999999873
 21
172.70424299999999
 31
0.0
  0
LINE
  8
DETAIL
  6
CONTINUOUS
 62
     5
 10
78.099878999999873
 20
172.70424299999999
 30
0.0
 11
78.136948999999959
 21
172.697169
 31
0.0
  0
LINE
  8
DETAIL
  6
CONTINUOUS
 62
     5
 10
78.136948999999959
 20
172.697169
 30
0.0
 11
78.178429999999935
 21
172.69007500000009
 31
0.0
  0
LINE
  8
DETAIL
  6
CONTINUOUS
 62
     5
 10
78.178429999999935
 20
172.69007500000009
 30
0.0
 11
78.224134999999933
 21
172.68327000000011
 31
0.0
  0
LINE
  8
DETAIL
  6
CONTINUOUS
 62
     5
 10
78.224134999999933
 20
172.68327000000011
 30
0.0
 11
78.273439999999937
 21
172.67710100000011
 31
0.0
  0
LINE
  8
DETAIL
  6
CONTINUOUS
 62
     5
 10
78.273439999999937
 20
172.67710100000011
 30
0.0
 11
78.325941000000057
 21
172.67195000000001
 31
0.0
  0
LINE
  8
DETAIL
  6
CONTINUOUS
 62
     5
 10
78.325941000000057
 20
172.67195000000001
 30
0.0
 11
78.380397999999786
 21
172.66802600000011
 31
0.0
  0
LINE
  8
DETAIL
  6
CONTINUOUS
 62
     5
 10
78.380397999999786
 20
172.66802600000011
 30
0.0
 11
78.435449000000062
 21
172.665708
 31
0.0
  0
LINE
  8
DETAIL
  6
CONTINUOUS
 62
     5
 10
78.435449000000062
 20
172.665708
 30
0.0
 11
78.490580000000136
 21
172.66487000000009
 31
0.0
  0
LINE
  8
DETAIL
  6
CONTINUOUS
 62
     5
 10
78.490580000000136
 20
172.66487000000009
 30
0.0
 11
79.00361799999996
 21
172.66491500000009
 31
0.0
  0
LINE
  8
DETAIL
  6
CONTINUOUS
 62
     5
 10
79.00361799999996
 20
172.66491500000009
 30
0.0
 11
79.016689999999926
 21
172.6650480000001
 31
0.0
  0
LINE
  8
DETAIL
  6
CONTINUOUS
 62
     5
 10
79.016689999999926
 20
172.6650480000001
 30
0.0
 11
79.029736999999841
 21
172.66527000000011
 31
0.0
  0
LINE
  8
DETAIL
  6
CONTINUOUS
 62
     5
 10
79.029736999999841
 20
172.66527000000011
 30
0.0
 11
79.042758999999933
 21
172.66558000000001
 31
0.0
  0
LINE
  8
DETAIL
  6
CONTINUOUS
 62
     5
 10
79.042758999999933
 20
172.66557599999999
 30
0.0
 11
79.101955999999973
 21
172.66781900000001
 31
0.0
  0
LINE
  8
DETAIL
  6
CONTINUOUS
 62
     5
 10
79.101955999999973
 20
172.66781900000001
 30
0.0
 11
79.159901999999875
 21
172.67092600000001
 31
0.0
  0
LINE
  8
DETAIL
  6
CONTINUOUS
 62
     5
 10
79.159901999999875
 20
172.67092600000001
 30
0.0
 11
79.21583499999997
 21
172.67502400000001
 31
0.0
  0
LINE
  8
DETAIL
  6
CONTINUOUS
 62
     5
 10
79.21583499999997
 20
172.67502400000001
 30
0.0
 11
79.268507999999883
 21
172.6797369999999
 31
0.0
  0
LINE
  8
DETAIL
  6
CONTINUOUS
 62
     5
 10
79.268507999999883
 20
172.6797369999999
 30
0.0
 11
79.316718999999921
 21
172.68481800000009
 31
0.0
  0
LINE
  8
DETAIL
  6
CONTINUOUS
 62
     5
 10
79.316718999999921
 20
172.68481800000009
 30
0.0
 11
79.360173999999915
 21
172.69000399999999
 31
0.0
  0
LINE
  8
DETAIL
  6
CONTINUOUS
 62
     5
 10
79.360173999999915
 20
172.69000399999999
 30
0.0
 11
79.398380000000088
 21
172.69503399999999
 31
0.0
  0
LINE
  8
DETAIL
  6
CONTINUOUS
 62
     5
 10
79.398380000000088
 20
172.69503399999999
 30
0.0
 11
79.43072200000006
 21
172.69964999999999
 31
0.0
  0
LINE
  8
DETAIL
  6
CONTINUOUS
 62
     5
 10
79.43072200000006
 20
172.69964999999999
 30
0.0
 11
79.456760000000031
 21
172.70357000000001
 31
0.0
  0
ARC
  8
DETAIL
  6
CONTINUOUS
 62
     5
 10
79.042758999999933
 20
167.72987000000001
 30
0.0
 40
4.9993999999999996
 50
1.0051130000008079
 51
84.862227000000686
  0
ARC
  8
DETAIL
  6
CONTINUOUS
 62
     5
 10
50.0
 20
60.387080999999966
 30
0.0
 40
15.0
 50
270.0
 51
0.0
  0
LINE
  8
DETAIL
  6
CONTINUOUS
 62
     5
 10
0.0
 20
45.387080999999966
 30
0.0
 11
50.0
 21
45.387080999999966
 31
0.0
  0
LINE
  8
DETAIL
  6
CONTINUOUS
 62
     5
 10
65.0
 20
60.387080999999966
 30
0.0
 11
65.0
 21
139.14215300000001
 31
0.0
  0
ARC
  8
DETAIL
  6
CONTINUOUS
 62
     5
 10
48.0
 20
139.14215300000001
 30
0.0
 40
17.0
 50
0.0
 51
86.35885500000056
  0
LINE
  8
DETAIL
  6
CONTINUOUS
 62
     5
 10
49.079621999999972
 20
156.10783599999999
 30
0.0
 11
0.0
 21
156.10783599999999
 31
0.0
  0
LINE
  8
DETAIL
  6
CONTINUOUS
 62
     5
 10
0.0
 20
-15.0
 30
0.0
 11
117.80668900000001
 21
-15.0
 31
0.0
  0
LINE
  8
BASIS
  6
DASHDOT
 62
     6
 10
58.149277999999867
 20
102.0
 30
0.0
 11
-60.43453199999999
 21
102.0
 31
0.0
  0
LINE
  8
BASIS
  6
DASHDOT
 62
     6
 10
0.0
 20
195.20970600000001
 30
0.0
 11
0.0
 21
-32.073361999999968
 31
0.0
  0
LINE
  8
NOTE
  6
CENTER
 62
     4
 10
69.0
 20
184.05659800000001
 30
0.0
 11
69.0
 21
163.64902500000019
 31
0.0
  0
LINE
  8
NOTE
  6
CENTER
 62
     4
 10
-65.0
 20
6.965336000000093
 30
0.0
 11
-65.0
 21
-6.2991109999999253
 31
0.0
  0
LINE
  8
NOTE
  6
CENTER
 62
     4
 10
-98.5
 20
6.965336000000093
 30
0.0
 11
-98.5
 21
-6.2991109999999253
 31
0.0
  0
LINE
  8
NOTE
  6
CENTER
 62
     4
 10
65.0
 20
6.965336000000093
 30
0.0
 11
65.0
 21
-6.2991109999999253
 31
0.0
  0
LINE
  8
NOTE
  6
CENTER
 62
     4
 10
98.5
 20
6.965336000000093
 30
0.0
 11
98.5
 21
-6.2991109999999253
 31
0.0
  0
CIRCLE
  8
FIX
  6
CONTINUOUS
 62
    11
 10
-98.5
 20
0.0
 30
0.0
 40
10.0
  0
CIRCLE
  8
FIX
  6
CONTINUOUS
 62
    11
 10
-65.0
 20
0.0
 30
0.0
 40
10.0
  0
CIRCLE
  8
FIX
  6
CONTINUOUS
 62
    11
 10
65.0
 20
0.0
 30
0.0
 40
10.0
  0
CIRCLE
  8
FIX
  6
CONTINUOUS
 62
    11
 10
98.5
 20
0.0
 30
0.0
 40
10.0
  0
CIRCLE
  8
ARRANGE
  6
CONTINUOUS
 62
     1
 10
0.0
 20
0.0
 30
0.0
 40
40.0
  0
POINT
  8
ARRANGE
  6
CONTINUOUS
 62
     1
 10
0.0
 20
0.0
 30
0.0
 50
90.0
  0
TEXT
  8
NOTE
  6
CONTINUOUS
 62
     4
 10
212.80378245062499
 20
411.92134532828851
 30
0.0
 40
64.0
  1
EL
 41
0.9
  0
LINE
  8
NOTE
  6
CONTINUOUS
 62
     4
 10
354.82094409062051
 20
389.32768560060151
 30
0.0
 11
186.29645256420139
 21
389.32768560055888
 31
0.0
  0
LINE
  8
NOTE
  6
CONTINUOUS
 62
     4
 10
69.0
 20
172.72927000000001
 30
0.0
 11
186.29645256420139
 21
389.32768560055888
 31
0.0
  0
LINE
  8
NOTE
  6
CONTINUOUS
 62
     4
 10
69.0
 20
172.72927000000001
 30
0.0
 11
97.073374044112597
 21
199.3732191874501
 31
0.0
  0
LINE
  8
NOTE
  6
CONTINUOUS
 62
     4
 10
76.302562394578445
 20
211.98731970384549
 30
0.0
 11
69.0
 21
172.72927000000001
 31
0.0
  0
LINE
  8
NOTE
  6
CONTINUOUS
 62
     4
 10
98.412773999999899
 20
0.0
 30
0.0
 11
333.69634198458652
 21
264.8116364789787
 31
0.0
  0
LINE
  8
NOTE
  6
CONTINUOUS
 62
     4
 10
98.412773999999899
 20
0.0
 30
0.0
 11
129.72551934757891
 21
22.683422418883421
 31
0.0
  0
LINE
  8
NOTE
  6
CONTINUOUS
 62
     4
 10
117.40804869402341
 20
35.199296333761197
 30
0.0
 11
98.412773999999899
 21
0.0
 31
0.0
  0
LINE
  8
SIZE
  6
CONTINUOUS
 62
    30
 10
-86.989868000000115
 20
20.0
 30
0.0
 11
-86.989868000000115
 21
263.47337924439012
 31
0.0
  0
LINE
  8
SIZE
  6
CONTINUOUS
 62
    30
 10
86.989868999999999
 20
20.0
 30
0.0
 11
86.989868999999999
 21
263.47337924439012
 31
0.0
  0
LINE
  8
SIZE
  6
CONTINUOUS
 62
    30
 10
-98.989868000000115
 20
243.47337924439009
 30
0.0
 11
-110.9898680000001
 21
243.47337924439009
 31
0.0
  0
LINE
  8
SIZE
  6
CONTINUOUS
 62
    30
 10
98.989868999999999
 20
243.47337924439009
 30
0.0
 11
110.989869
 21
243.47337924439009
 31
0.0
  0
LINE
  8
SIZE
  6
CONTINUOUS
 62
    30
 10
-86.989868000000115
 20
243.47337924439009
 30
0.0
 11
86.989868999999999
 21
243.47337924439009
 31
0.0
  0
CIRCLE
  8
SIZE
  6
CONTINUOUS
 62
    30
 10
-86.989868000000115
 20
243.47337924439009
 30
0.0
 40
6.0
  0
LINE
  8
SIZE
  6
CONTINUOUS
 62
    30
 10
-86.989868000000115
 20
243.47337924439009
 30
0.0
 11
-98.989868000000115
 21
243.47337924439009
 31
0.0
  0
CIRCLE
  8
SIZE
  6
CONTINUOUS
 62
    30
 10
86.989868999999999
 20
243.47337924439009
 30
0.0
 40
6.0
  0
LINE
  8
SIZE
  6
CONTINUOUS
 62
    30
 10
86.989868999999999
 20
243.47337924439009
 30
0.0
 11
98.989868999999999
 21
243.47337924439009
 31
0.0
  0
TEXT
  8
SIZE
  6
CONTINUOUS
 62
    30
 10
-106.4228566428572
 20
268.47337924439012
 30
0.0
 40
64.0
  1
□174
 41
0.9
 72
     1
 11
0.0000004999999419
 21
268.47337924439012
 31
0.0
  0
POINT
  8
DEFPOINTS
  6
CONTINUOUS
 62
    30
 10
-86.989868000000115
 20
0.0
 30
0.0
  0
POINT
  8
DEFPOINTS
  6
CONTINUOUS
 62
    30
 10
86.989868999999999
 20
0.0
 30
0.0
  0
POINT
  8
DEFPOINTS
  6
CONTINUOUS
 62
    30
 10
86.989868999999999
 20
243.47337924439009
 30
0.0
  0
LINE
  8
SIZE
  6
CONTINUOUS
 62
    30
 10
-65.0
 20
-26.299110999999929
 30
0.0
 11
-65.0
 21
-159.80408375880609
 31
0.0
  0
LINE
  8
SIZE
  6
CONTINUOUS
 62
    30
 10
65.0
 20
-26.299110999999929
 30
0.0
 11
65.0
 21
-159.80408375880609
 31
0.0
  0
LINE
  8
SIZE
  6
CONTINUOUS
 62
    30
 10
-77.0
 20
-139.80408375880609
 30
0.0
 11
-89.0
 21
-139.80408375880609
 31
0.0
  0
LINE
  8
SIZE
  6
CONTINUOUS
 62
    30
 10
77.0
 20
-139.80408375880609
 30
0.0
 11
89.0
 21
-139.80408375880609
 31
0.0
  0
LINE
  8
SIZE
  6
CONTINUOUS
 62
    30
 10
-65.0
 20
-139.80408375880609
 30
0.0
 11
65.0
 21
-139.80408375880609
 31
0.0
  0
CIRCLE
  8
SIZE
  6
CONTINUOUS
 62
    30
 10
-65.0
 20
-139.80408375880609
 30
0.0
 40
6.0
  0
LINE
  8
SIZE
  6
CONTINUOUS
 62
    30
 10
-65.0
 20
-139.80408375880609
 30
0.0
 11
-77.0
 21
-139.80408375880609
 31
0.0
  0
CIRCLE
  8
SIZE
  6
CONTINUOUS
 62
    30
 10
65.0
 20
-139.80408375880609
 30
0.0
 40
6.0
  0
LINE
  8
SIZE
  6
CONTINUOUS
 62
    30
 10
65.0
 20
-139.80408375880609
 30
0.0
 11
77.0
 21
-139.80408375880609
 31
0.0
  0
TEXT
  8
SIZE
  6
CONTINUOUS
 62
    30
 10
-68.571428571428569
 20
-114.8040837588061
 30
0.0
 40
64.0
  1
130
 41
0.9
 72
     1
 11
0.0
 21
-114.8040837588061
 31
0.0
  0
POINT
  8
DEFPOINTS
  6
CONTINUOUS
 62
    30
 10
-65.0
 20
-6.2991109999999253
 30
0.0
  0
POINT
  8
DEFPOINTS
  6
CONTINUOUS
 62
    30
 10
65.0
 20
-6.2991109999999253
 30
0.0
  0
POINT
  8
DEFPOINTS
  6
CONTINUOUS
 62
    30
 10
65.0
 20
-139.80408375880609
 30
0.0
  0
LINE
  8
SIZE
  6
CONTINUOUS
 62
    30
 10
-98.5
 20
-26.299110999999929
 30
0.0
 11
-98.5
 21
-302.52006728439221
 31
0.0
  0
LINE
  8
SIZE
  6
CONTINUOUS
 62
    30
 10
98.5
 20
-26.299110999999929
 30
0.0
 11
98.5
 21
-302.52006728439221
 31
0.0
  0
LINE
  8
SIZE
  6
CONTINUOUS
 62
    30
 10
-86.5
 20
-282.52006728439221
 30
0.0
 11
86.5
 21
-282.52006728439221
 31
0.0
  0
CIRCLE
  8
SIZE
  6
CONTINUOUS
 62
    30
 10
-98.5
 20
-282.52006728439221
 30
0.0
 40
6.0
  0
LINE
  8
SIZE
  6
CONTINUOUS
 62
    30
 10
-98.5
 20
-282.52006728439221
 30
0.0
 11
-86.5
 21
-282.52006728439221
 31
0.0
  0
CIRCLE
  8
SIZE
  6
CONTINUOUS
 62
    30
 10
98.5
 20
-282.52006728439221
 30
0.0
 40
6.0
  0
LINE
  8
SIZE
  6
CONTINUOUS
 62
    30
 10
98.5
 20
-282.52006728439221
 30
0.0
 11
86.5
 21
-282.52006728439221
 31
0.0
  0
TEXT
  8
SIZE
  6
CONTINUOUS
 62
    30
 10
-68.571428571428569
 20
-257.52006728439221
 30
0.0
 40
64.0
  1
197
 41
0.9
 72
     1
 11
0.0
 21
-257.52006728439221
 31
0.0
  0
POINT
  8
DEFPOINTS
  6
CONTINUOUS
 62
    30
 10
-98.5
 20
-6.2991109999999253
 30
0.0
  0
POINT
  8
DEFPOINTS
  6
CONTINUOUS
 62
    30
 10
98.5
 20
-6.2991109999999253
 30
0.0
  0
POINT
  8
DEFPOINTS
  6
CONTINUOUS
 62
    30
 10
98.5
 20
-282.52006728439221
 30
0.0
  0
LINE
  8
SIZE
  6
CONTINUOUS
 62
    30
 10
-124.9724249999999
 20
-20.526167999999981
 30
0.0
 11
-124.972425
 21
-413.44540635261649
 31
0.0
  0
LINE
  8
SIZE
  6
CONTINUOUS
 62
    30
 10
124.9724249999999
 20
-20.526167999999981
 30
0.0
 11
124.9724249999999
 21
-413.44540635261649
 31
0.0
  0
LINE
  8
SIZE
  6
CONTINUOUS
 62
    30
 10
-136.97242499999999
 20
-393.44540635261649
 30
0.0
 11
-148.97242499999999
 21
-393.44540635261649
 31
0.0
  0
LINE
  8
SIZE
  6
CONTINUOUS
 62
    30
 10
136.9724249999999
 20
-393.44540635261649
 30
0.0
 11
148.9724249999999
 21
-393.44540635261649
 31
0.0
  0
LINE
  8
SIZE
  6
CONTINUOUS
 62
    30
 10
-124.972425
 20
-393.44540635261649
 30
0.0
 11
124.9724249999999
 21
-393.44540635261649
 31
0.0
  0
CIRCLE
  8
SIZE
  6
CONTINUOUS
 62
    30
 10
-124.972425
 20
-393.44540635261649
 30
0.0
 40
6.0
  0
LINE
  8
SIZE
  6
CONTINUOUS
 62
    30
 10
-124.972425
 20
-393.44540635261649
 30
0.0
 11
-136.97242499999999
 21
-393.44540635261649
 31
0.0
  0
CIRCLE
  8
SIZE
  6
CONTINUOUS
 62
    30
 10
124.9724249999999
 20
-393.44540635261649
 30
0.0
 40
6.0
  0
LINE
  8
SIZE
  6
CONTINUOUS
 62
    30
 10
124.9724249999999
 20
-393.44540635261649
 30
0.0
 11
136.9724249999999
 21
-393.44540635261649
 31
0.0
  0
TEXT
  8
SIZE
  6
CONTINUOUS
 62
    30
 10
-110.5371428571429
 20
-368.44540635261649
 30
0.0
 40
64.0
  1
□250
 41
0.9
 72
     1
 11
0.0
 21
-368.44540635261649
 31
0.0
  0
POINT
  8
DEFPOINTS
  6
CONTINUOUS
 62
    30
 10
-124.9724249999999
 20
-0.5261679999999842
 30
0.0
  0
POINT
  8
DEFPOINTS
  6
CONTINUOUS
 62
    30
 10
124.9724249999999
 20
-0.5261679999999842
 30
0.0
  0
POINT
  8
DEFPOINTS
  6
CONTINUOUS
 62
    30
 10
124.9724249999999
 20
-393.44540635261649
 30
0.0
  0
LINE
  8
SIZE
  6
CONTINUOUS
 62
    30
 10
42.386977769350437
 20
184.52295045976251
 30
0.0
 11
580.6347430448476
 21
184.52295045976231
 31
0.0
  0
LINE
  8
SIZE
  6
CONTINUOUS
 62
    30
 10
-104.47310899999999
 20
0.0
 30
0.0
 11
580.6347430448476
 21
-0.0000000000002274
 31
0.0
  0
LINE
  8
SIZE
  6
CONTINUOUS
 62
    30
 10
560.63474304484771
 20
172.52295045976231
 30
0.0
 11
560.63474304484771
 21
11.99999999999989
 31
0.0
  0
CIRCLE
  8
SIZE
  6
CONTINUOUS
 62
    30
 10
560.63474304484771
 20
184.52295045976231
 30
0.0
 40
6.0
  0
LINE
  8
SIZE
  6
CONTINUOUS
 62
    30
 10
560.63474304484771
 20
184.52295045976231
 30
0.0
 11
560.63474304484771
 21
172.52295045976231
 31
0.0
  0
CIRCLE
  8
SIZE
  6
CONTINUOUS
 62
    30
 10
560.63474304484771
 20
-0.0000000000001137
 30
0.0
 40
6.0
  0
LINE
  8
SIZE
  6
CONTINUOUS
 62
    30
 10
560.63474304484771
 20
-0.0000000000001137
 30
0.0
 11
560.63474304484771
 21
11.99999999999989
 31
0.0
  0
TEXT
  8
SIZE
  6
CONTINUOUS
 62
    30
 10
535.63474304484771
 20
22.318618087023989
 30
0.0
 40
64.0
  1
184
 50
90.0
 41
0.9
 72
     1
 11
535.63474304484771
 21
92.261475229881114
 31
0.0
  0
POINT
  8
DEFPOINTS
  6
CONTINUOUS
 62
    30
 10
22.386977769350441
 20
184.52295045976251
 30
0.0
  0
POINT
  8
DEFPOINTS
  6
CONTINUOUS
 62
    30
 10
-124.47310899999999
 20
0.0
 30
0.0
  0
POINT
  8
DEFPOINTS
  6
CONTINUOUS
 62
    30
 10
560.63474304484771
 20
-0.0000000000001137
 30
0.0
  0
LINE
  8
SIZE
  6
CONTINUOUS
 62
    30
 10
-104.47310899999999
 20
0.0
 30
0.0
 11
256.9465428877611
 21
-0.0000000000001137
 31
0.0
  0
LINE
  8
SIZE
  6
CONTINUOUS
 62
    30
 10
-97.806689000000006
 20
-15.0
 30
0.0
 11
256.9465428877611
 21
-15.00000000000011
 31
0.0
  0
LINE
  8
SIZE
  6
CONTINUOUS
 62
    30
 10
236.9465428877611
 20
11.99999999999989
 30
0.0
 11
236.9465428877611
 21
23.99999999999989
 31
0.0
  0
LINE
  8
SIZE
  6
CONTINUOUS
 62
    30
 10
236.9465428877611
 20
-27.00000000000011
 30
0.0
 11
236.9465428877611
 21
-171.28571428571439
 31
0.0
  0
LINE
  8
SIZE
  6
CONTINUOUS
 62
    30
 10
236.9465428877611
 20
-0.0000000000001137
 30
0.0
 11
236.9465428877611
 21
-15.00000000000011
 31
0.0
  0
CIRCLE
  8
SIZE
  6
CONTINUOUS
 62
    30
 10
236.9465428877611
 20
-0.0000000000001137
 30
0.0
 40
6.0
  0
LINE
  8
SIZE
  6
CONTINUOUS
 62
    30
 10
236.9465428877611
 20
-0.0000000000001137
 30
0.0
 11
236.9465428877611
 21
11.99999999999989
 31
0.0
  0
CIRCLE
  8
SIZE
  6
CONTINUOUS
 62
    30
 10
236.9465428877611
 20
-15.00000000000011
 30
0.0
 40
6.0
  0
LINE
  8
SIZE
  6
CONTINUOUS
 62
    30
 10
236.9465428877611
 20
-15.00000000000011
 30
0.0
 11
236.9465428877611
 21
-27.00000000000011
 31
0.0
  0
TEXT
  8
SIZE
  6
CONTINUOUS
 62
    30
 10
211.9465428877611
 20
-146.28571428571439
 30
0.0
 40
64.0
  1
15
 50
90.0
 41
0.9
 72
     1
 11
211.9465428877611
 21
-105.1428571428572
 31
0.0
  0
POINT
  8
DEFPOINTS
  6
CONTINUOUS
 62
    30
 10
-124.47310899999999
 20
0.0
 30
0.0
  0
POINT
  8
DEFPOINTS
  6
CONTINUOUS
 62
    30
 10
-117.80668900000001
 20
-15.0
 30
0.0
  0
POINT
  8
DEFPOINTS
  6
CONTINUOUS
 62
    30
 10
236.9465428877611
 20
-15.00000000000011
 30
0.0
  0
LINE
  8
SIZE
  6
CONTINUOUS
 62
    30
 10
-302.92808242345569
 20
220.12376255194931
 30
0.0
 11
-56.738915619964928
 21
124.12477015181121
 31
0.0
  0
LINE
  8
SIZE
  6
CONTINUOUS
 62
    30
 10
56.738915619964928
 20
79.875229848188951
 30
0.0
 11
67.918997515524552
 21
75.515669227142439
 31
0.0
  0
TEXT
  8
SIZE
  6
CONTINUOUS
 62
    30
 10
-283.84215309067719
 20
239.51483106915271
 30
0.0
 40
64.0
  1
φ98
 50
338.69720262234517
 41
0.9
 72
     1
 11
-202.83447398456511
 21
207.92670039779841
 31
0.0
  0
LINE
  8
SIZE
  6
CONTINUOUS
 62
    30
 10
45.558833724405297
 20
84.234790469235463
 30
0.0
 11
-45.558833724405297
 21
119.76520953076439
 31
0.0
  0
CIRCLE
  8
SIZE
  6
CONTINUOUS
 62
    30
 10
45.558833724405297
 20
84.234790469235463
 30
0.0
 40
6.0
  0
LINE
  8
SIZE
  6
CONTINUOUS
 62
    30
 10
45.558833724405297
 20
84.234790469235463
 30
0.0
 11
56.738915619964928
 21
79.875229848188951
 31
0.0
  0
CIRCLE
  8
SIZE
  6
CONTINUOUS
 62
    30
 10
-45.558833724405297
 20
119.76520953076439
 30
0.0
 40
6.0
  0
LINE
  8
SIZE
  6
CONTINUOUS
 62
    30
 10
-45.558833724405297
 20
119.76520953076439
 30
0.0
 11
-56.738915619964928
 21
124.12477015181121
 31
0.0
  0
POINT
  8
DEFPOINTS
  6
CONTINUOUS
 62
    30
 10
-45.558833724405297
 20
119.76520953076439
 30
0.0
  0
POINT
  8
DEFPOINTS
  6
CONTINUOUS
 62
    30
 10
45.558833724405297
 20
84.234790469235463
 30
0.0
  0
LINE
  8
SIZE
  6
CONTINUOUS
 62
    30
 10
-370.14423090463691
 20
-13.999052387619489
 30
0.0
 11
-61.847995251113332
 21
82.617531647949704
 31
0.0
  0
LINE
  8
SIZE
  6
CONTINUOUS
 62
    30
 10
61.847995251113787
 20
121.38246835205059
 30
0.0
 11
73.298853754112542
 21
124.97103903469019
 31
0.0
  0
TEXT
  8
SIZE
  6
CONTINUOUS
 62
    30
 10
-366.63845983869169
 20
24.47672714907775
 30
0.0
 40
64.0
  1
φ105
 50
17.40040617148469
 41
0.9
 72
     1
 11
-262.73009810862288
 21
57.040442829259121
 31
0.0
  0
LINE
  8
SIZE
  6
CONTINUOUS
 62
    30
 10
50.397136748115031
 20
117.7938976694109
 30
0.0
 11
-50.397136748114583
 21
86.206102330589374
 31
0.0
  0
CIRCLE
  8
SIZE
  6
CONTINUOUS
 62
    30
 10
50.397136748115031
 20
117.7938976694109
 30
0.0
 40
6.0
  0
LINE
  8
SIZE
  6
CONTINUOUS
 62
    30
 10
50.397136748115031
 20
117.7938976694109
 30
0.0
 11
61.847995251113787
 21
121.38246835205059
 31
0.0
  0
CIRCLE
  8
SIZE
  6
CONTINUOUS
 62
    30
 10
-50.397136748114583
 20
86.206102330589374
 30
0.0
 40
6.0
  0
LINE
  8
SIZE
  6
CONTINUOUS
 62
    30
 10
-50.397136748114583
 20
86.206102330589374
 30
0.0
 11
-61.847995251113332
 21
82.617531647949704
 31
0.0
  0
POINT
  8
DEFPOINTS
  6
CONTINUOUS
 62
    30
 10
-50.397136748114583
 20
86.206102330589374
 30
0.0
  0
POINT
  8
DEFPOINTS
  6
CONTINUOUS
 62
    30
 10
50.397136748115031
 20
117.7938976694109
 30
0.0
  0
LINE
  8
SIZE
  6
CONTINUOUS
 62
    30
 10
144.47310899999999
 20
0.0
 30
0.0
 11
358.63077553468253
 21
0.0
 31
0.0
  0
LINE
  8
SIZE
  6
CONTINUOUS
 62
    30
 10
70.0
 20
45.399600000000078
 30
0.0
 11
358.63077553468253
 21
45.399599999999957
 31
0.0
  0
LINE
  8
SIZE
  6
CONTINUOUS
 62
    30
 10
338.63077553468253
 20
57.399600000000078
 30
0.0
 11
338.63077553468253
 21
69.399600000000078
 31
0.0
  0
LINE
  8
SIZE
  6
CONTINUOUS
 62
    30
 10
338.63077553468253
 20
-12.0
 30
0.0
 11
338.63077553468253
 21
-167.25714285714281
 31
0.0
  0
LINE
  8
SIZE
  6
CONTINUOUS
 62
    30
 10
338.63077553468253
 20
45.399600000000078
 30
0.0
 11
338.63077553468253
 21
0.0
 31
0.0
  0
CIRCLE
  8
SIZE
  6
CONTINUOUS
 62
    30
 10
338.63077553468253
 20
45.399600000000078
 30
0.0
 40
6.0
  0
LINE
  8
SIZE
  6
CONTINUOUS
 62
    30
 10
338.63077553468253
 20
45.399600000000078
 30
0.0
 11
338.63077553468253
 21
57.399600000000078
 31
0.0
  0
CIRCLE
  8
SIZE
  6
CONTINUOUS
 62
    30
 10
338.63077553468253
 20
0.0
 30
0.0
 40
6.0
  0
LINE
  8
SIZE
  6
CONTINUOUS
 62
    30
 10
338.63077553468253
 20
0.0
 30
0.0
 11
338.63077553468253
 21
-12.0
 31
0.0
  0
TEXT
  8
SIZE
  6
CONTINUOUS
 62
    30
 10
313.63077553468253
 20
-142.2571428571429
 30
0.0
 40
64.0
  1
45
 50
90.0
 41
0.9
 72
     1
 11
313.63077553468253
 21
-95.628571428571433
 31
0.0
  0
POINT
  8
DEFPOINTS
  6
CONTINUOUS
 62
    30
 10
124.47310899999999
 20
0.0
 30
0.0
  0
POINT
  8
DEFPOINTS
  6
CONTINUOUS
 62
    30
 10
50.0
 20
45.399600000000078
 30
0.0
  0
POINT
  8
DEFPOINTS
  6
CONTINUOUS
 62
    30
 10
338.63077553468253
 20
45.399600000000078
 30
0.0
  0
LINE
  8
SIZE
  6
CONTINUOUS
 62
    30
 10
78.149277999999867
 20
102.0
 30
0.0
 11
472.34219682814728
 21
101.9999999999999
 31
0.0
  0
LINE
  8
SIZE
  6
CONTINUOUS
 62
    30
 10
144.47310899999999
 20
0.0
 30
0.0
 11
472.34219682814728
 21
-0.0000000000001137
 31
0.0
  0
LINE
  8
SIZE
  6
CONTINUOUS
 62
    30
 10
452.34219682814728
 20
89.999999999999886
 30
0.0
 11
452.34219682814728
 21
11.99999999999989
 31
0.0
  0
LINE
  8
SIZE
  6
CONTINUOUS
 62
    30
 10
452.34219682814728
 20
-0.0000000000001137
 30
0.0
 11
452.34219682814728
 21
-199.14285714285711
 31
0.0
  0
CIRCLE
  8
SIZE
  6
CONTINUOUS
 62
    30
 10
452.34219682814728
 20
101.9999999999999
 30
0.0
 40
6.0
  0
LINE
  8
SIZE
  6
CONTINUOUS
 62
    30
 10
452.34219682814728
 20
101.9999999999999
 30
0.0
 11
452.34219682814728
 21
89.999999999999886
 31
0.0
  0
CIRCLE
  8
SIZE
  6
CONTINUOUS
 62
    30
 10
452.34219682814728
 20
-0.0000000000001137
 30
0.0
 40
6.0
  0
LINE
  8
SIZE
  6
CONTINUOUS
 62
    30
 10
452.34219682814728
 20
-0.0000000000001137
 30
0.0
 11
452.34219682814728
 21
11.99999999999989
 31
0.0
  0
TEXT
  8
SIZE
  6
CONTINUOUS
 62
    30
 10
427.34219682814728
 20
-174.14285714285711
 30
0.0
 40
64.0
  1
102
 50
90.0
 41
0.9
 72
     1
 11
427.34219682814728
 21
-105.5714285714285
 31
0.0
  0
POINT
  8
DEFPOINTS
  6
CONTINUOUS
 62
    30
 10
58.149277999999867
 20
102.0
 30
0.0
  0
POINT
  8
DEFPOINTS
  6
CONTINUOUS
 62
    30
 10
124.47310899999999
 20
0.0
 30
0.0
  0
POINT
  8
DEFPOINTS
  6
CONTINUOUS
 62
    30
 10
452.34219682814728
 20
-0.0000000000001137
 30
0.0
  0
LINE
  8
DETAIL
  6
CONTINUOUS
 62
     5
 10
-3.6623099799504639
 20
180.64326600684171
 30
0.0
 11
-3.6070347720972218
 21
180.86165092707881
 31
0.0
  0
LINE
  8
DETAIL
  6
CONTINUOUS
 62
     5
 10
-3.6070347720972218
 20
180.86165092707881
 30
0.0
 11
-3.5036964905845021
 21
181.19150582349491
 31
0.0
  0
LINE
  8
DETAIL
  6
CONTINUOUS
 62
     5
 10
-3.5036964905845021
 20
181.19150582349491
 30
0.0
 11
-3.3784063758712359
 21
181.51318090870939
 31
0.0
  0
LINE
  8
DETAIL
  6
CONTINUOUS
 62
     5
 10
-3.3784063758712359
 20
181.51318090870939
 30
0.0
 11
-3.2316455933266748
 21
181.8253396122648
 31
0.0
  0
LINE
  8
DETAIL
  6
CONTINUOUS
 62
     5
 10
-3.2316455933266748
 20
181.8253396122648
 30
0.0
 11
-3.063922039720183
 21
182.12662397857511
 31
0.0
  0
LINE
  8
DETAIL
  6
CONTINUOUS
 62
     5
 10
-3.063922039720183
 20
182.12662397857511
 30
0.0
 11
-2.8758986540019582
 21
182.4156225892375
 31
0.0
  0
LINE
  8
DETAIL
  6
CONTINUOUS
 62
     5
 10
-2.8758986540019582
 20
182.4156225892375
 30
0.0
 11
-2.6682918379358398
 21
182.69094006469459
 31
0.0
  0
LINE
  8
DETAIL
  6
CONTINUOUS
 62
     5
 10
-2.6682918379358398
 20
182.69094006469459
 30
0.0
 11
-2.4419142263618601
 21
182.9512879510244
 31
0.0
  0
LINE
  8
DETAIL
  6
CONTINUOUS
 62
     5
 10
-2.4419142263618601
 20
182.9512879510244
 30
0.0
 11
-2.197642609497279
 21
183.19539383315109
 31
0.0
  0
LINE
  8
DETAIL
  6
CONTINUOUS
 62
     5
 10
-2.197642609497279
 20
183.19539383315109
 30
0.0
 11
-1.936444664357396
 21
183.42207618279031
 31
0.0
  0
LINE
  8
DETAIL
  6
CONTINUOUS
 62
     5
 10
-1.659346877049757
 20
183.6302015881937
 30
0.0
 11
-1.3674986981720849
 21
183.81871683184039
 31
0.0
  0
LINE
  8
DETAIL
  6
CONTINUOUS
 62
     5
 10
-1.3674986981720849
 20
183.81871683184039
 30
0.0
 11
-1.062103041133696
 21
183.9866221590286
 31
0.0
  0
LINE
  8
DETAIL
  6
CONTINUOUS
 62
     5
 10
-1.062103041133696
 20
183.9866221590286
 30
0.0
 11
-0.7444323210107768
 21
184.13303543325529
 31
0.0
  0
LINE
  8
DETAIL
  6
CONTINUOUS
 62
     5
 10
-0.7444323210107768
 20
184.13303543325529
 30
0.0
 11
-0.4158231082602697
 21
184.25714936596489
 31
0.0
  0
LINE
  8
DETAIL
  6
CONTINUOUS
 62
     5
 10
-0.4158231082602697
 20
184.25714936596489
 30
0.0
 11
-0.0776921675692392
 21
184.3582529016733
 31
0.0
  0
LINE
  8
DETAIL
  6
CONTINUOUS
 62
     5
 10
-0.0776921675692392
 20
184.3582529016733
 30
0.0
 11
0.2684956198401096
 21
184.43570983284209
 31
0.0
  0
LINE
  8
DETAIL
  6
CONTINUOUS
 62
     5
 10
0.2684956198401096
 20
184.43570983284209
 30
0.0
 11
0.6213609132570355
 21
184.48901226269851
 31
0.0
  0
LINE
  8
DETAIL
  6
CONTINUOUS
 62
     5
 10
0.6213609132570355
 20
184.48901226269851
 30
0.0
 11
0.9794922942782023
 21
184.51768971844049
 31
0.0
  0
LINE
  8
DETAIL
  6
CONTINUOUS
 62
     5
 10
0.9794922942782023
 20
184.51768971844049
 30
0.0
 11
1.2128307647959671
 21
184.52294511348029
 31
0.0
  0
LINE
  8
DETAIL
  6
CONTINUOUS
 62
     5
 10
22.38698311563121
 20
184.52295045976251
 30
0.0
 11
22.401466193111901
 21
184.5187055119882
 31
0.0
  0
LINE
  8
DETAIL
  6
CONTINUOUS
 62
     5
 10
22.38698311563121
 20
184.52294511348029
 30
0.0
 11
22.630960686993379
 21
184.51719786051191
 31
0.0
  0
LINE
  8
DETAIL
  6
CONTINUOUS
 62
     5
 10
22.630960686993379
 20
184.51719786051191
 30
0.0
 11
22.989054644041289
 21
184.48777727159541
 31
0.0
  0
LINE
  8
DETAIL
  6
CONTINUOUS
 62
     5
 10
22.989054644041289
 20
184.48777727159541
 30
0.0
 11
23.341813011822179
 21
184.43373170856441
 31
0.0
  0
LINE
  8
DETAIL
  6
CONTINUOUS
 62
     5
 10
23.341813011822179
 20
184.43373170856441
 30
0.0
 11
23.687840410778449
 21
184.35554233678479
 31
0.0
  0
LINE
  8
DETAIL
  6
CONTINUOUS
 62
     5
 10
23.687840410778449
 20
184.35554233678479
 30
0.0
 11
24.025746807631212
 21
184.25371705302931
 31
0.0
  0
LINE
  8
DETAIL
  6
CONTINUOUS
 62
     5
 10
24.025746807631212
 20
184.25371705302931
 30
0.0
 11
24.354072667443919
 21
184.1289081036816
 31
0.0
  0
LINE
  8
DETAIL
  6
CONTINUOUS
 62
     5
 10
24.354072667443919
 20
184.1289081036816
 30
0.0
 11
24.671411918092641
 21
183.9818158516623
 31
0.0
  0
LINE
  8
DETAIL
  6
CONTINUOUS
 62
     5
 10
24.671411918092641
 20
183.9818158516623
 30
0.0
 11
24.976438681685181
 21
183.81325293180919
 31
0.0
  0
LINE
  8
DETAIL
  6
CONTINUOUS
 62
     5
 10
24.976438681685181
 20
183.81325293180919
 30
0.0
 11
25.26786985058197
 21
183.624112173188
 31
0.0
  0
LINE
  8
DETAIL
  6
CONTINUOUS
 62
     5
 10
25.26786985058197
 20
183.624112173188
 30
0.0
 11
25.544518550213301
 21
183.41538798421959
 31
0.0
  0
LINE
  8
DETAIL
  6
CONTINUOUS
 62
     5
 10
25.544518550213301
 20
183.41538798421959
 30
0.0
 11
25.80523532999041
 21
183.1881282361426
 31
0.0
  0
LINE
  8
DETAIL
  6
CONTINUOUS
 62
     5
 10
25.80523532999041
 20
183.1881282361426
 30
0.0
 11
26.04899370379837
 21
182.94347703326901
 31
0.0
  0
LINE
  8
DETAIL
  6
CONTINUOUS
 62
     5
 10
26.04899370379837
 20
182.94347703326901
 30
0.0
 11
26.27483134090858
 21
182.68262125016511
 31
0.0
  0
LINE
  8
DETAIL
  6
CONTINUOUS
 62
     5
 10
22.386977769350441
 20
184.52295045976251
 30
0.0
 11
1.2128361110783319
 21
184.52295045976251
 31
0.0
  0
LINE
  8
DETAIL
  6
CONTINUOUS
 62
     5
 10
27.262123860377532
 20
180.64326600684171
 30
0.0
 11
27.926739143243481
 21
177.72867000000011
 31
0.0
  0
LINE
  8
DETAIL
  6
CONTINUOUS
 62
     5
 10
26.27483134090858
 20
182.68262125016511
 30
0.0
 11
26.481860758536069
 21
182.4068279556252
 31
0.0
  0
LINE
  8
DETAIL
  6
CONTINUOUS
 62
     5
 10
26.481860758536069
 20
182.4068279556252
 30
0.0
 11
26.66928001440704
 21
182.1173962961345
 31
0.0
  0
LINE
  8
DETAIL
  6
CONTINUOUS
 62
     5
 10
26.66928001440704
 20
182.1173962961345
 30
0.0
 11
26.836372706756041
 21
181.81572699753201
 31
0.0
  0
LINE
  8
DETAIL
  6
CONTINUOUS
 62
     5
 10
26.836372706756041
 20
181.81572699753201
 30
0.0
 11
26.982481242918539
 21
181.50322613193981
 31
0.0
  0
LINE
  8
DETAIL
  6
CONTINUOUS
 62
     5
 10
26.982481242918539
 20
181.50322613193981
 30
0.0
 11
27.107092379839401
 21
181.18126234750659
 31
0.0
  0
LINE
  8
DETAIL
  6
CONTINUOUS
 62
     5
 10
27.107092379839401
 20
181.18126234750659
 30
0.0
 11
27.209735644714439
 21
180.85117221468991
 31
0.0
  0
LINE
  8
DETAIL
  6
CONTINUOUS
 62
     5
 10
27.209735644714439
 20
180.85117221468991
 30
0.0
 11
27.262123860377532
 21
180.64326600684171
 31
0.0
  0
LINE
  8
DETAIL
  6
CONTINUOUS
 62
     5
 10
-4.3281375799434727
 20
177.72867000000011
 30
0.0
 11
-3.6623153262312371
 21
180.64326600684171
 31
0.0
  0
TEXT
  8
NOTE
  6
CONTINUOUS
 62
     4
 10
362.12205242584793
 20
296.42684820996033
 30
0.0
 40
63.999999999999993
  1
8-φ5
 50
359.85073780173718
 41
0.9
  0
LINE
  8
NOTE
  6
CONTINUOUS
 62
     4
 10
593.48720999664829
 20
264.8116372002662
 30
0.0
 11
333.69633940753869
 21
264.81167169905387
 31
0.0
  0
ENDSEC
  0
EOF
