  0
SECTION
  2
HEADER
  9
$ACADVER
  1
AC1009
  9
$DWGCODEPAGE
  3
dos932
  9
$INSBASE
 10
0.0
 20
0.0
 30
0.0
  9
$EXTMIN
 10
-593.67368945814087
 20
-481.61314751675133
 30
-0.0015258207003583
  9
$EXTMAX
 10
1251.2466548956529
 20
690.21607259080702
 30
0.0000000349246037
  9
$LIMMIN
 10
-2970.0
 20
-2100.0
  9
$LIMMAX
 10
2970.0
 20
2100.0
  9
$ORTHOMODE
 70
     1
  9
$REGENMODE
 70
     1
  9
$FILLMODE
 70
     1
  9
$QTEXTMODE
 70
     0
  9
$MIRRTEXT
 70
     0
  9
$LTSCALE
 40
20.0
  9
$ATTMODE
 70
     1
  9
$TEXTSIZE
 40
64.0
  9
$TRACEWID
 40
0.05
  9
$TEXTSTYLE
  7
STANDARD
  9
$CLAYER
  8
SIZE
  9
$CELTYPE
  6
CONTINUOUS
  9
$CECOLOR
 62
     7
  9
$DIMSCALE
 40
1.0
  9
$DIMASZ
 40
12.0
  9
$DIMEXO
 40
20.0
  9
$DIMDLI
 40
200.0
  9
$DIMRND
 40
0.0
  9
$DIMDLE
 40
0.0
  9
$DIMEXE
 40
20.0
  9
$DIMTP
 40
0.0
  9
$DIMTM
 40
0.0
  9
$DIMTXT
 40
64.0
  9
$DIMCEN
 40
0.09
  9
$DIMTSZ
 40
0.0
  9
$DIMTOL
 70
     0
  9
$DIMLIM
 70
     0
  9
$DIMTIH
 70
     0
  9
$DIMTOH
 70
     0
  9
$DIMSE1
 70
     0
  9
$DIMSE2
 70
     0
  9
$DIMTAD
 70
     1
  9
$DIMZIN
 70
     8
  9
$DIMBLK
  1

  9
$DIMASO
 70
     1
  9
$DIMSHO
 70
     0
  9
$DIMPOST
  1

  9
$DIMAPOST
  1

  9
$DIMALT
 70
     0
  9
$DIMALTD
 70
     2
  9
$DIMALTF
 40
25.399999999999999
  9
$DIMLFAC
 40
1.0
  9
$DIMTOFL
 70
     1
  9
$DIMTVP
 40
0.0
  9
$DIMTIX
 70
     1
  9
$DIMSOXD
 70
     0
  9
$DIMSAH
 70
     0
  9
$DIMBLK1
  1

  9
$DIMBLK2
  1

  9
$DIMSTYLE
  2
STANDARD
  9
$DIMCLRD
 70
     7
  9
$DIMCLRE
 70
     7
  9
$DIMCLRT
 70
     7
  9
$DIMTFAC
 40
1.0
  9
$DIMGAP
 40
25.0
  9
$LUNITS
 70
     2
  9
$LUPREC
 70
     4
  9
$SKETCHINC
 40
0.1
  9
$FILLETRAD
 40
3.0
  9
$AUNITS
 70
     1
  9
$AUPREC
 70
     3
  9
$MENU
  1
ACAD
  9
$ELEVATION
 40
0.0
  9
$PELEVATION
 40
0.0
  9
$THICKNESS
 40
0.0
  9
$LIMCHECK
 70
     0
  9
$CHAMFERA
 40
0.0
  9
$CHAMFERB
 40
0.0
  9
$SKPOLY
 70
     0
  9
$TDCREATE
 40
2453019.62301037
  9
$TDUPDATE
 40
2459025.488398935
  9
$TDINDWG
 40
1.7133030208
  9
$TDUSRTIMER
 40
1.7133030208
  9
$USRTIMER
 70
     1
  9
$ANGBASE
 50
0.0
  9
$ANGDIR
 70
     0
  9
$PDMODE
 70
     3
  9
$PDSIZE
 40
-2.0
  9
$PLINEWID
 40
0.0
  9
$SPLFRAME
 70
     0
  9
$SPLINETYPE
 70
     6
  9
$SPLINESEGS
 70
     8
  9
$SURFTAB1
 70
     6
  9
$SURFTAB2
 70
     6
  9
$SURFTYPE
 70
     6
  9
$SURFU
 70
     6
  9
$SURFV
 70
     6
  9
$UCSNAME
  2

  9
$UCSORG
 10
0.0
 20
0.0
 30
0.0
  9
$UCSXDIR
 10
1.0
 20
0.0
 30
0.0
  9
$UCSYDIR
 10
0.0
 20
1.0
 30
0.0
  9
$PUCSNAME
  2

  9
$PUCSORG
 10
0.0
 20
0.0
 30
0.0
  9
$PUCSXDIR
 10
1.0
 20
0.0
 30
0.0
  9
$PUCSYDIR
 10
0.0
 20
1.0
 30
0.0
  9
$USERI1
 70
     0
  9
$USERI2
 70
     0
  9
$USERI3
 70
     0
  9
$USERI4
 70
     0
  9
$USERI5
 70
     0
  9
$USERR1
 40
20.0
  9
$USERR2
 40
0.0
  9
$USERR3
 40
0.0
  9
$USERR4
 40
0.0
  9
$USERR5
 40
0.0
  9
$WORLDVIEW
 70
     1
  9
$SHADEDGE
 70
     3
  9
$SHADEDIF
 70
    70
  9
$TILEMODE
 70
     1
  9
$MAXACTVP
 70
    48
  9
$PINSBASE
 10
0.0
 20
0.0
 30
0.0
  9
$PLIMCHECK
 70
     0
  9
$PEXTMIN
 10
-100000000000000000000.0
 20
-100000000000000000000.0
 30
-100000000000000000000.0
  9
$PEXTMAX
 10
100000000000000000000.0
 20
100000000000000000000.0
 30
100000000000000000000.0
  9
$PLIMMIN
 10
0.0
 20
0.0
  9
$PLIMMAX
 10
12.0
 20
9.0
  9
$UNITMODE
 70
     0
  9
$VISRETAIN
 70
     0
  9
$PLINEGEN
 70
     0
  9
$PSLTSCALE
 70
     0
  9
$TREEDEPTH
 70
  3020
  9
$ATTDIA
 70
     0
  9
$ATTREQ
 70
     1
  9
$BLIPMODE
 70
     1
  9
$COORDS
 70
     1
  9
$DRAGMODE
 70
     2
  9
$OSMODE
 70
     0
  9
$HANDLING
 70
     0
  9
$HANDSEED
  5
FD0E
  0
ENDSEC
  0
SECTION
  2
TABLES
  0
TABLE
  2
LTYPE
 70
     3
  0
LTYPE
  2
CONTINUOUS
 70
     0
  3
実線
 72
    65
 73
     0
 40
0.0
  0
LTYPE
  2
DASHDOT
 70
     0
  3
____ _ ____ _ ____ _ ____ _ ____ _ ____ _ ____
 72
    65
 73
     4
 40
5.5
 49
4.0
 49
-0.6
 49
0.3
 49
-0.6
  0
LTYPE
  2
CENTER
 70
     0
  3
Center ____ _ ____ _ ____ _ ____ _ ____ _ ____
 72
    65
 73
     4
 40
1.0
 49
0.5
 49
-0.25
 49
0.0
 49
-0.25
  0
ENDTAB
  0
TABLE
  2
LAYER
 70
    12
  0
LAYER
  2
0
 70
     0
 62
     7
  6
CONTINUOUS
  0
LAYER
  2
BASIS
 70
     0
 62
     6
  6
DASHDOT
  0
LAYER
  2
OUTLINE
 70
     0
 62
     3
  6
CONTINUOUS
  0
LAYER
  2
DETAIL
 70
     0
 62
     5
  6
CONTINUOUS
  0
LAYER
  2
SIZE
 70
     0
 62
    30
  6
CONTINUOUS
  0
LAYER
  2
ARRANGE
 70
     0
 62
     1
  6
CONTINUOUS
  0
LAYER
  2
DEFPOINTS
 70
     0
 62
     7
  6
CONTINUOUS
  0
LAYER
  2
ETC
 70
     0
 62
    61
  6
CONTINUOUS
  0
LAYER
  2
FIX
 70
     0
 62
    11
  6
CONTINUOUS
  0
LAYER
  2
NOTE
 70
     0
 62
     4
  6
CONTINUOUS
  0
LAYER
  2
SERVICESPACE
 70
    64
 62
     2
  6
DASHDOT
  0
LAYER
  2
SYMBOLLINE
 70
    64
 62
    15
  6
CONTINUOUS
  0
ENDTAB
  0
TABLE
  2
STYLE
 70
     1
  0
STYLE
  2
STANDARD
 70
     0
 40
64.0
 41
0.9
 50
0.0
 71
     0
 42
64.0
  3
SIMPLEX.shx
  4
BIGFONT.shx
  0
ENDTAB
  0
TABLE
  2
APPID
 70
    19
  0
APPID
  2
ACAD
 70
     0
  0
APPID
  2
AUTOCAD_POSTSCRIPT_FIGURE
 70
     0
  0
APPID
  2
ACAD_EXEMPT_FROM_CAD_STANDARDS
 70
     0
  0
APPID
  2
ACAD_PSEXT
 70
     0
  0
APPID
  2
ACAUTHENVIRON
 70
     0
  0
APPID
  2
GENIUS_GENOENT_13
 70
     0
  0
APPID
  2
GENIUS_GENCFG_13
 70
     0
  0
APPID
  2
GENIUS_GENCFG0_13
 70
     0
  0
APPID
  2
GENIUS_GENCFG1_13
 70
     0
  0
APPID
  2
GENIUS_GENCFG2_13
 70
     0
  0
APPID
  2
GENIUS_GENCFG3_13
 70
     0
  0
APPID
  2
GENIUS_GENCFG4_13
 70
     0
  0
APPID
  2
GENIUS_GEVCFG0_13
 70
     0
  0
APPID
  2
CONTENTBLOCKICON
 70
     0
  0
APPID
  2
CONTENTBLOCKDESCRIPTION
 70
     0
  0
APPID
  2
ACAD_NAV_VCDISPLAY
 70
     0
  0
APPID
  2
ACAD_MLEADERVER
 70
     0
  0
APPID
  2
ACDBDYNAMICBLOCKTRUENAME
 70
     0
  0
APPID
  2
ACDBDYNAMICBLOCKGUID
 70
     0
  0
ENDTAB
  0
TABLE
  2
DIMSTYLE
 70
     1
  0
DIMSTYLE
  2
STANDARD
 70
     0
  3

  4

  5
_ORIGIN
  6

  7

 40
1.0
 41
12.0
 42
20.0
 43
200.0
 44
20.0
 45
0.0
 46
0.0
 47
0.0
 48
0.0
140
64.0
141
0.09
142
0.0
143
25.399999999999999
144
1.0
145
0.0
146
1.0
147
25.0
 71
     0
 72
     0
 73
     0
 74
     0
 75
     0
 76
     0
 77
     1
 78
     8
170
     0
171
     2
172
     1
173
     0
174
     1
175
     0
176
     7
177
     7
178
     7
  0
ENDTAB
  0
TABLE
  2
VIEW
 70
     1
  0
VIEW
  2
ALL
 70
     0
 40
4282.6198079999986
 10
0.0
 20
41.309904000000003
 41
5940.0
 11
0.0
 21
0.0
 31
1.0
 12
0.0
 22
0.0
 32
0.0
 42
50.0
 43
0.0
 44
0.0
 50
0.0
 71
     0
  0
ENDTAB
  0
TABLE
  2
UCS
 70
     0
  0
ENDTAB
  0
TABLE
  2
VPORT
 70
     1
  0
VPORT
  2
*ACTIVE
 70
     0
 10
0.0
 20
0.0
 11
1.0
 21
1.0
 12
328.78648271875591
 22
104.3014625370279
 13
0.0
 23
0.0
 14
1.0
 24
1.0
 15
0.0
 25
0.0
 16
0.0
 26
0.0
 36
1.0
 17
0.0
 27
0.0
 37
0.0
 40
1179.5982536110339
 41
1.747787610619469
 42
50.0
 43
0.0
 44
0.0
 50
0.0
 51
0.0
 71
     0
 72
  1000
 73
     1
 74
     3
 75
     0
 76
     0
 77
     0
 78
     0
  0
ENDTAB
  0
ENDSEC
  0
SECTION
  2
BLOCKS
  0
BLOCK
  8
0
  2
_ORIGIN
 70
     0
 10
0.0
 20
0.0
 30
0.0
  3
_ORIGIN
  1
_ORIGIN
  0
CIRCLE
  8
0
  6
CONTINUOUS
 62
     7
 10
0.0
 20
0.0
 30
0.0
 40
0.5
  0
LINE
  8
0
  6
CONTINUOUS
 62
     7
 10
0.0
 20
0.0
 30
0.0
 11
-1.0
 21
0.0
 31
0.0
  0
ENDBLK
  8
0
  0
ENDSEC
  0
SECTION
  2
ENTITIES
  0
TEXT
  8
ETC
  6
CONTINUOUS
 62
    61
 10
606.5312198019742
 20
626.1201180033554
 30
0.0
 40
64.0
  1
VD-10ZLC13_5
 41
0.9
  0
TEXT
  8
ETC
  6
CONTINUOUS
 62
    61
 10
602.34522580197381
 20
508.16480798852422
 30
0.0
 40
64.0
  1
換気扇
 41
0.9
  0
TEXT
  8
ETC
  6
CONTINUOUS
 62
    61
 10
653.04662405052977
 20
400.01603510229887
 30
0.0
 40
40.0
  1
VD-10ZLC13
 41
0.9
  0
LINE
  8
OUTLINE
  6
CONTINUOUS
 62
     3
 10
26.446824499999821
 20
138.98768200000009
 30
0.0
 11
58.684651499999752
 21
138.98768200000009
 31
0.0
  0
LINE
  8
OUTLINE
  6
CONTINUOUS
 62
     3
 10
75.222701499999857
 20
177.72867000000011
 30
0.0
 11
80.513647499999934
 21
177.72867000000011
 31
0.0
  0
LINE
  8
OUTLINE
  6
CONTINUOUS
 62
     3
 10
86.197548499999812
 20
45.387080999999966
 30
0.0
 11
86.97293449999961
 21
0.969820000000027
 31
0.0
  0
LINE
  8
OUTLINE
  6
CONTINUOUS
 62
     3
 10
-86.989561500000036
 20
0.0
 30
0.0
 11
-124.47310950000021
 21
0.0
 31
0.0
  0
ARC
  8
OUTLINE
  6
CONTINUOUS
 62
     3
 10
87.972617499999615
 20
0.9899349999999458
 30
0.0
 40
0.9998799999999999
 50
181.00000000000179
 51
261.91248100001968
  0
LINE
  8
OUTLINE
  6
CONTINUOUS
 62
     3
 10
124.47310949999969
 20
0.0
 30
0.0
 11
87.831948500000181
 21
0.0
 31
0.0
  0
LINE
  8
OUTLINE
  6
CONTINUOUS
 62
     3
 10
117.8066895000002
 20
-15.0
 30
0.0
 11
-117.8066895000002
 21
-15.0
 31
0.0
  0
LINE
  8
OUTLINE
  6
CONTINUOUS
 62
     3
 10
61.892570500000147
 20
160.48074
 30
0.0
 11
58.684651499999752
 21
138.98768200000009
 31
0.0
  0
LINE
  8
OUTLINE
  6
CONTINUOUS
 62
     3
 10
-83.977224500000375
 20
59.992799999999988
 30
0.0
 11
-81.472921500000211
 21
59.992799999999988
 31
0.0
  0
ARC
  8
OUTLINE
  6
CONTINUOUS
 62
     3
 10
195.48986449999981
 20
53.595255000000073
 30
0.0
 40
0.5
 50
270.50000000001762
 51
0.0
  0
LINE
  8
OUTLINE
  6
CONTINUOUS
 62
     3
 10
195.49422749999999
 20
53.095274000000018
 30
0.0
 11
154.2335144999997
 21
52.735197000000078
 31
0.0
  0
ARC
  8
OUTLINE
  6
CONTINUOUS
 62
     3
 10
154.25096750000009
 20
50.735273999999997
 30
0.0
 40
2.0
 50
90.500000000017607
 51
109.9999999999898
  0
LINE
  8
OUTLINE
  6
CONTINUOUS
 62
     3
 10
153.56692749999999
 20
52.614658999999961
 30
0.0
 11
145.32287349999979
 21
49.614069000000093
 31
0.0
  0
ARC
  8
OUTLINE
  6
CONTINUOUS
 62
     3
 10
144.63883350000009
 20
51.493454000000042
 30
0.0
 40
2.0
 50
271.0000000000278
 51
289.99999999998983
  0
LINE
  8
OUTLINE
  6
CONTINUOUS
 62
     3
 10
144.67373749999979
 20
49.493759000000068
 30
0.0
 11
127.6685474999999
 21
49.196931999999947
 31
0.0
  0
LINE
  8
OUTLINE
  6
CONTINUOUS
 62
     3
 10
86.197548499999812
 20
45.387080999999966
 30
0.0
 11
126.3140014999999
 21
49.122159000000011
 31
0.0
  0
ARC
  8
OUTLINE
  6
CONTINUOUS
 62
     3
 10
127.9826905
 20
31.199672999999962
 30
0.0
 40
18.0
 50
90.999999999975714
 51
95.319238999997324
  0
LINE
  8
OUTLINE
  6
CONTINUOUS
 62
     3
 10
126.8745574999998
 20
154.8176050000001
 30
0.0
 11
84.26471249999986
 21
156.10783599999999
 31
0.0
  0
ARC
  8
OUTLINE
  6
CONTINUOUS
 62
     3
 10
127.41935049999979
 20
172.809359
 30
0.0
 40
18.0
 50
268.2656070000063
 51
269.00000000002427
  0
LINE
  8
OUTLINE
  6
CONTINUOUS
 62
     3
 10
144.67373749999979
 20
154.50544099999999
 30
0.0
 11
127.10520649999989
 21
154.81209999999999
 31
0.0
  0
ARC
  8
OUTLINE
  6
CONTINUOUS
 62
     3
 10
144.63883350000009
 20
152.50574499999991
 30
0.0
 40
2.0
 50
70.000000000010203
 51
89.000000000024301
  0
LINE
  8
OUTLINE
  6
CONTINUOUS
 62
     3
 10
153.56692749999999
 20
151.38453999999999
 30
0.0
 11
145.32287349999979
 21
154.38513
 31
0.0
  0
ARC
  8
OUTLINE
  6
CONTINUOUS
 62
     3
 10
154.25096750000009
 20
153.263926
 30
0.0
 40
2.0
 50
250.0000000000102
 51
269.49999999998238
  0
LINE
  8
OUTLINE
  6
CONTINUOUS
 62
     3
 10
195.49422749999999
 20
150.90392499999999
 30
0.0
 11
154.2335144999997
 21
151.264002
 31
0.0
  0
ARC
  8
OUTLINE
  6
CONTINUOUS
 62
     3
 10
195.48986449999981
 20
150.403944
 30
0.0
 40
0.5
 50
0.0
 51
89.499999999982393
  0
LINE
  8
OUTLINE
  6
CONTINUOUS
 62
     3
 10
195.98986449999981
 20
150.403944
 30
0.0
 11
195.98986449999981
 21
53.595255000000073
 31
0.0
  0
LINE
  8
OUTLINE
  6
CONTINUOUS
 62
     3
 10
54.973400500000032
 20
177.72867000000011
 30
0.0
 11
62.133612499999799
 21
177.72867000000011
 31
0.0
  0
ARC
  8
OUTLINE
  6
CONTINUOUS
 62
     3
 10
54.973400500000032
 20
176.8487749999999
 30
0.0
 40
0.8798940000000001
 50
90.0
 51
180.0
  0
LINE
  8
OUTLINE
  6
CONTINUOUS
 62
     3
 10
54.093506499999883
 20
170.72951
 30
0.0
 11
54.093506499999883
 21
176.8487749999999
 31
0.0
  0
LINE
  8
OUTLINE
  6
CONTINUOUS
 62
     3
 10
80.513647499999934
 20
177.72867000000011
 30
0.0
 11
80.513647499999934
 21
172.72927000000001
 31
0.0
  0
LINE
  8
OUTLINE
  6
CONTINUOUS
 62
     3
 10
54.106900499999938
 20
169.9796
 30
0.0
 11
54.106900499999938
 21
170.72951
 31
0.0
  0
LINE
  8
OUTLINE
  6
CONTINUOUS
 62
     3
 10
84.00885449999987
 20
170.76441
 30
0.0
 11
84.26471249999986
 21
156.10783599999999
 31
0.0
  0
LINE
  8
OUTLINE
  6
CONTINUOUS
 62
     3
 10
80.513647499999934
 20
172.70918000000009
 30
0.0
 11
82.012867499999629
 21
172.70918000000009
 31
0.0
  0
LINE
  8
OUTLINE
  6
CONTINUOUS
 62
     3
 10
82.510070499999983
 20
172.66557599999999
 30
0.0
 11
82.500229499999932
 21
172.66781900000001
 31
0.0
  0
LINE
  8
OUTLINE
  6
CONTINUOUS
 62
     3
 10
82.500229499999932
 20
172.66781900000001
 30
0.0
 11
82.483239499999854
 21
172.67092600000001
 31
0.0
  0
LINE
  8
OUTLINE
  6
CONTINUOUS
 62
     3
 10
82.483239499999854
 20
172.67092600000001
 30
0.0
 11
82.459155499999724
 21
172.67502400000001
 31
0.0
  0
LINE
  8
OUTLINE
  6
CONTINUOUS
 62
     3
 10
82.459155499999724
 20
172.67502400000001
 30
0.0
 11
82.428393499999856
 21
172.6797369999999
 31
0.0
  0
LINE
  8
OUTLINE
  6
CONTINUOUS
 62
     3
 10
82.428393499999856
 20
172.6797369999999
 30
0.0
 11
82.391726500000004
 21
172.68481800000009
 31
0.0
  0
LINE
  8
OUTLINE
  6
CONTINUOUS
 62
     3
 10
82.391726500000004
 20
172.68481800000009
 30
0.0
 11
82.349460499999623
 21
172.69000399999999
 31
0.0
  0
LINE
  8
OUTLINE
  6
CONTINUOUS
 62
     3
 10
82.349460499999623
 20
172.69000399999999
 30
0.0
 11
82.301985500000228
 21
172.69503399999999
 31
0.0
  0
LINE
  8
OUTLINE
  6
CONTINUOUS
 62
     3
 10
82.301985500000228
 20
172.69503399999999
 30
0.0
 11
82.24985149999975
 21
172.69964999999999
 31
0.0
  0
LINE
  8
OUTLINE
  6
CONTINUOUS
 62
     3
 10
82.24985149999975
 20
172.69964999999999
 30
0.0
 11
82.193311500000164
 21
172.70357000000001
 31
0.0
  0
LINE
  8
OUTLINE
  6
CONTINUOUS
 62
     3
 10
82.193311500000164
 20
172.70357000000001
 30
0.0
 11
82.133979499999896
 21
172.706605
 31
0.0
  0
LINE
  8
OUTLINE
  6
CONTINUOUS
 62
     3
 10
82.133979499999896
 20
172.706605
 30
0.0
 11
82.073601499999768
 21
172.708437
 31
0.0
  0
LINE
  8
OUTLINE
  6
CONTINUOUS
 62
     3
 10
82.073601499999768
 20
172.708437
 30
0.0
 11
82.012867499999629
 21
172.70917300000011
 31
0.0
  0
ARC
  8
OUTLINE
  6
CONTINUOUS
 62
     3
 10
82.009398499999861
 20
170.72951
 30
0.0
 40
1.99976
 50
1.0000000000017759
 51
75.016061000008037
  0
LINE
  8
OUTLINE
  6
CONTINUOUS
 62
     3
 10
61.892570500000147
 20
169.9796
 30
0.0
 11
54.106900499999938
 21
169.9796
 31
0.0
  0
ARC
  8
OUTLINE
  6
CONTINUOUS
 62
     3
 10
-117.8066895000002
 20
-14.0
 30
0.0
 40
1.0
 50
226.5000000000073
 51
270.0
  0
LINE
  8
OUTLINE
  6
CONTINUOUS
 62
     3
 10
-124.2389345000001
 20
-9.274626000000012
 30
0.0
 11
-118.4950445000004
 21
-14.725374999999991
 31
0.0
  0
ARC
  8
OUTLINE
  6
CONTINUOUS
 62
     3
 10
-123.55058050000029
 20
-8.5492519999999104
 30
0.0
 40
1.0
 50
182.99999999999909
 51
226.5000000000073
  0
LINE
  8
OUTLINE
  6
CONTINUOUS
 62
     3
 10
-124.5492095
 20
-8.6015879999999925
 30
0.0
 11
-124.9724245000002
 21
-0.5261679999999842
 31
0.0
  0
ARC
  8
OUTLINE
  6
CONTINUOUS
 62
     3
 10
-124.47310950000021
 20
-0.5
 30
0.0
 40
0.5
 50
90.0
 51
182.99999999999909
  0
LINE
  8
OUTLINE
  6
CONTINUOUS
 62
     3
 10
-122.5001805000002
 20
0.0
 30
0.0
 11
-122.49311250000029
 21
0.0
 31
0.0
  0
ARC
  8
OUTLINE
  6
CONTINUOUS
 62
     3
 10
117.8066895000002
 20
-14.0
 30
0.0
 40
1.0
 50
270.0
 51
313.49999999999272
  0
LINE
  8
OUTLINE
  6
CONTINUOUS
 62
     3
 10
124.2389345000001
 20
-9.274626000000012
 30
0.0
 11
118.49504449999991
 21
-14.725374999999991
 31
0.0
  0
ARC
  8
OUTLINE
  6
CONTINUOUS
 62
     3
 10
123.5505804999998
 20
-8.5492519999999104
 30
0.0
 40
1.0
 50
313.49999999999272
 51
357.00000000000091
  0
LINE
  8
OUTLINE
  6
CONTINUOUS
 62
     3
 10
124.5492095
 20
-8.6015879999999925
 30
0.0
 11
124.9724244999998
 21
-0.5261679999999842
 31
0.0
  0
ARC
  8
OUTLINE
  6
CONTINUOUS
 62
     3
 10
124.47310949999969
 20
-0.5
 30
0.0
 40
0.5
 50
357.00000000000091
 51
90.0
  0
LINE
  8
OUTLINE
  6
CONTINUOUS
 62
     3
 10
-86.989561500000036
 20
0.0
 30
0.0
 11
-85.976680499999929
 21
58.027940000000058
 31
0.0
  0
ARC
  8
OUTLINE
  6
CONTINUOUS
 62
     3
 10
-83.977223500000036
 20
57.993039999999951
 30
0.0
 40
1.99976
 50
90.000038000014257
 51
179.00000099999559
  0
ARC
  8
OUTLINE
  6
CONTINUOUS
 62
     3
 10
-81.472921500000211
 20
60.99267999999995
 30
0.0
 40
0.9998799999999999
 50
270.0
 51
359.00000000000477
  0
LINE
  8
OUTLINE
  6
CONTINUOUS
 62
     3
 10
61.892570500000147
 20
169.9796
 30
0.0
 11
61.892570500000147
 21
160.48074
 31
0.0
  0
LINE
  8
OUTLINE
  6
CONTINUOUS
 62
     3
 10
63.696216499999991
 20
182.590104
 30
0.0
 11
62.133612499999799
 21
177.72867000000011
 31
0.0
  0
LINE
  8
OUTLINE
  6
CONTINUOUS
 62
     3
 10
74.428186499999811
 20
182.31920199999999
 30
0.0
 11
75.222701499999857
 21
177.72867000000011
 31
0.0
  0
LINE
  8
OUTLINE
  6
CONTINUOUS
 62
     3
 10
65.600045499999851
 20
183.97792000000001
 30
0.0
 11
72.457721499999934
 21
183.97792000000001
 31
0.0
  0
ARC
  8
OUTLINE
  6
CONTINUOUS
 62
     3
 10
65.600045499999851
 20
181.97816
 30
0.0
 40
1.99976
 50
90.0
 51
162.18111099999629
  0
ARC
  8
OUTLINE
  6
CONTINUOUS
 62
     3
 10
72.457721499999934
 20
181.97816
 30
0.0
 40
1.99976
 50
9.8193009999950576
 51
90.0
  0
LINE
  8
OUTLINE
  6
CONTINUOUS
 62
     3
 10
-42.123504500000308
 20
138.98768200000009
 30
0.0
 11
-36.445627500000228
 21
138.98768200000009
 31
0.0
  0
LINE
  8
OUTLINE
  6
CONTINUOUS
 62
     3
 10
-80.473193499999979
 20
60.975229000000013
 30
0.0
 11
-79.251040500000272
 21
130.99235100000001
 31
0.0
  0
LINE
  8
OUTLINE
  6
CONTINUOUS
 62
     3
 10
-55.006932499999948
 20
183.97792000000001
 30
0.0
 11
-50.691346500000243
 21
183.97792000000001
 31
0.0
  0
ARC
  8
OUTLINE
  6
CONTINUOUS
 62
     3
 10
-55.006932499999948
 20
183.47798
 30
0.0
 40
0.4999399999999999
 50
90.0
 51
155.56941600001099
  0
LINE
  8
OUTLINE
  6
CONTINUOUS
 62
     3
 10
-55.460943500000212
 20
183.68731700000001
 30
0.0
 11
-79.128617500000018
 21
131.58616200000009
 31
0.0
  0
LINE
  8
OUTLINE
  6
CONTINUOUS
 62
     3
 10
-48.962448500000392
 20
180.038488
 30
0.0
 11
-48.983718500000123
 21
180.2735230000001
 31
0.0
  0
LINE
  8
OUTLINE
  6
CONTINUOUS
 62
     3
 10
-48.983718500000123
 20
180.2735230000001
 30
0.0
 11
-49.020960500000001
 21
180.606301
 31
0.0
  0
LINE
  8
OUTLINE
  6
CONTINUOUS
 62
     3
 10
-49.020960500000001
 20
180.606301
 30
0.0
 11
-49.06472550000035
 21
180.92410200000009
 31
0.0
  0
LINE
  8
OUTLINE
  6
CONTINUOUS
 62
     3
 10
-49.06472550000035
 20
180.92410200000009
 30
0.0
 11
-49.114219500000218
 21
181.225911
 31
0.0
  0
LINE
  8
OUTLINE
  6
CONTINUOUS
 62
     3
 10
-49.114219500000218
 20
181.225911
 30
0.0
 11
-49.168665500000323
 21
181.51096400000009
 31
0.0
  0
LINE
  8
OUTLINE
  6
CONTINUOUS
 62
     3
 10
-49.168665500000323
 20
181.51096400000009
 30
0.0
 11
-49.227290499999981
 21
181.77864
 31
0.0
  0
LINE
  8
OUTLINE
  6
CONTINUOUS
 62
     3
 10
-49.227290499999981
 20
181.77864
 30
0.0
 11
-49.289369500000248
 21
182.02857200000011
 31
0.0
  0
LINE
  8
OUTLINE
  6
CONTINUOUS
 62
     3
 10
-49.289369500000248
 20
182.02857200000011
 30
0.0
 11
-49.354236500000297
 21
182.26066399999999
 31
0.0
  0
LINE
  8
OUTLINE
  6
CONTINUOUS
 62
     3
 10
-49.354236500000297
 20
182.26066399999999
 30
0.0
 11
-49.421282499999961
 21
182.47496100000001
 31
0.0
  0
LINE
  8
OUTLINE
  6
CONTINUOUS
 62
     3
 10
-49.421282499999961
 20
182.47496100000001
 30
0.0
 11
-49.490046500000062
 21
182.671922
 31
0.0
  0
LINE
  8
OUTLINE
  6
CONTINUOUS
 62
     3
 10
-49.490046500000062
 20
182.671922
 30
0.0
 11
-49.560132500000243
 21
182.85200900000009
 31
0.0
  0
LINE
  8
OUTLINE
  6
CONTINUOUS
 62
     3
 10
-49.560132500000243
 20
182.85200900000009
 30
0.0
 11
-49.631363500000127
 21
183.01610500000001
 31
0.0
  0
LINE
  8
OUTLINE
  6
CONTINUOUS
 62
     3
 10
-49.631363500000127
 20
183.01610500000001
 30
0.0
 11
-49.703634500000128
 21
183.16497699999999
 31
0.0
  0
LINE
  8
OUTLINE
  6
CONTINUOUS
 62
     3
 10
-49.703634500000128
 20
183.16497699999999
 30
0.0
 11
-49.777171499999888
 21
183.29979599999999
 31
0.0
  0
LINE
  8
OUTLINE
  6
CONTINUOUS
 62
     3
 10
-49.777171499999888
 20
183.29979599999999
 30
0.0
 11
-49.852281500000117
 21
183.42149299999991
 31
0.0
  0
LINE
  8
OUTLINE
  6
CONTINUOUS
 62
     3
 10
-49.852281500000117
 20
183.42149299999991
 30
0.0
 11
-49.929786499999857
 21
183.53134299999999
 31
0.0
  0
LINE
  8
OUTLINE
  6
CONTINUOUS
 62
     3
 10
-49.929786499999857
 20
183.53134299999999
 30
0.0
 11
-50.01071950000005
 21
183.6302870000001
 31
0.0
  0
LINE
  8
OUTLINE
  6
CONTINUOUS
 62
     3
 10
-50.01071950000005
 20
183.6302870000001
 30
0.0
 11
-50.096477500000219
 21
183.71895200000009
 31
0.0
  0
LINE
  8
OUTLINE
  6
CONTINUOUS
 62
     3
 10
-50.096477500000219
 20
183.71895200000009
 30
0.0
 11
-50.188930499999969
 21
183.79754399999999
 31
0.0
  0
LINE
  8
OUTLINE
  6
CONTINUOUS
 62
     3
 10
-50.188930499999969
 20
183.79754399999999
 30
0.0
 11
-50.289481499999972
 21
183.86496700000001
 31
0.0
  0
LINE
  8
OUTLINE
  6
CONTINUOUS
 62
     3
 10
-50.289481499999972
 20
183.86496700000001
 30
0.0
 11
-50.400414499999897
 21
183.919746
 31
0.0
  0
LINE
  8
OUTLINE
  6
CONTINUOUS
 62
     3
 10
-50.400414499999897
 20
183.919746
 30
0.0
 11
-50.519828500000131
 21
183.95791900000009
 31
0.0
  0
LINE
  8
OUTLINE
  6
CONTINUOUS
 62
     3
 10
-50.519828500000131
 20
183.95791900000009
 30
0.0
 11
-50.644634500000393
 21
183.97643400000001
 31
0.0
  0
LINE
  8
OUTLINE
  6
CONTINUOUS
 62
     3
 10
-50.644634500000393
 20
183.97643400000001
 30
0.0
 11
-50.689422500000092
 21
183.97791200000009
 31
0.0
  0
LINE
  8
OUTLINE
  6
CONTINUOUS
 62
     3
 10
-47.857081500000277
 20
167.52901200000019
 30
0.0
 11
-48.436634499999847
 21
173.85838799999999
 31
0.0
  0
LINE
  8
OUTLINE
  6
CONTINUOUS
 62
     3
 10
-48.436634499999847
 20
173.85838799999999
 30
0.0
 11
-48.962451500000043
 21
180.03849199999999
 31
0.0
  0
LINE
  8
OUTLINE
  6
CONTINUOUS
 62
     3
 10
-50.691353500000332
 20
183.97792000000001
 30
0.0
 11
-50.603756500000152
 21
183.96648200000001
 31
0.0
  0
LINE
  8
OUTLINE
  6
CONTINUOUS
 62
     3
 10
-79.128617500000018
 20
131.58616200000009
 30
0.0
 11
-79.251040500000272
 21
130.99235100000001
 31
0.0
  0
LINE
  8
OUTLINE
  6
CONTINUOUS
 62
     3
 10
-46.514494500000183
 20
154.30793299999999
 30
0.0
 11
-46.540086500000143
 21
154.55175399999999
 31
0.0
  0
LINE
  8
OUTLINE
  6
CONTINUOUS
 62
     3
 10
-47.833188500000233
 20
167.277377
 30
0.0
 11
-47.844589499999977
 21
167.40162500000019
 31
0.0
  0
LINE
  8
OUTLINE
  6
CONTINUOUS
 62
     3
 10
-45.105103500000041
 20
141.655922
 30
0.0
 11
-46.567663499999981
 21
154.800252
 31
0.0
  0
LINE
  8
OUTLINE
  6
CONTINUOUS
 62
     3
 10
-46.567663499999981
 20
154.800252
 30
0.0
 11
-47.234119499999913
 21
161.176199
 31
0.0
  0
LINE
  8
OUTLINE
  6
CONTINUOUS
 62
     3
 10
-47.234119499999913
 20
161.176199
 30
0.0
 11
-47.857081500000277
 21
167.52901200000019
 31
0.0
  0
ARC
  8
OUTLINE
  6
CONTINUOUS
 62
     3
 10
-42.123504500000308
 20
141.98768200000009
 30
0.0
 40
3.0
 50
186.34914399999579
 51
270.0
  0
LINE
  8
BASIS
  6
DASHDOT
 62
     6
 10
0.0
 20
185.8927580000001
 30
0.0
 11
0.0
 21
-33.062801999999976
 31
0.0
  0
ARC
  8
DETAIL
  6
CONTINUOUS
 62
     5
 10
-42.123504000000139
 20
141.98768200000009
 30
0.0
 40
3.0
 50
186.34914399999579
 51
270.0
  0
LINE
  8
DETAIL
  6
CONTINUOUS
 62
     5
 10
-47.234118999999737
 20
161.17619900000011
 30
0.0
 11
-47.857081000000107
 21
167.52901200000019
 31
0.0
  0
LINE
  8
DETAIL
  6
CONTINUOUS
 62
     5
 10
-46.567662999999811
 20
154.800252
 30
0.0
 11
-47.234118999999737
 21
161.17619900000011
 31
0.0
  0
LINE
  8
DETAIL
  6
CONTINUOUS
 62
     5
 10
-45.105102999999872
 20
141.655922
 30
0.0
 11
-46.567662999999811
 21
154.800252
 31
0.0
  0
LINE
  8
DETAIL
  6
CONTINUOUS
 62
     5
 10
-47.833188000000057
 20
167.277377
 30
0.0
 11
-47.844588999999807
 21
167.40162500000019
 31
0.0
  0
LINE
  8
DETAIL
  6
CONTINUOUS
 62
     5
 10
-46.514494000000013
 20
154.30793299999999
 30
0.0
 11
-46.540085999999967
 21
154.55175399999999
 31
0.0
  0
LINE
  8
DETAIL
  6
CONTINUOUS
 62
     5
 10
-79.128616999999849
 20
131.5861619999998
 30
0.0
 11
-79.251040000000103
 21
130.99235100000001
 31
0.0
  0
LINE
  8
DETAIL
  6
CONTINUOUS
 62
     5
 10
-50.691353000000163
 20
183.97792000000001
 30
0.0
 11
-50.603755999999983
 21
183.9664819999999
 31
0.0
  0
LINE
  8
DETAIL
  6
CONTINUOUS
 62
     5
 10
-48.436633999999692
 20
173.85838799999999
 30
0.0
 11
-48.962450999999866
 21
180.03849199999999
 31
0.0
  0
LINE
  8
DETAIL
  6
CONTINUOUS
 62
     5
 10
-47.857081000000107
 20
167.52901200000019
 30
0.0
 11
-48.436633999999692
 21
173.85838799999999
 31
0.0
  0
LINE
  8
DETAIL
  6
CONTINUOUS
 62
     5
 10
-50.644634000000217
 20
183.97643400000001
 30
0.0
 11
-50.689421999999922
 21
183.9779119999998
 31
0.0
  0
LINE
  8
DETAIL
  6
CONTINUOUS
 62
     5
 10
-50.519827999999961
 20
183.95791900000009
 30
0.0
 11
-50.644634000000217
 21
183.97643400000001
 31
0.0
  0
LINE
  8
DETAIL
  6
CONTINUOUS
 62
     5
 10
-50.400413999999728
 20
183.919746
 30
0.0
 11
-50.519827999999961
 21
183.95791900000009
 31
0.0
  0
LINE
  8
DETAIL
  6
CONTINUOUS
 62
     5
 10
-50.289480999999803
 20
183.86496700000009
 30
0.0
 11
-50.400413999999728
 21
183.919746
 31
0.0
  0
LINE
  8
DETAIL
  6
CONTINUOUS
 62
     5
 10
-50.1889299999998
 20
183.79754399999999
 30
0.0
 11
-50.289480999999803
 21
183.86496700000009
 31
0.0
  0
LINE
  8
DETAIL
  6
CONTINUOUS
 62
     5
 10
-50.09647700000005
 20
183.71895200000009
 30
0.0
 11
-50.1889299999998
 21
183.79754399999999
 31
0.0
  0
LINE
  8
DETAIL
  6
CONTINUOUS
 62
     5
 10
-50.010718999999881
 20
183.6302870000001
 30
0.0
 11
-50.09647700000005
 21
183.71895200000009
 31
0.0
  0
LINE
  8
DETAIL
  6
CONTINUOUS
 62
     5
 10
-49.929785999999687
 20
183.53134299999999
 30
0.0
 11
-50.010718999999881
 21
183.6302870000001
 31
0.0
  0
LINE
  8
DETAIL
  6
CONTINUOUS
 62
     5
 10
-49.852280999999948
 20
183.42149300000011
 30
0.0
 11
-49.929785999999687
 21
183.53134299999999
 31
0.0
  0
LINE
  8
DETAIL
  6
CONTINUOUS
 62
     5
 10
-49.777170999999733
 20
183.29979599999999
 30
0.0
 11
-49.852280999999948
 21
183.42149300000011
 31
0.0
  0
LINE
  8
DETAIL
  6
CONTINUOUS
 62
     5
 10
-49.703633999999973
 20
183.16497699999999
 30
0.0
 11
-49.777170999999733
 21
183.29979599999999
 31
0.0
  0
LINE
  8
DETAIL
  6
CONTINUOUS
 62
     5
 10
-49.631362999999958
 20
183.01610500000001
 30
0.0
 11
-49.703633999999973
 21
183.16497699999999
 31
0.0
  0
LINE
  8
DETAIL
  6
CONTINUOUS
 62
     5
 10
-49.560132000000067
 20
182.85200900000009
 30
0.0
 11
-49.631362999999958
 21
183.01610500000001
 31
0.0
  0
LINE
  8
DETAIL
  6
CONTINUOUS
 62
     5
 10
-49.490045999999893
 20
182.67192200000011
 30
0.0
 11
-49.560132000000067
 21
182.85200900000009
 31
0.0
  0
LINE
  8
DETAIL
  6
CONTINUOUS
 62
     5
 10
-49.421281999999792
 20
182.47496100000001
 30
0.0
 11
-49.490045999999893
 21
182.67192200000011
 31
0.0
  0
LINE
  8
DETAIL
  6
CONTINUOUS
 62
     5
 10
-49.354236000000128
 20
182.26066399999999
 30
0.0
 11
-49.421281999999792
 21
182.47496100000001
 31
0.0
  0
LINE
  8
DETAIL
  6
CONTINUOUS
 62
     5
 10
-49.289369000000079
 20
182.02857200000011
 30
0.0
 11
-49.354236000000128
 21
182.26066399999999
 31
0.0
  0
LINE
  8
DETAIL
  6
CONTINUOUS
 62
     5
 10
-49.227289999999812
 20
181.77864
 30
0.0
 11
-49.289369000000079
 21
182.02857200000011
 31
0.0
  0
LINE
  8
DETAIL
  6
CONTINUOUS
 62
     5
 10
-49.168665000000153
 20
181.5109639999998
 30
0.0
 11
-49.227289999999812
 21
181.77864
 31
0.0
  0
LINE
  8
DETAIL
  6
CONTINUOUS
 62
     5
 10
-49.114219000000048
 20
181.225911
 30
0.0
 11
-49.168665000000153
 21
181.5109639999998
 31
0.0
  0
LINE
  8
DETAIL
  6
CONTINUOUS
 62
     5
 10
-49.06472500000018
 20
180.92410200000009
 30
0.0
 11
-49.114219000000048
 21
181.225911
 31
0.0
  0
LINE
  8
DETAIL
  6
CONTINUOUS
 62
     5
 10
-49.020959999999832
 20
180.606301
 30
0.0
 11
-49.06472500000018
 21
180.92410200000009
 31
0.0
  0
LINE
  8
DETAIL
  6
CONTINUOUS
 62
     5
 10
-48.983717999999953
 20
180.2735230000001
 30
0.0
 11
-49.020959999999832
 21
180.606301
 31
0.0
  0
LINE
  8
DETAIL
  6
CONTINUOUS
 62
     5
 10
-48.962448000000222
 20
180.038488
 30
0.0
 11
-48.983717999999953
 21
180.2735230000001
 31
0.0
  0
LINE
  8
DETAIL
  6
CONTINUOUS
 62
     5
 10
-55.460943000000043
 20
183.68731700000001
 30
0.0
 11
-79.128616999999849
 21
131.5861619999998
 31
0.0
  0
ARC
  8
DETAIL
  6
CONTINUOUS
 62
     5
 10
-55.006931999999779
 20
183.47798
 30
0.0
 40
0.4999399999999999
 50
90.0
 51
155.56941600001099
  0
LINE
  8
DETAIL
  6
CONTINUOUS
 62
     5
 10
-55.006931999999779
 20
183.97792000000001
 30
0.0
 11
-50.691346000000067
 21
183.97792000000001
 31
0.0
  0
LINE
  8
DETAIL
  6
CONTINUOUS
 62
     5
 10
-80.47319299999981
 20
60.975229000000013
 30
0.0
 11
-79.251040000000103
 21
130.99235100000001
 31
0.0
  0
LINE
  8
DETAIL
  6
CONTINUOUS
 62
     5
 10
-42.123504000000139
 20
138.98768200000009
 30
0.0
 11
58.684651999999907
 21
138.98768200000009
 31
0.0
  0
ARC
  8
DETAIL
  6
CONTINUOUS
 62
     5
 10
72.457722000000103
 20
181.97816
 30
0.0
 40
1.99976
 50
9.8193009999950576
 51
90.0
  0
ARC
  8
DETAIL
  6
CONTINUOUS
 62
     5
 10
65.60004600000002
 20
181.97816
 30
0.0
 40
1.99976
 50
90.0
 51
162.18111099999629
  0
LINE
  8
DETAIL
  6
CONTINUOUS
 62
     5
 10
65.60004600000002
 20
183.97792000000001
 30
0.0
 11
72.457722000000103
 21
183.97792000000001
 31
0.0
  0
LINE
  8
DETAIL
  6
CONTINUOUS
 62
     5
 10
74.42818699999998
 20
182.31920199999999
 30
0.0
 11
75.222702000000027
 21
177.72867000000011
 31
0.0
  0
LINE
  8
DETAIL
  6
CONTINUOUS
 62
     5
 10
63.696217000000161
 20
182.590104
 30
0.0
 11
62.133612999999968
 21
177.72867000000011
 31
0.0
  0
LINE
  8
DETAIL
  6
CONTINUOUS
 62
     5
 10
61.892571000000324
 20
169.9796
 30
0.0
 11
61.892571000000324
 21
160.4807400000002
 31
0.0
  0
ARC
  8
DETAIL
  6
CONTINUOUS
 62
     5
 10
-81.472921000000042
 20
60.99267999999995
 30
0.0
 40
0.9998799999999999
 50
270.0
 51
359.00000000000477
  0
ARC
  8
DETAIL
  6
CONTINUOUS
 62
     5
 10
-83.977222999999867
 20
57.993039999999951
 30
0.0
 40
1.99976
 50
90.000038000014257
 51
179.00000099999559
  0
LINE
  8
DETAIL
  6
CONTINUOUS
 62
     5
 10
-86.989560999999867
 20
0.0
 30
0.0
 11
-85.97667999999976
 21
58.027940000000058
 31
0.0
  0
ARC
  8
DETAIL
  6
CONTINUOUS
 62
     5
 10
124.47310999999991
 20
-0.5
 30
0.0
 40
0.5
 50
357.00000000000091
 51
90.0
  0
LINE
  8
DETAIL
  6
CONTINUOUS
 62
     5
 10
124.5492100000001
 20
-8.6015879999999925
 30
0.0
 11
124.9724249999999
 21
-0.5261679999999842
 31
0.0
  0
ARC
  8
DETAIL
  6
CONTINUOUS
 62
     5
 10
123.55058099999999
 20
-8.5492520000000241
 30
0.0
 40
1.0
 50
313.49999999999272
 51
357.00000000000091
  0
LINE
  8
DETAIL
  6
CONTINUOUS
 62
     5
 10
124.2389350000003
 20
-9.274626000000012
 30
0.0
 11
118.4950450000001
 21
-14.725374999999991
 31
0.0
  0
ARC
  8
DETAIL
  6
CONTINUOUS
 62
     5
 10
117.8066900000003
 20
-14.0
 30
0.0
 40
1.0
 50
270.0
 51
313.49999999999272
  0
LINE
  8
DETAIL
  6
CONTINUOUS
 62
     5
 10
-122.50018
 20
0.0
 30
0.0
 11
-122.4931120000001
 21
0.0
 31
0.0
  0
ARC
  8
DETAIL
  6
CONTINUOUS
 62
     5
 10
-124.47310899999999
 20
-0.5
 30
0.0
 40
0.5
 50
90.0
 51
182.99999999999909
  0
LINE
  8
DETAIL
  6
CONTINUOUS
 62
     5
 10
-124.54920899999981
 20
-8.6015879999999925
 30
0.0
 11
-124.972424
 21
-0.5261679999999842
 31
0.0
  0
ARC
  8
DETAIL
  6
CONTINUOUS
 62
     5
 10
-123.5505800000001
 20
-8.5492520000000241
 30
0.0
 40
1.0
 50
182.99999999999909
 51
226.5000000000073
  0
LINE
  8
DETAIL
  6
CONTINUOUS
 62
     5
 10
-124.238934
 20
-9.274626000000012
 30
0.0
 11
-118.49504400000021
 21
-14.725374999999991
 31
0.0
  0
ARC
  8
DETAIL
  6
CONTINUOUS
 62
     5
 10
-117.80668900000001
 20
-14.0
 30
0.0
 40
1.0
 50
226.5000000000073
 51
270.0
  0
LINE
  8
NOTE
  6
CENTER
 62
     4
 10
46.641244999999799
 20
102.0
 30
0.0
 11
240.37645800000021
 21
102.0
 31
0.0
  0
LINE
  8
DETAIL
  6
CONTINUOUS
 62
     5
 10
73.731480000000374
 20
169.97763100000009
 30
0.0
 11
73.772587999999814
 21
169.97610900000009
 31
0.0
  0
LINE
  8
DETAIL
  6
CONTINUOUS
 62
     5
 10
73.690200000000004
 20
169.9787200000001
 30
0.0
 11
73.731480000000374
 21
169.97763100000009
 31
0.0
  0
LINE
  8
DETAIL
  6
CONTINUOUS
 62
     5
 10
73.648750000000291
 20
169.97937600000009
 30
0.0
 11
73.690200000000004
 21
169.9787200000001
 31
0.0
  0
LINE
  8
DETAIL
  6
CONTINUOUS
 62
     5
 10
73.607128999999986
 20
169.9796
 30
0.0
 11
73.648750000000291
 21
169.97937600000009
 31
0.0
  0
LINE
  8
DETAIL
  6
CONTINUOUS
 62
     5
 10
73.607128999999986
 20
169.9796
 30
0.0
 11
54.106901000000107
 21
169.9796
 31
0.0
  0
LINE
  8
DETAIL
  6
CONTINUOUS
 62
     5
 10
55.345232000000117
 20
172.72927000000001
 30
0.0
 11
75.5163849999999
 21
172.72927000000001
 31
0.0
  0
ARC
  8
DETAIL
  6
CONTINUOUS
 62
     5
 10
74.741712000000007
 20
171.72939000000019
 30
0.0
 40
0.9998799999999999
 50
90.0
 51
135.6134830000035
  0
ARC
  8
DETAIL
  6
CONTINUOUS
 62
     5
 10
82.00939900000003
 20
170.72951
 30
0.0
 40
1.99976
 50
1.0000000000017759
 51
75.016061000008037
  0
ARC
  8
DETAIL
  6
CONTINUOUS
 62
     5
 10
55.093386999999893
 20
171.72939000000019
 30
0.0
 40
0.9998799999999999
 50
132.49716299997829
 51
180.0
  0
LINE
  8
DETAIL
  6
CONTINUOUS
 62
     5
 10
82.073601999999937
 20
172.708437
 30
0.0
 11
82.012867999999798
 21
172.70917300000011
 31
0.0
  0
LINE
  8
DETAIL
  6
CONTINUOUS
 62
     5
 10
82.133980000000065
 20
172.706605
 30
0.0
 11
82.073601999999937
 21
172.708437
 31
0.0
  0
LINE
  8
DETAIL
  6
CONTINUOUS
 62
     5
 10
82.193312000000333
 20
172.70357000000001
 30
0.0
 11
82.133980000000065
 21
172.706605
 31
0.0
  0
LINE
  8
DETAIL
  6
CONTINUOUS
 62
     5
 10
82.249851999999919
 20
172.69964999999999
 30
0.0
 11
82.193312000000333
 21
172.70357000000001
 31
0.0
  0
LINE
  8
DETAIL
  6
CONTINUOUS
 62
     5
 10
82.301986000000397
 20
172.69503399999999
 30
0.0
 11
82.249851999999919
 21
172.69964999999999
 31
0.0
  0
LINE
  8
DETAIL
  6
CONTINUOUS
 62
     5
 10
82.349460999999792
 20
172.69000399999999
 30
0.0
 11
82.301986000000397
 21
172.69503399999999
 31
0.0
  0
LINE
  8
DETAIL
  6
CONTINUOUS
 62
     5
 10
82.391727000000174
 20
172.68481800000009
 30
0.0
 11
82.349460999999792
 21
172.69000399999999
 31
0.0
  0
LINE
  8
DETAIL
  6
CONTINUOUS
 62
     5
 10
82.428394000000026
 20
172.6797369999999
 30
0.0
 11
82.391727000000174
 21
172.68481800000009
 31
0.0
  0
LINE
  8
DETAIL
  6
CONTINUOUS
 62
     5
 10
82.459155999999894
 20
172.67502400000001
 30
0.0
 11
82.428394000000026
 21
172.6797369999999
 31
0.0
  0
LINE
  8
DETAIL
  6
CONTINUOUS
 62
     5
 10
82.483240000000023
 20
172.67092600000001
 30
0.0
 11
82.459155999999894
 21
172.67502400000001
 31
0.0
  0
LINE
  8
DETAIL
  6
CONTINUOUS
 62
     5
 10
82.500230000000101
 20
172.66781900000001
 30
0.0
 11
82.483240000000023
 21
172.67092600000001
 31
0.0
  0
LINE
  8
DETAIL
  6
CONTINUOUS
 62
     5
 10
82.510071000000153
 20
172.66557599999999
 30
0.0
 11
82.500230000000101
 21
172.66781900000001
 31
0.0
  0
LINE
  8
DETAIL
  6
CONTINUOUS
 62
     5
 10
75.526287000000139
 20
172.72887399999999
 30
0.0
 11
75.5163849999999
 21
172.72927000000001
 31
0.0
  0
LINE
  8
DETAIL
  6
CONTINUOUS
 62
     5
 10
75.543423000000075
 20
172.72788399999999
 30
0.0
 11
75.526287000000139
 21
172.72887399999999
 31
0.0
  0
LINE
  8
DETAIL
  6
CONTINUOUS
 62
     5
 10
75.635787000000164
 20
172.72168900000011
 30
0.0
 11
75.543423000000075
 21
172.72788399999999
 31
0.0
  0
LINE
  8
DETAIL
  6
CONTINUOUS
 62
     5
 10
75.678210000000036
 20
172.71911299999999
 30
0.0
 11
75.635787000000164
 21
172.72168900000011
 31
0.0
  0
LINE
  8
DETAIL
  6
CONTINUOUS
 62
     5
 10
75.725691000000097
 20
172.71654599999999
 30
0.0
 11
75.678210000000036
 21
172.71911299999999
 31
0.0
  0
LINE
  8
DETAIL
  6
CONTINUOUS
 62
     5
 10
75.777704999999969
 20
172.714147
 30
0.0
 11
75.725691000000097
 21
172.71654599999999
 31
0.0
  0
LINE
  8
DETAIL
  6
CONTINUOUS
 62
     5
 10
75.834047000000282
 20
172.71208799999999
 30
0.0
 11
75.777704999999969
 21
172.714147
 31
0.0
  0
LINE
  8
DETAIL
  6
CONTINUOUS
 62
     5
 10
75.893109999999979
 20
172.71048600000009
 30
0.0
 11
75.834047000000282
 21
172.71208799999999
 31
0.0
  0
LINE
  8
DETAIL
  6
CONTINUOUS
 62
     5
 10
75.953185000000303
 20
172.70953999999981
 30
0.0
 11
75.893109999999979
 21
172.71048600000009
 31
0.0
  0
LINE
  8
DETAIL
  6
CONTINUOUS
 62
     5
 10
76.0135879999998
 20
172.70918300000019
 30
0.0
 11
75.953185000000303
 21
172.70953999999981
 31
0.0
  0
LINE
  8
DETAIL
  6
CONTINUOUS
 62
     5
 10
76.0135879999998
 20
172.70918300000019
 30
0.0
 11
82.012867999999798
 21
172.7091799999998
 31
0.0
  0
LINE
  8
DETAIL
  6
CONTINUOUS
 62
     5
 10
73.742021000000022
 20
171.70983699999999
 30
0.0
 11
73.741871000000174
 21
171.72939000000019
 31
0.0
  0
LINE
  8
DETAIL
  6
CONTINUOUS
 62
     5
 10
84.00885500000004
 20
170.76441
 30
0.0
 11
86.989865000000009
 21
0.0
 31
0.0
  0
LINE
  8
DETAIL
  6
CONTINUOUS
 62
     5
 10
74.018261000000166
 20
172.41960800000001
 30
0.0
 11
74.027160000000094
 21
172.42880199999999
 31
0.0
  0
LINE
  8
DETAIL
  6
CONTINUOUS
 62
     5
 10
73.973567000000003
 20
172.36941300000001
 30
0.0
 11
74.018261000000166
 21
172.41960800000001
 31
0.0
  0
LINE
  8
DETAIL
  6
CONTINUOUS
 62
     5
 10
73.929914000000281
 20
172.3129329999999
 30
0.0
 11
73.973567000000003
 21
172.36941300000001
 31
0.0
  0
LINE
  8
DETAIL
  6
CONTINUOUS
 62
     5
 10
73.888171000000057
 20
172.249729
 30
0.0
 11
73.929914000000281
 21
172.3129329999999
 31
0.0
  0
LINE
  8
DETAIL
  6
CONTINUOUS
 62
     5
 10
73.849156000000221
 20
172.1793230000001
 30
0.0
 11
73.888171000000057
 21
172.249729
 31
0.0
  0
LINE
  8
DETAIL
  6
CONTINUOUS
 62
     5
 10
73.814202000000023
 20
172.1017419999998
 30
0.0
 11
73.849156000000221
 21
172.1793230000001
 31
0.0
  0
LINE
  8
DETAIL
  6
CONTINUOUS
 62
     5
 10
73.784501999999975
 20
172.016806
 30
0.0
 11
73.814202000000023
 21
172.1017419999998
 31
0.0
  0
LINE
  8
DETAIL
  6
CONTINUOUS
 62
     5
 10
73.761661000000004
 20
171.92564300000001
 30
0.0
 11
73.784501999999975
 21
172.016806
 31
0.0
  0
LINE
  8
DETAIL
  6
CONTINUOUS
 62
     5
 10
73.747307000000092
 20
171.8296790000002
 30
0.0
 11
73.761661000000004
 21
171.92564300000001
 31
0.0
  0
LINE
  8
DETAIL
  6
CONTINUOUS
 62
     5
 10
73.741871000000174
 20
171.72939000000019
 30
0.0
 11
73.747307000000092
 21
171.8296790000002
 31
0.0
  0
LINE
  8
DETAIL
  6
CONTINUOUS
 62
     5
 10
54.106901000000107
 20
169.9796
 30
0.0
 11
54.106901000000107
 21
170.72951
 31
0.0
  0
LINE
  8
DETAIL
  6
CONTINUOUS
 62
     5
 10
55.147124000000083
 20
172.7164819999999
 30
0.0
 11
55.273047000000133
 21
172.7246100000001
 31
0.0
  0
LINE
  8
DETAIL
  6
CONTINUOUS
 62
     5
 10
55.028537000000142
 20
172.70410899999999
 30
0.0
 11
55.147124000000083
 21
172.7164819999999
 31
0.0
  0
LINE
  8
DETAIL
  6
CONTINUOUS
 62
     5
 10
54.917516999999862
 20
172.68688
 30
0.0
 11
55.028537000000142
 21
172.70410899999999
 31
0.0
  0
LINE
  8
DETAIL
  6
CONTINUOUS
 62
     5
 10
54.814164000000353
 20
172.664299
 30
0.0
 11
54.917516999999862
 21
172.68688
 31
0.0
  0
LINE
  8
DETAIL
  6
CONTINUOUS
 62
     5
 10
54.718668999999863
 20
172.63622000000001
 30
0.0
 11
54.814164000000353
 21
172.664299
 31
0.0
  0
LINE
  8
DETAIL
  6
CONTINUOUS
 62
     5
 10
54.630852000000232
 20
172.60226800000001
 30
0.0
 11
54.718668999999863
 21
172.63622000000001
 31
0.0
  0
LINE
  8
DETAIL
  6
CONTINUOUS
 62
     5
 10
54.551362000000147
 20
172.56264400000001
 30
0.0
 11
54.630852000000232
 21
172.60226800000001
 31
0.0
  0
LINE
  8
DETAIL
  6
CONTINUOUS
 62
     5
 10
54.480617000000173
 20
172.51743500000009
 30
0.0
 11
54.551362000000147
 21
172.56264400000001
 31
0.0
  0
LINE
  8
DETAIL
  6
CONTINUOUS
 62
     5
 10
54.41791400000011
 20
172.4666120000002
 30
0.0
 11
54.480617000000173
 21
172.51743500000009
 31
0.0
  0
LINE
  8
DETAIL
  6
CONTINUOUS
 62
     5
 10
80.513648000000103
 20
177.72867000000011
 30
0.0
 11
80.513648000000103
 21
172.72927000000001
 31
0.0
  0
LINE
  8
DETAIL
  6
CONTINUOUS
 62
     5
 10
54.093507000000052
 20
170.72951
 30
0.0
 11
54.093507000000052
 21
176.8487749999999
 31
0.0
  0
ARC
  8
DETAIL
  6
CONTINUOUS
 62
     5
 10
54.973401000000187
 20
176.8487749999999
 30
0.0
 40
0.8798940000000001
 50
90.0
 51
180.0
  0
LINE
  8
DETAIL
  6
CONTINUOUS
 62
     5
 10
54.973401000000187
 20
177.72867000000011
 30
0.0
 11
80.513648000000103
 21
177.72867000000011
 31
0.0
  0
LINE
  8
DETAIL
  6
CONTINUOUS
 62
     5
 10
126.98986499999999
 20
154.81448399999999
 30
0.0
 11
126.98986499999999
 21
49.172272000000021
 31
0.0
  0
LINE
  8
DETAIL
  6
CONTINUOUS
 62
     5
 10
145.00837300000009
 20
49.527889999999957
 30
0.0
 11
145.00837300000009
 21
154.47130899999999
 31
0.0
  0
LINE
  8
DETAIL
  6
CONTINUOUS
 62
     5
 10
153.8898650000001
 20
52.702404999999999
 30
0.0
 11
153.8898650000001
 21
151.29679400000001
 31
0.0
  0
LINE
  8
DETAIL
  6
CONTINUOUS
 62
     5
 10
195.98986500000001
 20
150.403944
 30
0.0
 11
195.98986500000001
 21
53.595255000000073
 31
0.0
  0
ARC
  8
DETAIL
  6
CONTINUOUS
 62
     5
 10
195.48986500000001
 20
150.403944
 30
0.0
 40
0.5
 50
0.0
 51
89.499999999982393
  0
LINE
  8
DETAIL
  6
CONTINUOUS
 62
     5
 10
195.49422799999999
 20
150.90392499999999
 30
0.0
 11
154.2335149999999
 21
151.264002
 31
0.0
  0
ARC
  8
DETAIL
  6
CONTINUOUS
 62
     5
 10
154.25096800000031
 20
153.263926
 30
0.0
 40
2.0
 50
250.0000000000102
 51
269.49999999998238
  0
LINE
  8
DETAIL
  6
CONTINUOUS
 62
     5
 10
153.56692800000019
 20
151.38453999999999
 30
0.0
 11
145.32287400000001
 21
154.38513
 31
0.0
  0
ARC
  8
DETAIL
  6
CONTINUOUS
 62
     5
 10
144.63883400000029
 20
152.50574499999991
 30
0.0
 40
2.0
 50
70.000000000010203
 51
89.000000000024301
  0
LINE
  8
DETAIL
  6
CONTINUOUS
 62
     5
 10
144.67373799999999
 20
154.50544099999999
 30
0.0
 11
127.10520700000021
 21
154.81209999999999
 31
0.0
  0
ARC
  8
DETAIL
  6
CONTINUOUS
 62
     5
 10
127.41935100000001
 20
172.809359
 30
0.0
 40
18.0
 50
268.2656070000063
 51
269.00000000002427
  0
LINE
  8
DETAIL
  6
CONTINUOUS
 62
     5
 10
126.87455799999999
 20
154.8176050000001
 30
0.0
 11
84.264713000000029
 21
156.10783599999999
 31
0.0
  0
ARC
  8
DETAIL
  6
CONTINUOUS
 62
     5
 10
127.9826910000002
 20
31.199672999999962
 30
0.0
 40
18.0
 50
90.999999999975714
 51
95.319238999997324
  0
LINE
  8
DETAIL
  6
CONTINUOUS
 62
     5
 10
86.197548999999981
 20
45.387080999999966
 30
0.0
 11
126.3140020000001
 21
49.122159000000011
 31
0.0
  0
LINE
  8
DETAIL
  6
CONTINUOUS
 62
     5
 10
144.67373799999999
 20
49.493759000000068
 30
0.0
 11
127.6685480000001
 21
49.196931999999947
 31
0.0
  0
ARC
  8
DETAIL
  6
CONTINUOUS
 62
     5
 10
144.63883400000029
 20
51.493454000000042
 30
0.0
 40
2.0
 50
271.0000000000278
 51
289.99999999998983
  0
LINE
  8
DETAIL
  6
CONTINUOUS
 62
     5
 10
153.56692800000019
 20
52.614658999999961
 30
0.0
 11
145.32287400000001
 21
49.614068999999972
 31
0.0
  0
ARC
  8
DETAIL
  6
CONTINUOUS
 62
     5
 10
154.25096800000031
 20
50.735273999999997
 30
0.0
 40
2.0
 50
90.500000000017607
 51
109.9999999999898
  0
LINE
  8
DETAIL
  6
CONTINUOUS
 62
     5
 10
195.49422799999999
 20
53.095274000000018
 30
0.0
 11
154.2335149999999
 21
52.735197000000078
 31
0.0
  0
ARC
  8
DETAIL
  6
CONTINUOUS
 62
     5
 10
195.48986500000001
 20
53.595255000000073
 30
0.0
 40
0.5
 50
270.50000000001762
 51
0.0
  0
LINE
  8
DETAIL
  6
CONTINUOUS
 62
     5
 10
-83.977224000000206
 20
59.992799999999988
 30
0.0
 11
-81.472921000000042
 21
59.992799999999988
 31
0.0
  0
LINE
  8
DETAIL
  6
CONTINUOUS
 62
     5
 10
61.892571000000324
 20
160.4807400000002
 30
0.0
 11
58.684651999999907
 21
138.98768200000009
 31
0.0
  0
LINE
  8
DETAIL
  6
CONTINUOUS
 62
     5
 10
124.2389350000003
 20
-9.274626000000012
 30
0.0
 11
-124.238934
 21
-9.274626000000012
 31
0.0
  0
LINE
  8
DETAIL
  6
CONTINUOUS
 62
     5
 10
117.8066900000003
 20
-15.0
 30
0.0
 11
-117.80668900000001
 21
-15.0
 31
0.0
  0
LINE
  8
DETAIL
  6
CONTINUOUS
 62
     5
 10
124.47310999999991
 20
0.0
 30
0.0
 11
-124.47310899999999
 21
0.0
 31
0.0
  0
LINE
  8
DETAIL
  6
CONTINUOUS
 62
     5
 10
73.742021000000022
 20
171.70983699999999
 30
0.0
 11
76.739228000000367
 21
0.0
 31
0.0
  0
LINE
  8
NOTE
  6
CENTER
 62
     4
 10
98.5
 20
6.965336000000093
 30
0.0
 11
98.5
 21
-6.2991109999999253
 31
0.0
  0
LINE
  8
NOTE
  6
CENTER
 62
     4
 10
65.0
 20
6.965336000000093
 30
0.0
 11
65.0
 21
-6.2991109999999253
 31
0.0
  0
LINE
  8
NOTE
  6
CENTER
 62
     4
 10
-98.5
 20
6.965336000000093
 30
0.0
 11
-98.5
 21
-6.2991109999999253
 31
0.0
  0
LINE
  8
NOTE
  6
CENTER
 62
     4
 10
-65.0
 20
6.965336000000093
 30
0.0
 11
-65.0
 21
-6.2991109999999253
 31
0.0
  0
LINE
  8
NOTE
  6
CENTER
 62
     4
 10
46.5
 20
144.74042800000009
 30
0.0
 11
46.5
 21
131.31763699999999
 31
0.0
  0
CIRCLE
  8
FIX
  6
CONTINUOUS
 62
    11
 10
98.5
 20
0.0
 30
0.0
 40
10.0
  0
CIRCLE
  8
FIX
  6
CONTINUOUS
 62
    11
 10
65.0
 20
0.0
 30
0.0
 40
10.0
  0
CIRCLE
  8
FIX
  6
CONTINUOUS
 62
    11
 10
-65.0
 20
0.0
 30
0.0
 40
10.0
  0
CIRCLE
  8
FIX
  6
CONTINUOUS
 62
    11
 10
-98.5
 20
0.0
 30
0.0
 40
10.0
  0
LINE
  8
NOTE
  6
CONTINUOUS
 62
     4
 10
-98.412773999999899
 20
0.0
 30
0.0
 11
-333.69634198458652
 21
264.8116364789787
 31
0.0
  0
LINE
  8
NOTE
  6
CONTINUOUS
 62
     4
 10
-98.412773999999899
 20
0.0
 30
0.0
 11
-129.72551934757891
 21
22.683422418883421
 31
0.0
  0
LINE
  8
NOTE
  6
CONTINUOUS
 62
     4
 10
-117.40804869402341
 20
35.19929633376114
 30
0.0
 11
-98.412773999999899
 21
0.0
 31
0.0
  0
TEXT
  8
NOTE
  6
CONTINUOUS
 62
     4
 10
-206.58200537300351
 20
275.29493509341341
 30
0.0
 40
64.0
  1
EL
 41
0.9
  0
LINE
  8
NOTE
  6
CONTINUOUS
 62
     4
 10
-250.70103012171691
 20
258.23855294854678
 30
0.0
 11
-18.078977129945539
 21
258.23855294850432
 31
0.0
  0
LINE
  8
NOTE
  6
CONTINUOUS
 62
     4
 10
46.5
 20
138.98768200000009
 30
0.0
 11
-18.078977129945539
 21
258.23855294850432
 31
0.0
  0
LINE
  8
NOTE
  6
CONTINUOUS
 62
     4
 10
46.5
 20
138.98768200000009
 30
0.0
 11
18.426625955887179
 21
165.6316311874501
 31
0.0
  0
LINE
  8
NOTE
  6
CONTINUOUS
 62
     4
 10
39.197437605421328
 20
178.24573170384551
 30
0.0
 11
46.5
 21
138.98768200000009
 31
0.0
  0
CIRCLE
  8
ARRANGE
  6
CONTINUOUS
 62
     1
 10
0.0
 20
0.0
 30
0.0
 40
40.0
  0
POINT
  8
ARRANGE
  6
CONTINUOUS
 62
     1
 10
0.0
 20
0.0
 30
0.0
 50
90.000000000000014
  0
LINE
  8
SIZE
  6
CONTINUOUS
 62
    30
 10
65.0
 20
-26.299110999999929
 30
0.0
 11
65.0
 21
-218.1946618983857
 31
0.0
  0
LINE
  8
SIZE
  6
CONTINUOUS
 62
    30
 10
-65.0
 20
-26.299110999999929
 30
0.0
 11
-65.0
 21
-218.1946618983857
 31
0.0
  0
LINE
  8
SIZE
  6
CONTINUOUS
 62
    30
 10
77.0
 20
-198.1946618983857
 30
0.0
 11
89.0
 21
-198.1946618983857
 31
0.0
  0
LINE
  8
SIZE
  6
CONTINUOUS
 62
    30
 10
-77.0
 20
-198.1946618983857
 30
0.0
 11
-89.0
 21
-198.1946618983857
 31
0.0
  0
LINE
  8
SIZE
  6
CONTINUOUS
 62
    30
 10
65.0
 20
-198.1946618983857
 30
0.0
 11
-65.0
 21
-198.1946618983857
 31
0.0
  0
CIRCLE
  8
SIZE
  6
CONTINUOUS
 62
    30
 10
65.0
 20
-198.1946618983857
 30
0.0
 40
6.0
  0
LINE
  8
SIZE
  6
CONTINUOUS
 62
    30
 10
65.0
 20
-198.1946618983857
 30
0.0
 11
77.0
 21
-198.1946618983857
 31
0.0
  0
CIRCLE
  8
SIZE
  6
CONTINUOUS
 62
    30
 10
-65.0
 20
-198.1946618983857
 30
0.0
 40
6.0
  0
LINE
  8
SIZE
  6
CONTINUOUS
 62
    30
 10
-65.0
 20
-198.1946618983857
 30
0.0
 11
-77.0
 21
-198.1946618983857
 31
0.0
  0
TEXT
  8
SIZE
  6
CONTINUOUS
 62
    30
 10
-68.571428571428569
 20
-173.19466189838579
 30
0.0
 40
64.0
  1
130
 41
0.9
 72
     1
 11
0.0
 21
-173.19466189838579
 31
0.0
  0
POINT
  8
DEFPOINTS
  6
CONTINUOUS
 62
    30
 10
65.0
 20
-6.2991109999999253
 30
0.0
  0
POINT
  8
DEFPOINTS
  6
CONTINUOUS
 62
    30
 10
-65.0
 20
-6.2991109999999253
 30
0.0
  0
POINT
  8
DEFPOINTS
  6
CONTINUOUS
 62
    30
 10
-65.0
 20
-198.1946618983857
 30
0.0
  0
LINE
  8
SIZE
  6
CONTINUOUS
 62
    30
 10
98.5
 20
-26.299110999999929
 30
0.0
 11
98.5
 21
-373.79879955735117
 31
0.0
  0
LINE
  8
SIZE
  6
CONTINUOUS
 62
    30
 10
-98.5
 20
-26.299110999999929
 30
0.0
 11
-98.500000000000057
 21
-373.79879955735117
 31
0.0
  0
LINE
  8
SIZE
  6
CONTINUOUS
 62
    30
 10
86.5
 20
-353.79879955735117
 30
0.0
 11
-86.5
 21
-353.79879955735117
 31
0.0
  0
CIRCLE
  8
SIZE
  6
CONTINUOUS
 62
    30
 10
98.5
 20
-353.79879955735117
 30
0.0
 40
6.0
  0
LINE
  8
SIZE
  6
CONTINUOUS
 62
    30
 10
98.5
 20
-353.79879955735117
 30
0.0
 11
86.5
 21
-353.79879955735117
 31
0.0
  0
CIRCLE
  8
SIZE
  6
CONTINUOUS
 62
    30
 10
-98.5
 20
-353.79879955735117
 30
0.0
 40
6.0
  0
LINE
  8
SIZE
  6
CONTINUOUS
 62
    30
 10
-98.5
 20
-353.79879955735117
 30
0.0
 11
-86.5
 21
-353.79879955735117
 31
0.0
  0
TEXT
  8
SIZE
  6
CONTINUOUS
 62
    30
 10
-68.571428571428569
 20
-328.79879955735129
 30
0.0
 40
64.0
  1
197
 41
0.9
 72
     1
 11
0.0
 21
-328.79879955735129
 31
0.0
  0
POINT
  8
DEFPOINTS
  6
CONTINUOUS
 62
    30
 10
98.5
 20
-6.2991109999999253
 30
0.0
  0
POINT
  8
DEFPOINTS
  6
CONTINUOUS
 62
    30
 10
-98.5
 20
-6.2991109999999253
 30
0.0
  0
POINT
  8
DEFPOINTS
  6
CONTINUOUS
 62
    30
 10
-98.5
 20
-353.79879955735117
 30
0.0
  0
LINE
  8
SIZE
  6
CONTINUOUS
 62
    30
 10
124.9724249999999
 20
-20.526167999999981
 30
0.0
 11
124.9724249999999
 21
-481.4796188480542
 31
0.0
  0
LINE
  8
SIZE
  6
CONTINUOUS
 62
    30
 10
-124.9724245000002
 20
-20.526167999999981
 30
0.0
 11
-124.9724245000002
 21
-481.4796188480542
 31
0.0
  0
LINE
  8
SIZE
  6
CONTINUOUS
 62
    30
 10
136.9724249999999
 20
-461.4796188480542
 30
0.0
 11
148.9724249999999
 21
-461.4796188480542
 31
0.0
  0
LINE
  8
SIZE
  6
CONTINUOUS
 62
    30
 10
-136.97242450000019
 20
-461.4796188480542
 30
0.0
 11
-148.97242450000019
 21
-461.4796188480542
 31
0.0
  0
LINE
  8
SIZE
  6
CONTINUOUS
 62
    30
 10
124.9724249999999
 20
-461.4796188480542
 30
0.0
 11
-124.9724245000002
 21
-461.4796188480542
 31
0.0
  0
CIRCLE
  8
SIZE
  6
CONTINUOUS
 62
    30
 10
124.9724249999999
 20
-461.4796188480542
 30
0.0
 40
6.0
  0
LINE
  8
SIZE
  6
CONTINUOUS
 62
    30
 10
124.9724249999999
 20
-461.4796188480542
 30
0.0
 11
136.9724249999999
 21
-461.4796188480542
 31
0.0
  0
CIRCLE
  8
SIZE
  6
CONTINUOUS
 62
    30
 10
-124.9724245000002
 20
-461.4796188480542
 30
0.0
 40
6.0
  0
LINE
  8
SIZE
  6
CONTINUOUS
 62
    30
 10
-124.9724245000002
 20
-461.4796188480542
 30
0.0
 11
-136.97242450000019
 21
-461.4796188480542
 31
0.0
  0
TEXT
  8
SIZE
  6
CONTINUOUS
 62
    30
 10
-110.537142607143
 20
-436.4796188480542
 30
0.0
 40
64.0
  1
□250
 41
0.9
 72
     1
 11
0.0000002499998573
 21
-436.4796188480542
 31
0.0
  0
POINT
  8
DEFPOINTS
  6
CONTINUOUS
 62
    30
 10
124.9724249999999
 20
-0.5261679999999842
 30
0.0
  0
POINT
  8
DEFPOINTS
  6
CONTINUOUS
 62
    30
 10
-124.9724245000002
 20
-0.5261679999999842
 30
0.0
  0
POINT
  8
DEFPOINTS
  6
CONTINUOUS
 62
    30
 10
-124.9724245000002
 20
-461.4796188480542
 30
0.0
  0
LINE
  8
SIZE
  6
CONTINUOUS
 62
    30
 10
86.989865000000009
 20
20.0
 30
0.0
 11
86.989865000000009
 21
473.22518257001298
 31
0.0
  0
LINE
  8
SIZE
  6
CONTINUOUS
 62
    30
 10
-86.989560999999867
 20
20.0
 30
0.0
 11
-86.989560999999867
 21
473.22518257001298
 31
0.0
  0
LINE
  8
SIZE
  6
CONTINUOUS
 62
    30
 10
74.989865000000009
 20
453.22518257001298
 30
0.0
 11
-74.989560999999867
 21
453.22518257001298
 31
0.0
  0
LINE
  8
SIZE
  6
CONTINUOUS
 62
    30
 10
-86.989560999999867
 20
453.22518257001298
 30
0.0
 11
-354.15527528571403
 21
453.22518257001298
 31
0.0
  0
CIRCLE
  8
SIZE
  6
CONTINUOUS
 62
    30
 10
86.989865000000009
 20
453.22518257001298
 30
0.0
 40
6.0
  0
LINE
  8
SIZE
  6
CONTINUOUS
 62
    30
 10
86.989865000000009
 20
453.22518257001298
 30
0.0
 11
74.989865000000009
 21
453.22518257001298
 31
0.0
  0
CIRCLE
  8
SIZE
  6
CONTINUOUS
 62
    30
 10
-86.989560999999867
 20
453.22518257001298
 30
0.0
 40
6.0
  0
LINE
  8
SIZE
  6
CONTINUOUS
 62
    30
 10
-86.989560999999867
 20
453.22518257001298
 30
0.0
 11
-74.989560999999867
 21
453.22518257001298
 31
0.0
  0
TEXT
  8
SIZE
  6
CONTINUOUS
 62
    30
 10
-332.99527528571417
 20
478.22518257001298
 30
0.0
 40
64.0
  1
□174
 41
0.9
 72
     1
 11
-226.572418142857
 21
478.22518257001298
 31
0.0
  0
POINT
  8
DEFPOINTS
  6
CONTINUOUS
 62
    30
 10
86.989865000000009
 20
0.0
 30
0.0
  0
POINT
  8
DEFPOINTS
  6
CONTINUOUS
 62
    30
 10
-86.989560999999867
 20
0.0
 30
0.0
  0
POINT
  8
DEFPOINTS
  6
CONTINUOUS
 62
    30
 10
-86.989560999999867
 20
453.22518257001298
 30
0.0
  0
LINE
  8
SIZE
  6
CONTINUOUS
 62
    30
 10
86.989865000000009
 20
20.0
 30
0.0
 11
86.989865000000009
 21
473.22518257001298
 31
0.0
  0
LINE
  8
SIZE
  6
CONTINUOUS
 62
    30
 10
195.98986449999981
 20
170.403944
 30
0.0
 11
195.9898645000001
 21
473.22518257001298
 31
0.0
  0
LINE
  8
SIZE
  6
CONTINUOUS
 62
    30
 10
98.989865000000009
 20
453.22518257001298
 30
0.0
 11
183.9898645000001
 21
453.22518257001298
 31
0.0
  0
LINE
  8
SIZE
  6
CONTINUOUS
 62
    30
 10
195.9898645000001
 20
453.22518257001298
 30
0.0
 11
421.90611866548369
 21
453.22518257001298
 31
0.0
  0
CIRCLE
  8
SIZE
  6
CONTINUOUS
 62
    30
 10
86.989865000000009
 20
453.22518257001298
 30
0.0
 40
6.0
  0
LINE
  8
SIZE
  6
CONTINUOUS
 62
    30
 10
86.989865000000009
 20
453.22518257001298
 30
0.0
 11
98.989865000000009
 21
453.22518257001298
 31
0.0
  0
CIRCLE
  8
SIZE
  6
CONTINUOUS
 62
    30
 10
195.9898645000001
 20
453.22518257001298
 30
0.0
 40
6.0
  0
LINE
  8
SIZE
  6
CONTINUOUS
 62
    30
 10
195.9898645000001
 20
453.22518257001298
 30
0.0
 11
183.9898645000001
 21
453.22518257001298
 31
0.0
  0
TEXT
  8
SIZE
  6
CONTINUOUS
 62
    30
 10
262.50611866548371
 20
478.22518257001298
 30
0.0
 40
64.0
  1
109
 41
0.9
 72
     1
 11
329.7061186654837
 21
478.22518257001298
 31
0.0
  0
POINT
  8
DEFPOINTS
  6
CONTINUOUS
 62
    30
 10
86.989865000000009
 20
0.0
 30
0.0
  0
POINT
  8
DEFPOINTS
  6
CONTINUOUS
 62
    30
 10
195.98986449999981
 20
150.403944
 30
0.0
  0
POINT
  8
DEFPOINTS
  6
CONTINUOUS
 62
    30
 10
195.9898645000001
 20
453.22518257001298
 30
0.0
  0
LINE
  8
SIZE
  6
CONTINUOUS
 62
    30
 10
126.98986499999999
 20
174.81448399999999
 30
0.0
 11
126.98986499999999
 21
361.82502505777637
 31
0.0
  0
LINE
  8
SIZE
  6
CONTINUOUS
 62
    30
 10
195.98986500000001
 20
170.403944
 30
0.0
 11
195.98986500000001
 21
361.82502505777637
 31
0.0
  0
LINE
  8
SIZE
  6
CONTINUOUS
 62
    30
 10
114.98986499999999
 20
341.82502505777637
 30
0.0
 11
102.98986499999999
 21
341.82502505777637
 31
0.0
  0
LINE
  8
SIZE
  6
CONTINUOUS
 62
    30
 10
207.98986500000001
 20
341.82502505777637
 30
0.0
 11
360.50415071428569
 21
341.82502505777637
 31
0.0
  0
LINE
  8
SIZE
  6
CONTINUOUS
 62
    30
 10
126.98986499999999
 20
341.82502505777637
 30
0.0
 11
195.98986500000001
 21
341.82502505777637
 31
0.0
  0
CIRCLE
  8
SIZE
  6
CONTINUOUS
 62
    30
 10
126.98986499999999
 20
341.82502505777637
 30
0.0
 40
6.0
  0
LINE
  8
SIZE
  6
CONTINUOUS
 62
    30
 10
126.98986499999999
 20
341.82502505777637
 30
0.0
 11
114.98986499999999
 21
341.82502505777637
 31
0.0
  0
CIRCLE
  8
SIZE
  6
CONTINUOUS
 62
    30
 10
195.98986500000001
 20
341.82502505777637
 30
0.0
 40
6.0
  0
LINE
  8
SIZE
  6
CONTINUOUS
 62
    30
 10
195.98986500000001
 20
341.82502505777637
 30
0.0
 11
207.98986500000001
 21
341.82502505777637
 31
0.0
  0
TEXT
  8
SIZE
  6
CONTINUOUS
 62
    30
 10
244.98986500000001
 20
366.82502505777637
 30
0.0
 40
64.0
  1
69
 41
0.9
 72
     1
 11
290.24700785714288
 21
366.82502505777637
 31
0.0
  0
POINT
  8
DEFPOINTS
  6
CONTINUOUS
 62
    30
 10
126.98986499999999
 20
154.81448399999999
 30
0.0
  0
POINT
  8
DEFPOINTS
  6
CONTINUOUS
 62
    30
 10
195.98986500000001
 20
150.403944
 30
0.0
  0
POINT
  8
DEFPOINTS
  6
CONTINUOUS
 62
    30
 10
195.98986500000001
 20
341.82502505777637
 30
0.0
  0
LINE
  8
SIZE
  6
CONTINUOUS
 62
    30
 10
153.8898650000001
 20
171.29679400000001
 30
0.0
 11
153.8898650000001
 21
252.8100005080959
 31
0.0
  0
LINE
  8
SIZE
  6
CONTINUOUS
 62
    30
 10
195.98986449999981
 20
170.403944
 30
0.0
 11
195.98986449999981
 21
252.8100005080959
 31
0.0
  0
LINE
  8
SIZE
  6
CONTINUOUS
 62
    30
 10
141.8898650000001
 20
232.8100005080959
 30
0.0
 11
129.8898650000001
 21
232.8100005080959
 31
0.0
  0
LINE
  8
SIZE
  6
CONTINUOUS
 62
    30
 10
207.98986449999981
 20
232.8100005080959
 30
0.0
 11
365.60527171397638
 21
232.8100005080959
 31
0.0
  0
LINE
  8
SIZE
  6
CONTINUOUS
 62
    30
 10
153.8898650000001
 20
232.8100005080959
 30
0.0
 11
195.98986449999981
 21
232.8100005080959
 31
0.0
  0
CIRCLE
  8
SIZE
  6
CONTINUOUS
 62
    30
 10
153.8898650000001
 20
232.8100005080959
 30
0.0
 40
6.0
  0
LINE
  8
SIZE
  6
CONTINUOUS
 62
    30
 10
153.8898650000001
 20
232.8100005080959
 30
0.0
 11
141.8898650000001
 21
232.8100005080959
 31
0.0
  0
CIRCLE
  8
SIZE
  6
CONTINUOUS
 62
    30
 10
195.98986449999981
 20
232.8100005080959
 30
0.0
 40
6.0
  0
LINE
  8
SIZE
  6
CONTINUOUS
 62
    30
 10
195.98986449999981
 20
232.8100005080959
 30
0.0
 11
207.98986449999981
 21
232.8100005080959
 31
0.0
  0
TEXT
  8
SIZE
  6
CONTINUOUS
 62
    30
 10
247.3481288568336
 20
257.81000050809592
 30
0.0
 40
64.0
  1
42
 41
0.9
 72
     1
 11
293.97670028540512
 21
257.81000050809592
 31
0.0
  0
POINT
  8
DEFPOINTS
  6
CONTINUOUS
 62
    30
 10
153.8898650000001
 20
151.29679400000001
 30
0.0
  0
POINT
  8
DEFPOINTS
  6
CONTINUOUS
 62
    30
 10
195.98986449999981
 20
150.403944
 30
0.0
  0
POINT
  8
DEFPOINTS
  6
CONTINUOUS
 62
    30
 10
195.98986449999981
 20
232.8100005080959
 30
0.0
  0
LINE
  8
SIZE
  6
CONTINUOUS
 62
    30
 10
215.49422749999999
 20
150.90392499999999
 30
0.0
 11
490.57730054201602
 21
150.90392499999979
 31
0.0
  0
LINE
  8
SIZE
  6
CONTINUOUS
 62
    30
 10
215.49422749999999
 20
53.095274000000018
 30
0.0
 11
490.57730054201602
 21
53.095273999999897
 31
0.0
  0
LINE
  8
SIZE
  6
CONTINUOUS
 62
    30
 10
470.57730054201602
 20
138.90392499999979
 30
0.0
 11
470.57730054201602
 21
65.095273999999904
 31
0.0
  0
LINE
  8
SIZE
  6
CONTINUOUS
 62
    30
 10
470.57730054201602
 20
53.095273999999897
 30
0.0
 11
470.57730054201602
 21
-162.50472600000009
 31
0.0
  0
CIRCLE
  8
SIZE
  6
CONTINUOUS
 62
    30
 10
470.57730054201602
 20
150.90392499999979
 30
0.0
 40
6.0
  0
LINE
  8
SIZE
  6
CONTINUOUS
 62
    30
 10
470.57730054201602
 20
150.90392499999979
 30
0.0
 11
470.57730054201602
 21
138.90392499999979
 31
0.0
  0
CIRCLE
  8
SIZE
  6
CONTINUOUS
 62
    30
 10
470.57730054201602
 20
53.095273999999897
 30
0.0
 40
6.0
  0
LINE
  8
SIZE
  6
CONTINUOUS
 62
    30
 10
470.57730054201602
 20
53.095273999999897
 30
0.0
 11
470.57730054201602
 21
65.095273999999904
 31
0.0
  0
TEXT
  8
SIZE
  6
CONTINUOUS
 62
    30
 10
434.91063387534928
 20
-147.65329742857139
 30
0.0
 40
64.0
  1
φ98
 50
90.0
 41
0.9
 72
     1
 11
434.91063387534928
 21
-60.704725999999987
 31
0.0
  0
POINT
  8
DEFPOINTS
  6
CONTINUOUS
 62
    30
 10
195.49422749999999
 20
150.90392499999999
 30
0.0
  0
POINT
  8
DEFPOINTS
  6
CONTINUOUS
 62
    30
 10
195.49422749999999
 20
53.095274000000018
 30
0.0
  0
POINT
  8
DEFPOINTS
  6
CONTINUOUS
 62
    30
 10
470.57730054201602
 20
53.095273999999897
 30
0.0
  0
LINE
  8
SIZE
  6
CONTINUOUS
 62
    30
 10
165.00837300000009
 20
154.47130867435399
 30
0.0
 11
639.13818752892257
 21
154.47130867435379
 31
0.0
  0
LINE
  8
SIZE
  6
CONTINUOUS
 62
    30
 10
165.00330455098401
 20
49.526944184872043
 30
0.0
 11
639.13818752892257
 21
49.526944184871923
 31
0.0
  0
LINE
  8
SIZE
  6
CONTINUOUS
 62
    30
 10
619.13818752892257
 20
142.47130867435379
 30
0.0
 11
619.13818752892257
 21
61.526944184871923
 31
0.0
  0
LINE
  8
SIZE
  6
CONTINUOUS
 62
    30
 10
619.13818752892257
 20
49.526944184871923
 30
0.0
 11
619.13818752892257
 21
-209.9587701008424
 31
0.0
  0
CIRCLE
  8
SIZE
  6
CONTINUOUS
 62
    30
 10
619.13818752892257
 20
154.47130867435379
 30
0.0
 40
6.0
  0
LINE
  8
SIZE
  6
CONTINUOUS
 62
    30
 10
619.13818752892257
 20
154.47130867435379
 30
0.0
 11
619.13818752892257
 21
142.47130867435379
 31
0.0
  0
CIRCLE
  8
SIZE
  6
CONTINUOUS
 62
    30
 10
619.13818752892257
 20
49.526944184871923
 30
0.0
 40
6.0
  0
LINE
  8
SIZE
  6
CONTINUOUS
 62
    30
 10
619.13818752892257
 20
49.526944184871923
 30
0.0
 11
619.13818752892257
 21
61.526944184871923
 31
0.0
  0
TEXT
  8
SIZE
  6
CONTINUOUS
 62
    30
 10
583.47152086225606
 20
-195.1073415294137
 30
0.0
 40
64.0
  1
φ105
 50
90.0
 41
0.9
 72
     1
 11
583.47152086225606
 21
-86.215912957985154
 31
0.0
  0
POINT
  8
DEFPOINTS
  6
CONTINUOUS
 62
    30
 10
145.00837300000009
 20
154.47130867435399
 30
0.0
  0
POINT
  8
DEFPOINTS
  6
CONTINUOUS
 62
    30
 10
145.00330455098401
 20
49.526944184872043
 30
0.0
  0
POINT
  8
DEFPOINTS
  6
CONTINUOUS
 62
    30
 10
619.13818752892257
 20
49.526944184871923
 30
0.0
  0
LINE
  8
SIZE
  6
CONTINUOUS
 62
    30
 10
-72.849139500000092
 20
183.97792000000001
 30
0.0
 11
-336.02073654796641
 21
183.97792000000021
 31
0.0
  0
LINE
  8
SIZE
  6
CONTINUOUS
 62
    30
 10
-144.47310899999999
 20
0.0
 30
0.0
 11
-336.02073654796641
 21
0.0000000000000568
 31
0.0
  0
LINE
  8
SIZE
  6
CONTINUOUS
 62
    30
 10
-316.02073654796641
 20
195.97792000000001
 30
0.0
 11
-316.02073654796641
 21
207.97792000000001
 31
0.0
  0
LINE
  8
SIZE
  6
CONTINUOUS
 62
    30
 10
-316.02073654796641
 20
-11.99999999999994
 30
0.0
 11
-316.02073654796641
 21
-23.99999999999994
 31
0.0
  0
LINE
  8
SIZE
  6
CONTINUOUS
 62
    30
 10
-316.02073654796641
 20
183.97792000000001
 30
0.0
 11
-316.02073654796641
 21
0.0000000000000568
 31
0.0
  0
CIRCLE
  8
SIZE
  6
CONTINUOUS
 62
    30
 10
-316.02073654796641
 20
183.97792000000001
 30
0.0
 40
6.0
  0
LINE
  8
SIZE
  6
CONTINUOUS
 62
    30
 10
-316.02073654796641
 20
183.97792000000001
 30
0.0
 11
-316.02073654796641
 21
195.97792000000001
 31
0.0
  0
CIRCLE
  8
SIZE
  6
CONTINUOUS
 62
    30
 10
-316.02073654796641
 20
0.0000000000000568
 30
0.0
 40
6.0
  0
LINE
  8
SIZE
  6
CONTINUOUS
 62
    30
 10
-316.02073654796641
 20
0.0000000000000568
 30
0.0
 11
-316.02073654796641
 21
-11.99999999999994
 31
0.0
  0
TEXT
  8
SIZE
  6
CONTINUOUS
 62
    30
 10
-341.02073654796641
 20
22.046102857142898
 30
0.0
 40
64.0
  1
184
 50
90.0
 41
0.9
 72
     1
 11
-341.02073654796641
 21
91.98896000000002
 31
0.0
  0
POINT
  8
DEFPOINTS
  6
CONTINUOUS
 62
    30
 10
-52.849139500000092
 20
183.97792000000001
 30
0.0
  0
POINT
  8
DEFPOINTS
  6
CONTINUOUS
 62
    30
 10
-124.47310899999999
 20
0.0
 30
0.0
  0
POINT
  8
DEFPOINTS
  6
CONTINUOUS
 62
    30
 10
-316.02073654796641
 20
0.0000000000000568
 30
0.0
  0
LINE
  8
SIZE
  6
CONTINUOUS
 62
    30
 10
-143.6305250502601
 20
0.0
 30
0.0
 11
-336.02073654796641
 21
0.0000000000000568
 31
0.0
  0
LINE
  8
SIZE
  6
CONTINUOUS
 62
    30
 10
-137.80668900000001
 20
-15.0
 30
0.0
 11
-336.02073654796641
 21
-14.99999999999994
 31
0.0
  0
LINE
  8
SIZE
  6
CONTINUOUS
 62
    30
 10
-316.02073654796641
 20
12.00000000000006
 30
0.0
 11
-316.02073654796641
 21
24.00000000000006
 31
0.0
  0
LINE
  8
SIZE
  6
CONTINUOUS
 62
    30
 10
-316.02073654796641
 20
-26.99999999999994
 30
0.0
 11
-316.02073654796652
 21
-171.28571428571419
 31
0.0
  0
LINE
  8
SIZE
  6
CONTINUOUS
 62
    30
 10
-316.02073654796641
 20
0.0000000000000568
 30
0.0
 11
-316.02073654796641
 21
-14.99999999999994
 31
0.0
  0
CIRCLE
  8
SIZE
  6
CONTINUOUS
 62
    30
 10
-316.02073654796641
 20
0.0000000000000568
 30
0.0
 40
6.0
  0
LINE
  8
SIZE
  6
CONTINUOUS
 62
    30
 10
-316.02073654796641
 20
0.0000000000000568
 30
0.0
 11
-316.02073654796641
 21
12.00000000000006
 31
0.0
  0
CIRCLE
  8
SIZE
  6
CONTINUOUS
 62
    30
 10
-316.02073654796641
 20
-14.99999999999994
 30
0.0
 40
6.0
  0
LINE
  8
SIZE
  6
CONTINUOUS
 62
    30
 10
-316.02073654796641
 20
-14.99999999999994
 30
0.0
 11
-316.02073654796641
 21
-26.99999999999994
 31
0.0
  0
TEXT
  8
SIZE
  6
CONTINUOUS
 62
    30
 10
-341.02073654796641
 20
-146.28571428571419
 30
0.0
 40
64.0
  1
15
 50
90.0
 41
0.9
 72
     1
 11
-341.02073654796641
 21
-105.1428571428571
 31
0.0
  0
POINT
  8
DEFPOINTS
  6
CONTINUOUS
 62
    30
 10
-123.6305250502601
 20
0.0
 30
0.0
  0
POINT
  8
DEFPOINTS
  6
CONTINUOUS
 62
    30
 10
-117.80668900000001
 20
-15.0
 30
0.0
  0
POINT
  8
DEFPOINTS
  6
CONTINUOUS
 62
    30
 10
-316.02073654796641
 20
-14.99999999999994
 30
0.0
  0
LINE
  8
SIZE
  6
CONTINUOUS
 62
    30
 10
260.37645800000018
 20
102.0
 30
0.0
 11
358.16231846984653
 21
102.0
 31
0.0
  0
LINE
  8
SIZE
  6
CONTINUOUS
 62
    30
 10
144.47310949999971
 20
0.0
 30
0.0
 11
358.16231846984653
 21
-0.0000000000000568
 31
0.0
  0
LINE
  8
SIZE
  6
CONTINUOUS
 62
    30
 10
338.16231846984653
 20
90.0
 30
0.0
 11
338.16231846984653
 21
11.99999999999994
 31
0.0
  0
LINE
  8
SIZE
  6
CONTINUOUS
 62
    30
 10
338.16231846984653
 20
-0.0000000000000568
 30
0.0
 11
338.16231846984641
 21
-199.1428571428572
 31
0.0
  0
CIRCLE
  8
SIZE
  6
CONTINUOUS
 62
    30
 10
338.16231846984653
 20
102.0
 30
0.0
 40
6.0
  0
LINE
  8
SIZE
  6
CONTINUOUS
 62
    30
 10
338.16231846984653
 20
102.0
 30
0.0
 11
338.16231846984653
 21
90.0
 31
0.0
  0
CIRCLE
  8
SIZE
  6
CONTINUOUS
 62
    30
 10
338.16231846984653
 20
-0.0000000000000568
 30
0.0
 40
6.0
  0
LINE
  8
SIZE
  6
CONTINUOUS
 62
    30
 10
338.16231846984653
 20
-0.0000000000000568
 30
0.0
 11
338.16231846984653
 21
11.99999999999994
 31
0.0
  0
TEXT
  8
SIZE
  6
CONTINUOUS
 62
    30
 10
313.16231846984653
 20
-174.14285714285711
 30
0.0
 40
64.0
  1
102
 50
90.0
 41
0.9
 72
     1
 11
313.16231846984653
 21
-105.5714285714286
 31
0.0
  0
POINT
  8
DEFPOINTS
  6
CONTINUOUS
 62
    30
 10
240.37645800000021
 20
102.0
 30
0.0
  0
POINT
  8
DEFPOINTS
  6
CONTINUOUS
 62
    30
 10
124.47310949999969
 20
0.0
 30
0.0
  0
POINT
  8
DEFPOINTS
  6
CONTINUOUS
 62
    30
 10
338.16231846984653
 20
-0.0000000000000568
 30
0.0
  0
LINE
  8
SIZE
  6
CONTINUOUS
 62
    30
 10
106.1975485008111
 20
45.387080953522627
 30
0.0
 11
244.6573544486555
 21
45.387080953522627
 31
0.0
  0
LINE
  8
SIZE
  6
CONTINUOUS
 62
    30
 10
144.47310949999971
 20
0.0
 30
0.0
 11
244.6573544486555
 21
-0.0000000000000568
 31
0.0
  0
LINE
  8
SIZE
  6
CONTINUOUS
 62
    30
 10
224.6573544486555
 20
57.387080953522627
 30
0.0
 11
224.6573544486555
 21
69.387080953522627
 31
0.0
  0
LINE
  8
SIZE
  6
CONTINUOUS
 62
    30
 10
224.6573544486555
 20
-12.0
 30
0.0
 11
224.6573544486555
 21
-167.2571428571429
 31
0.0
  0
LINE
  8
SIZE
  6
CONTINUOUS
 62
    30
 10
224.6573544486555
 20
45.387080953522627
 30
0.0
 11
224.6573544486555
 21
0.0
 31
0.0
  0
CIRCLE
  8
SIZE
  6
CONTINUOUS
 62
    30
 10
224.6573544486555
 20
45.387080953522627
 30
0.0
 40
6.0
  0
LINE
  8
SIZE
  6
CONTINUOUS
 62
    30
 10
224.6573544486555
 20
45.387080953522627
 30
0.0
 11
224.6573544486555
 21
57.387080953522627
 31
0.0
  0
CIRCLE
  8
SIZE
  6
CONTINUOUS
 62
    30
 10
224.6573544486555
 20
0.0
 30
0.0
 40
6.0
  0
LINE
  8
SIZE
  6
CONTINUOUS
 62
    30
 10
224.6573544486555
 20
0.0
 30
0.0
 11
224.6573544486555
 21
-12.0
 31
0.0
  0
TEXT
  8
SIZE
  6
CONTINUOUS
 62
    30
 10
199.6573544486555
 20
-142.2571428571429
 30
0.0
 40
64.0
  1
45
 50
90.0
 41
0.9
 72
     1
 11
199.6573544486555
 21
-95.628571428571433
 31
0.0
  0
POINT
  8
DEFPOINTS
  6
CONTINUOUS
 62
    30
 10
86.197548500811081
 20
45.387080953522627
 30
0.0
  0
POINT
  8
DEFPOINTS
  6
CONTINUOUS
 62
    30
 10
124.47310949999969
 20
0.0
 30
0.0
  0
POINT
  8
DEFPOINTS
  6
CONTINUOUS
 62
    30
 10
224.6573544486555
 20
0.0
 30
0.0
  0
TEXT
  8
NOTE
  6
CONTINUOUS
 62
     4
 10
217.39012014522859
 20
75.630963692714317
 30
0.0
 40
64.0
  1
EA
 41
0.9
 72
     2
 11
313.39012014522859
 21
75.630963692714317
 31
0.0
  0
LINE
  8
OUTLINE
  6
CONTINUOUS
 62
     3
 10
-36.445627000000059
 20
162.0
 30
0.0
 11
-36.445627500000228
 21
138.98768200000009
 31
0.0
  0
LINE
  8
OUTLINE
  6
CONTINUOUS
 62
     3
 10
26.446824499999821
 20
162.00234520795561
 30
0.0
 11
26.446824499999821
 21
138.98768200000009
 31
0.0
  0
LINE
  8
DETAIL
  6
CONTINUOUS
 62
     5
 10
26.446824499999821
 20
162.00234520795721
 30
0.0
 11
26.44682499999999
 21
138.98768200000009
 31
0.0
  0
LINE
  8
DETAIL
  6
CONTINUOUS
 62
     5
 10
-36.445627000000059
 20
162.0
 30
0.0
 11
-36.445627000000059
 21
138.98768200000009
 31
0.0
  0
ARC
  8
DETAIL
  6
CONTINUOUS
 62
     5
 10
-30.945627000000059
 20
162.0
 30
0.0
 40
5.5
 50
90.0
 51
180.0
  0
LINE
  8
DETAIL
  6
CONTINUOUS
 62
     5
 10
20.94682499999999
 20
167.5
 30
0.0
 11
-30.945627000000059
 21
167.5
 31
0.0
  0
ARC
  8
DETAIL
  6
CONTINUOUS
 62
     5
 10
20.94682499999999
 20
162.0
 30
0.0
 40
5.5
 50
0.0
 51
90.0
  0
ARC
  8
OUTLINE
  6
CONTINUOUS
 62
     3
 10
-30.945627000000059
 20
162.0
 30
0.0
 40
5.5
 50
90.0
 51
180.0
  0
LINE
  8
OUTLINE
  6
CONTINUOUS
 62
     3
 10
20.94682499999999
 20
167.5
 30
0.0
 11
-30.945627000000059
 21
167.5
 31
0.0
  0
ARC
  8
OUTLINE
  6
CONTINUOUS
 62
     3
 10
20.94682499999999
 20
162.0
 30
0.0
 40
5.5
 50
0.0
 51
90.0
  0
TEXT
  8
NOTE
  6
CONTINUOUS
 62
     4
 10
-565.06149955538683
 20
296.42684748867282
 30
0.0
 40
63.999999999999993
  1
8-φ5
 50
359.85073780173718
 41
0.9
  0
LINE
  8
NOTE
  6
CONTINUOUS
 62
     4
 10
-333.69634198458652
 20
264.8116364789787
 30
0.0
 11
-593.48721257369618
 21
264.81167097776643
 31
0.0
  0
ENDSEC
  0
EOF
