  0
SECTION
  2
HEADER
  9
$ACADVER
  1
AC1009
  9
$DWGCODEPAGE
  3
dos932
  9
$INSBASE
 10
0.0
 20
0.0
 30
0.0
  9
$EXTMIN
 10
-378.86350854400553
 20
-501.15965632856751
 30
-0.0015258207003583
  9
$EXTMAX
 10
1015.1367303043789
 20
426.8188554872977
 30
0.0000000349246037
  9
$LIMMIN
 10
-2970.0
 20
-2100.0
  9
$LIMMAX
 10
2970.0
 20
2100.0
  9
$ORTHOMODE
 70
     1
  9
$REGENMODE
 70
     1
  9
$FILLMODE
 70
     1
  9
$QTEXTMODE
 70
     0
  9
$MIRRTEXT
 70
     0
  9
$LTSCALE
 40
20.0
  9
$ATTMODE
 70
     1
  9
$TEXTSIZE
 40
64.0
  9
$TRACEWID
 40
0.05
  9
$TEXTSTYLE
  7
STANDARD
  9
$CLAYER
  8
SIZE
  9
$CELTYPE
  6
CONTINUOUS
  9
$CECOLOR
 62
     7
  9
$DIMSCALE
 40
1.0
  9
$DIMASZ
 40
12.0
  9
$DIMEXO
 40
20.0
  9
$DIMDLI
 40
200.0
  9
$DIMRND
 40
0.0
  9
$DIMDLE
 40
0.0
  9
$DIMEXE
 40
20.0
  9
$DIMTP
 40
0.0
  9
$DIMTM
 40
0.0
  9
$DIMTXT
 40
64.0
  9
$DIMCEN
 40
0.09
  9
$DIMTSZ
 40
0.0
  9
$DIMTOL
 70
     0
  9
$DIMLIM
 70
     0
  9
$DIMTIH
 70
     0
  9
$DIMTOH
 70
     0
  9
$DIMSE1
 70
     0
  9
$DIMSE2
 70
     0
  9
$DIMTAD
 70
     1
  9
$DIMZIN
 70
     8
  9
$DIMBLK
  1

  9
$DIMASO
 70
     1
  9
$DIMSHO
 70
     0
  9
$DIMPOST
  1

  9
$DIMAPOST
  1

  9
$DIMALT
 70
     0
  9
$DIMALTD
 70
     2
  9
$DIMALTF
 40
25.399999999999999
  9
$DIMLFAC
 40
1.0
  9
$DIMTOFL
 70
     1
  9
$DIMTVP
 40
0.0
  9
$DIMTIX
 70
     1
  9
$DIMSOXD
 70
     0
  9
$DIMSAH
 70
     0
  9
$DIMBLK1
  1

  9
$DIMBLK2
  1

  9
$DIMSTYLE
  2
STANDARD
  9
$DIMCLRD
 70
     7
  9
$DIMCLRE
 70
     7
  9
$DIMCLRT
 70
     7
  9
$DIMTFAC
 40
1.0
  9
$DIMGAP
 40
25.0
  9
$LUNITS
 70
     2
  9
$LUPREC
 70
     4
  9
$SKETCHINC
 40
0.1
  9
$FILLETRAD
 40
3.0
  9
$AUNITS
 70
     1
  9
$AUPREC
 70
     3
  9
$MENU
  1
ACAD
  9
$ELEVATION
 40
0.0
  9
$PELEVATION
 40
0.0
  9
$THICKNESS
 40
0.0
  9
$LIMCHECK
 70
     0
  9
$CHAMFERA
 40
0.0
  9
$CHAMFERB
 40
0.0
  9
$SKPOLY
 70
     0
  9
$TDCREATE
 40
2453019.62301037
  9
$TDUPDATE
 40
2459025.488456713
  9
$TDINDWG
 40
1.7135460764
  9
$TDUSRTIMER
 40
1.7135460764
  9
$USRTIMER
 70
     1
  9
$ANGBASE
 50
0.0
  9
$ANGDIR
 70
     0
  9
$PDMODE
 70
     3
  9
$PDSIZE
 40
-2.0
  9
$PLINEWID
 40
0.0
  9
$SPLFRAME
 70
     0
  9
$SPLINETYPE
 70
     6
  9
$SPLINESEGS
 70
     8
  9
$SURFTAB1
 70
     6
  9
$SURFTAB2
 70
     6
  9
$SURFTYPE
 70
     6
  9
$SURFU
 70
     6
  9
$SURFV
 70
     6
  9
$UCSNAME
  2

  9
$UCSORG
 10
0.0
 20
0.0
 30
0.0
  9
$UCSXDIR
 10
1.0
 20
0.0
 30
0.0
  9
$UCSYDIR
 10
0.0
 20
1.0
 30
0.0
  9
$PUCSNAME
  2

  9
$PUCSORG
 10
0.0
 20
0.0
 30
0.0
  9
$PUCSXDIR
 10
1.0
 20
0.0
 30
0.0
  9
$PUCSYDIR
 10
0.0
 20
1.0
 30
0.0
  9
$USERI1
 70
     0
  9
$USERI2
 70
     0
  9
$USERI3
 70
     0
  9
$USERI4
 70
     0
  9
$USERI5
 70
     0
  9
$USERR1
 40
20.0
  9
$USERR2
 40
0.0
  9
$USERR3
 40
0.0
  9
$USERR4
 40
0.0
  9
$USERR5
 40
0.0
  9
$WORLDVIEW
 70
     1
  9
$SHADEDGE
 70
     3
  9
$SHADEDIF
 70
    70
  9
$TILEMODE
 70
     1
  9
$MAXACTVP
 70
    48
  9
$PINSBASE
 10
0.0
 20
0.0
 30
0.0
  9
$PLIMCHECK
 70
     0
  9
$PEXTMIN
 10
-100000000000000000000.0
 20
-100000000000000000000.0
 30
-100000000000000000000.0
  9
$PEXTMAX
 10
100000000000000000000.0
 20
100000000000000000000.0
 30
100000000000000000000.0
  9
$PLIMMIN
 10
0.0
 20
0.0
  9
$PLIMMAX
 10
12.0
 20
9.0
  9
$UNITMODE
 70
     0
  9
$VISRETAIN
 70
     0
  9
$PLINEGEN
 70
     0
  9
$PSLTSCALE
 70
     0
  9
$TREEDEPTH
 70
  3020
  9
$ATTDIA
 70
     0
  9
$ATTREQ
 70
     1
  9
$BLIPMODE
 70
     1
  9
$COORDS
 70
     1
  9
$DRAGMODE
 70
     2
  9
$OSMODE
 70
     0
  9
$HANDLING
 70
     0
  9
$HANDSEED
  5
1087E
  0
ENDSEC
  0
SECTION
  2
TABLES
  0
TABLE
  2
LTYPE
 70
     2
  0
LTYPE
  2
CONTINUOUS
 70
     0
  3
実線
 72
    65
 73
     0
 40
0.0
  0
LTYPE
  2
DASHDOT
 70
     0
  3
____ _ ____ _ ____ _ ____ _ ____ _ ____ _ ____
 72
    65
 73
     4
 40
5.5
 49
4.0
 49
-0.6
 49
0.3
 49
-0.6
  0
ENDTAB
  0
TABLE
  2
LAYER
 70
    12
  0
LAYER
  2
0
 70
     0
 62
     7
  6
CONTINUOUS
  0
LAYER
  2
BASIS
 70
     0
 62
     6
  6
DASHDOT
  0
LAYER
  2
OUTLINE
 70
     0
 62
     3
  6
CONTINUOUS
  0
LAYER
  2
DETAIL
 70
     0
 62
     5
  6
CONTINUOUS
  0
LAYER
  2
SIZE
 70
     0
 62
    30
  6
CONTINUOUS
  0
LAYER
  2
ARRANGE
 70
     0
 62
     1
  6
CONTINUOUS
  0
LAYER
  2
DEFPOINTS
 70
     0
 62
     7
  6
CONTINUOUS
  0
LAYER
  2
ETC
 70
     0
 62
    61
  6
CONTINUOUS
  0
LAYER
  2
NOTE
 70
     0
 62
     4
  6
CONTINUOUS
  0
LAYER
  2
FIX
 70
    64
 62
    11
  6
CONTINUOUS
  0
LAYER
  2
SERVICESPACE
 70
    64
 62
     2
  6
DASHDOT
  0
LAYER
  2
SYMBOLLINE
 70
    64
 62
    15
  6
CONTINUOUS
  0
ENDTAB
  0
TABLE
  2
STYLE
 70
     1
  0
STYLE
  2
STANDARD
 70
     0
 40
64.0
 41
0.9
 50
0.0
 71
     0
 42
64.0
  3
SIMPLEX.shx
  4
BIGFONT.shx
  0
ENDTAB
  0
TABLE
  2
APPID
 70
    19
  0
APPID
  2
ACAD
 70
     0
  0
APPID
  2
AUTOCAD_POSTSCRIPT_FIGURE
 70
     0
  0
APPID
  2
ACAD_EXEMPT_FROM_CAD_STANDARDS
 70
     0
  0
APPID
  2
ACAD_PSEXT
 70
     0
  0
APPID
  2
ACAUTHENVIRON
 70
     0
  0
APPID
  2
GENIUS_GENOENT_13
 70
     0
  0
APPID
  2
GENIUS_GENCFG_13
 70
     0
  0
APPID
  2
GENIUS_GENCFG0_13
 70
     0
  0
APPID
  2
GENIUS_GENCFG1_13
 70
     0
  0
APPID
  2
GENIUS_GENCFG2_13
 70
     0
  0
APPID
  2
GENIUS_GENCFG3_13
 70
     0
  0
APPID
  2
GENIUS_GENCFG4_13
 70
     0
  0
APPID
  2
GENIUS_GEVCFG0_13
 70
     0
  0
APPID
  2
CONTENTBLOCKICON
 70
     0
  0
APPID
  2
CONTENTBLOCKDESCRIPTION
 70
     0
  0
APPID
  2
ACAD_NAV_VCDISPLAY
 70
     0
  0
APPID
  2
ACAD_MLEADERVER
 70
     0
  0
APPID
  2
ACDBDYNAMICBLOCKTRUENAME
 70
     0
  0
APPID
  2
ACDBDYNAMICBLOCKGUID
 70
     0
  0
ENDTAB
  0
TABLE
  2
DIMSTYLE
 70
     1
  0
DIMSTYLE
  2
STANDARD
 70
     0
  3

  4

  5
_ORIGIN
  6

  7

 40
1.0
 41
12.0
 42
20.0
 43
200.0
 44
20.0
 45
0.0
 46
0.0
 47
0.0
 48
0.0
140
64.0
141
0.09
142
0.0
143
25.399999999999999
144
1.0
145
0.0
146
1.0
147
25.0
 71
     0
 72
     0
 73
     0
 74
     0
 75
     0
 76
     0
 77
     1
 78
     8
170
     0
171
     2
172
     1
173
     0
174
     1
175
     0
176
     7
177
     7
178
     7
  0
ENDTAB
  0
TABLE
  2
VIEW
 70
     1
  0
VIEW
  2
ALL
 70
     0
 40
4282.6198079999986
 10
0.0
 20
41.309904000000003
 41
5940.0
 11
0.0
 21
0.0
 31
1.0
 12
0.0
 22
0.0
 32
0.0
 42
50.0
 43
0.0
 44
0.0
 50
0.0
 71
     0
  0
ENDTAB
  0
TABLE
  2
UCS
 70
     0
  0
ENDTAB
  0
TABLE
  2
VPORT
 70
     1
  0
VPORT
  2
*ACTIVE
 70
     0
 10
0.0
 20
0.0
 11
1.0
 21
1.0
 12
318.13661088018671
 22
-37.170400420634913
 13
0.0
 23
0.0
 14
1.0
 24
1.0
 15
0.0
 25
0.0
 16
0.0
 26
0.0
 36
1.0
 17
0.0
 27
0.0
 37
0.0
 40
934.13085554061126
 41
1.747787610619469
 42
50.0
 43
0.0
 44
0.0
 50
0.0
 51
0.0
 71
     0
 72
  1000
 73
     1
 74
     3
 75
     0
 76
     0
 77
     0
 78
     0
  0
ENDTAB
  0
ENDSEC
  0
SECTION
  2
BLOCKS
  0
BLOCK
  8
0
  2
_ORIGIN
 70
     0
 10
0.0
 20
0.0
 30
0.0
  3
_ORIGIN
  1
_ORIGIN
  0
CIRCLE
  8
0
  6
CONTINUOUS
 62
     7
 10
0.0
 20
0.0
 30
0.0
 40
0.5
  0
LINE
  8
0
  6
CONTINUOUS
 62
     7
 10
0.0
 20
0.0
 30
0.0
 11
-1.0
 21
0.0
 31
0.0
  0
ENDBLK
  8
0
  0
ENDSEC
  0
SECTION
  2
ENTITIES
  0
TEXT
  8
ETC
  6
CONTINUOUS
 62
    61
 10
372.86175206968772
 20
362.79662461569069
 30
0.0
 40
64.0
  1
VD-10ZLC13_6
 41
0.9
  0
TEXT
  8
ETC
  6
CONTINUOUS
 62
    61
 10
368.67575806968722
 20
244.8413146008595
 30
0.0
 40
64.0
  1
換気扇
 41
0.9
  0
TEXT
  8
ETC
  6
CONTINUOUS
 62
    61
 10
419.37715631824312
 20
136.69254171463419
 30
0.0
 40
40.0
  1
VD-10ZLC13
 41
0.9
  0
LINE
  8
DETAIL
  6
CONTINUOUS
 62
     5
 10
-48.809043000000202
 20
-195.53015400000001
 30
0.0
 11
-49.168418000000202
 21
-154.34983099999999
 31
0.0
  0
ARC
  8
DETAIL
  6
CONTINUOUS
 62
     5
 10
-51.164445000000342
 20
-154.36725000000001
 30
0.0
 40
1.996103
 50
0.5000000000045772
 51
20.00000000000357
  0
LINE
  8
DETAIL
  6
CONTINUOUS
 62
     5
 10
-49.288722000000227
 20
-153.68454200000011
 30
0.0
 11
-52.283465999999862
 21
-145.45655099999999
 31
0.0
  0
ARC
  8
DETAIL
  6
CONTINUOUS
 62
     5
 10
-50.407742000000333
 20
-144.7738430000002
 30
0.0
 40
1.996103
 50
180.99999999999531
 51
200.00000000000361
  0
LINE
  8
DETAIL
  6
CONTINUOUS
 62
     5
 10
-52.403542000000023
 20
-144.80868000000009
 30
0.0
 11
-52.674530999999661
 21
-129.283682
 31
0.0
  0
LINE
  8
DETAIL
  6
CONTINUOUS
 62
     5
 10
52.403540999999677
 20
-144.80868000000009
 30
0.0
 11
52.674531000000123
 21
-129.283682
 31
0.0
  0
ARC
  8
DETAIL
  6
CONTINUOUS
 62
     5
 10
50.407742000000333
 20
-144.7738430000002
 30
0.0
 40
1.996103
 50
339.99999999999642
 51
358.99999999999818
  0
LINE
  8
DETAIL
  6
CONTINUOUS
 62
     5
 10
-49.201146999999757
 20
-154.0068510000001
 30
0.0
 11
49.201146999999757
 21
-154.0068510000001
 31
0.0
  0
LINE
  8
DETAIL
  6
CONTINUOUS
 62
     5
 10
49.288722000000227
 20
-153.68454200000011
 30
0.0
 11
52.283465999999862
 21
-145.45655099999999
 31
0.0
  0
ARC
  8
DETAIL
  6
CONTINUOUS
 62
     5
 10
51.164445000000342
 20
-154.36725000000001
 30
0.0
 40
1.996103
 50
159.99999999999639
 51
179.4999999999954
  0
LINE
  8
DETAIL
  6
CONTINUOUS
 62
     5
 10
48.809043000000202
 20
-195.53015400000001
 30
0.0
 11
49.168418000000202
 21
-154.34983099999999
 31
0.0
  0
ARC
  8
DETAIL
  6
CONTINUOUS
 62
     5
 10
48.310035999999847
 20
-195.52579900000001
 30
0.0
 40
0.499026
 50
270.0
 51
359.4999999999954
  0
LINE
  8
DETAIL
  6
CONTINUOUS
 62
     5
 10
48.310035999999847
 20
-196.02482500000011
 30
0.0
 11
-48.310035999999847
 21
-196.02482500000011
 31
0.0
  0
LINE
  8
DETAIL
  6
CONTINUOUS
 62
     5
 10
52.36947599999985
 20
-145.14266200000009
 30
0.0
 11
-52.36947599999985
 21
-145.14266200000009
 31
0.0
  0
ARC
  8
DETAIL
  6
CONTINUOUS
 62
     5
 10
-48.310035999999847
 20
-195.52579900000001
 30
0.0
 40
0.499026
 50
180.50000000000449
 51
270.0
  0
LINE
  8
DETAIL
  6
CONTINUOUS
 62
     5
 10
-44.100000000000357
 20
18.899999999999981
 30
0.0
 11
-36.899999999999643
 21
18.899999999999981
 31
0.0
  0
LINE
  8
DETAIL
  6
CONTINUOUS
 62
     5
 10
-44.100000000000357
 20
18.899999999999981
 30
0.0
 11
-44.100000000000357
 21
26.099999999999909
 31
0.0
  0
LINE
  8
DETAIL
  6
CONTINUOUS
 62
     5
 10
-8.1000000000003638
 20
17.099999999999909
 30
0.0
 11
-0.8999999999996362
 21
17.099999999999909
 31
0.0
  0
LINE
  8
DETAIL
  6
CONTINUOUS
 62
     5
 10
-8.1000000000003638
 20
9.8999999999999773
 30
0.0
 11
-0.8999999999996362
 21
9.8999999999999773
 31
0.0
  0
LINE
  8
DETAIL
  6
CONTINUOUS
 62
     5
 10
-8.1000000000003638
 20
9.8999999999999773
 30
0.0
 11
-8.1000000000003638
 21
17.099999999999909
 31
0.0
  0
LINE
  8
DETAIL
  6
CONTINUOUS
 62
     5
 10
-17.10000000000036
 20
17.099999999999909
 30
0.0
 11
-9.8999999999996362
 21
17.099999999999909
 31
0.0
  0
LINE
  8
DETAIL
  6
CONTINUOUS
 62
     5
 10
-9.8999999999996362
 20
9.8999999999999773
 30
0.0
 11
-9.8999999999996362
 21
17.099999999999909
 31
0.0
  0
LINE
  8
DETAIL
  6
CONTINUOUS
 62
     5
 10
-17.10000000000036
 20
9.8999999999999773
 30
0.0
 11
-9.8999999999996362
 21
9.8999999999999773
 31
0.0
  0
LINE
  8
DETAIL
  6
CONTINUOUS
 62
     5
 10
-17.10000000000036
 20
9.8999999999999773
 30
0.0
 11
-17.10000000000036
 21
17.099999999999909
 31
0.0
  0
LINE
  8
DETAIL
  6
CONTINUOUS
 62
     5
 10
-26.10000000000036
 20
17.099999999999909
 30
0.0
 11
-18.89999999999964
 21
17.099999999999909
 31
0.0
  0
LINE
  8
DETAIL
  6
CONTINUOUS
 62
     5
 10
-18.89999999999964
 20
9.8999999999999773
 30
0.0
 11
-18.89999999999964
 21
17.099999999999909
 31
0.0
  0
LINE
  8
DETAIL
  6
CONTINUOUS
 62
     5
 10
-26.10000000000036
 20
9.8999999999999773
 30
0.0
 11
-18.89999999999964
 21
9.8999999999999773
 31
0.0
  0
LINE
  8
DETAIL
  6
CONTINUOUS
 62
     5
 10
-26.10000000000036
 20
9.8999999999999773
 30
0.0
 11
-26.10000000000036
 21
17.099999999999909
 31
0.0
  0
LINE
  8
DETAIL
  6
CONTINUOUS
 62
     5
 10
-35.100000000000357
 20
17.099999999999909
 30
0.0
 11
-27.89999999999964
 21
17.099999999999909
 31
0.0
  0
LINE
  8
DETAIL
  6
CONTINUOUS
 62
     5
 10
-27.89999999999964
 20
9.8999999999999773
 30
0.0
 11
-27.89999999999964
 21
17.099999999999909
 31
0.0
  0
LINE
  8
DETAIL
  6
CONTINUOUS
 62
     5
 10
-35.100000000000357
 20
9.8999999999999773
 30
0.0
 11
-27.89999999999964
 21
9.8999999999999773
 31
0.0
  0
LINE
  8
DETAIL
  6
CONTINUOUS
 62
     5
 10
-35.100000000000357
 20
9.8999999999999773
 30
0.0
 11
-35.100000000000357
 21
17.099999999999909
 31
0.0
  0
LINE
  8
DETAIL
  6
CONTINUOUS
 62
     5
 10
-44.100000000000357
 20
17.099999999999909
 30
0.0
 11
-36.899999999999643
 21
17.099999999999909
 31
0.0
  0
LINE
  8
DETAIL
  6
CONTINUOUS
 62
     5
 10
-36.899999999999643
 20
9.8999999999999773
 30
0.0
 11
-36.899999999999643
 21
17.099999999999909
 31
0.0
  0
LINE
  8
DETAIL
  6
CONTINUOUS
 62
     5
 10
-44.100000000000357
 20
9.8999999999999773
 30
0.0
 11
-36.899999999999643
 21
9.8999999999999773
 31
0.0
  0
LINE
  8
DETAIL
  6
CONTINUOUS
 62
     5
 10
-44.100000000000357
 20
9.8999999999999773
 30
0.0
 11
-44.100000000000357
 21
17.099999999999909
 31
0.0
  0
LINE
  8
DETAIL
  6
CONTINUOUS
 62
     5
 10
-53.100000000000357
 20
17.099999999999909
 30
0.0
 11
-45.899999999999643
 21
17.099999999999909
 31
0.0
  0
LINE
  8
DETAIL
  6
CONTINUOUS
 62
     5
 10
-45.899999999999643
 20
9.8999999999999773
 30
0.0
 11
-45.899999999999643
 21
17.099999999999909
 31
0.0
  0
LINE
  8
DETAIL
  6
CONTINUOUS
 62
     5
 10
-53.100000000000357
 20
9.8999999999999773
 30
0.0
 11
-45.899999999999643
 21
9.8999999999999773
 31
0.0
  0
LINE
  8
DETAIL
  6
CONTINUOUS
 62
     5
 10
-53.100000000000357
 20
9.8999999999999773
 30
0.0
 11
-53.100000000000357
 21
17.099999999999909
 31
0.0
  0
LINE
  8
DETAIL
  6
CONTINUOUS
 62
     5
 10
-8.1000000000003638
 20
8.0999999999999091
 30
0.0
 11
-0.8999999999996362
 21
8.0999999999999091
 31
0.0
  0
LINE
  8
DETAIL
  6
CONTINUOUS
 62
     5
 10
-8.1000000000003638
 20
0.8999999999999773
 30
0.0
 11
-8.1000000000003638
 21
8.0999999999999091
 31
0.0
  0
LINE
  8
DETAIL
  6
CONTINUOUS
 62
     5
 10
-17.10000000000036
 20
8.0999999999999091
 30
0.0
 11
-9.8999999999996362
 21
8.0999999999999091
 31
0.0
  0
LINE
  8
DETAIL
  6
CONTINUOUS
 62
     5
 10
-9.8999999999996362
 20
0.8999999999999773
 30
0.0
 11
-9.8999999999996362
 21
8.0999999999999091
 31
0.0
  0
LINE
  8
DETAIL
  6
CONTINUOUS
 62
     5
 10
-17.10000000000036
 20
0.8999999999999773
 30
0.0
 11
-17.10000000000036
 21
8.0999999999999091
 31
0.0
  0
LINE
  8
DETAIL
  6
CONTINUOUS
 62
     5
 10
-26.10000000000036
 20
8.0999999999999091
 30
0.0
 11
-18.89999999999964
 21
8.0999999999999091
 31
0.0
  0
LINE
  8
DETAIL
  6
CONTINUOUS
 62
     5
 10
-18.89999999999964
 20
0.8999999999999773
 30
0.0
 11
-18.89999999999964
 21
8.0999999999999091
 31
0.0
  0
LINE
  8
DETAIL
  6
CONTINUOUS
 62
     5
 10
-26.10000000000036
 20
0.8999999999999773
 30
0.0
 11
-26.10000000000036
 21
8.0999999999999091
 31
0.0
  0
LINE
  8
DETAIL
  6
CONTINUOUS
 62
     5
 10
-35.100000000000357
 20
8.0999999999999091
 30
0.0
 11
-27.89999999999964
 21
8.0999999999999091
 31
0.0
  0
LINE
  8
DETAIL
  6
CONTINUOUS
 62
     5
 10
-27.89999999999964
 20
0.8999999999999773
 30
0.0
 11
-27.89999999999964
 21
8.0999999999999091
 31
0.0
  0
LINE
  8
DETAIL
  6
CONTINUOUS
 62
     5
 10
-35.100000000000357
 20
0.8999999999999773
 30
0.0
 11
-35.100000000000357
 21
8.0999999999999091
 31
0.0
  0
LINE
  8
DETAIL
  6
CONTINUOUS
 62
     5
 10
-44.100000000000357
 20
8.0999999999999091
 30
0.0
 11
-36.899999999999643
 21
8.0999999999999091
 31
0.0
  0
LINE
  8
DETAIL
  6
CONTINUOUS
 62
     5
 10
-36.899999999999643
 20
0.8999999999999773
 30
0.0
 11
-36.899999999999643
 21
8.0999999999999091
 31
0.0
  0
LINE
  8
DETAIL
  6
CONTINUOUS
 62
     5
 10
-44.100000000000357
 20
0.8999999999999773
 30
0.0
 11
-44.100000000000357
 21
8.0999999999999091
 31
0.0
  0
LINE
  8
DETAIL
  6
CONTINUOUS
 62
     5
 10
-53.100000000000357
 20
8.0999999999999091
 30
0.0
 11
-45.899999999999643
 21
8.0999999999999091
 31
0.0
  0
LINE
  8
DETAIL
  6
CONTINUOUS
 62
     5
 10
-45.899999999999643
 20
0.8999999999999773
 30
0.0
 11
-45.899999999999643
 21
8.0999999999999091
 31
0.0
  0
LINE
  8
DETAIL
  6
CONTINUOUS
 62
     5
 10
-53.100000000000357
 20
0.8999999999999773
 30
0.0
 11
-53.100000000000357
 21
8.0999999999999091
 31
0.0
  0
LINE
  8
DETAIL
  6
CONTINUOUS
 62
     5
 10
-62.100000000000357
 20
8.0999999999999091
 30
0.0
 11
-54.899999999999643
 21
8.0999999999999091
 31
0.0
  0
LINE
  8
DETAIL
  6
CONTINUOUS
 62
     5
 10
-54.899999999999643
 20
0.8999999999999773
 30
0.0
 11
-54.899999999999643
 21
8.0999999999999091
 31
0.0
  0
LINE
  8
DETAIL
  6
CONTINUOUS
 62
     5
 10
-62.100000000000357
 20
0.8999999999999773
 30
0.0
 11
-62.100000000000357
 21
8.0999999999999091
 31
0.0
  0
LINE
  8
DETAIL
  6
CONTINUOUS
 62
     5
 10
-71.100000000000364
 20
8.0999999999999091
 30
0.0
 11
-63.899999999999643
 21
8.0999999999999091
 31
0.0
  0
LINE
  8
DETAIL
  6
CONTINUOUS
 62
     5
 10
-63.899999999999643
 20
0.8999999999999773
 30
0.0
 11
-63.899999999999643
 21
8.0999999999999091
 31
0.0
  0
LINE
  8
DETAIL
  6
CONTINUOUS
 62
     5
 10
-71.100000000000364
 20
0.8999999999999773
 30
0.0
 11
-71.100000000000364
 21
8.0999999999999091
 31
0.0
  0
LINE
  8
DETAIL
  6
CONTINUOUS
 62
     5
 10
-80.100000000000364
 20
8.0999999999999091
 30
0.0
 11
-72.899999999999636
 21
8.0999999999999091
 31
0.0
  0
LINE
  8
DETAIL
  6
CONTINUOUS
 62
     5
 10
-72.899999999999636
 20
0.8999999999999773
 30
0.0
 11
-72.899999999999636
 21
8.0999999999999091
 31
0.0
  0
LINE
  8
DETAIL
  6
CONTINUOUS
 62
     5
 10
-80.100000000000364
 20
0.8999999999999773
 30
0.0
 11
-80.100000000000364
 21
8.0999999999999091
 31
0.0
  0
LINE
  8
DETAIL
  6
CONTINUOUS
 62
     5
 10
-62.100000000000357
 20
17.099999999999909
 30
0.0
 11
-54.899999999999643
 21
17.099999999999909
 31
0.0
  0
LINE
  8
DETAIL
  6
CONTINUOUS
 62
     5
 10
-54.899999999999643
 20
9.8999999999999773
 30
0.0
 11
-54.899999999999643
 21
17.099999999999909
 31
0.0
  0
LINE
  8
DETAIL
  6
CONTINUOUS
 62
     5
 10
-62.100000000000357
 20
9.8999999999999773
 30
0.0
 11
-54.899999999999643
 21
9.8999999999999773
 31
0.0
  0
LINE
  8
DETAIL
  6
CONTINUOUS
 62
     5
 10
-62.100000000000357
 20
9.8999999999999773
 30
0.0
 11
-62.100000000000357
 21
17.099999999999909
 31
0.0
  0
LINE
  8
DETAIL
  6
CONTINUOUS
 62
     5
 10
-71.100000000000364
 20
17.099999999999909
 30
0.0
 11
-63.899999999999643
 21
17.099999999999909
 31
0.0
  0
LINE
  8
DETAIL
  6
CONTINUOUS
 62
     5
 10
-63.899999999999643
 20
9.8999999999999773
 30
0.0
 11
-63.899999999999643
 21
17.099999999999909
 31
0.0
  0
LINE
  8
DETAIL
  6
CONTINUOUS
 62
     5
 10
-71.100000000000364
 20
9.8999999999999773
 30
0.0
 11
-63.899999999999643
 21
9.8999999999999773
 31
0.0
  0
LINE
  8
DETAIL
  6
CONTINUOUS
 62
     5
 10
-71.100000000000364
 20
9.8999999999999773
 30
0.0
 11
-71.100000000000364
 21
17.099999999999909
 31
0.0
  0
LINE
  8
DETAIL
  6
CONTINUOUS
 62
     5
 10
-80.100000000000364
 20
17.099999999999909
 30
0.0
 11
-72.899999999999636
 21
17.099999999999909
 31
0.0
  0
LINE
  8
DETAIL
  6
CONTINUOUS
 62
     5
 10
-72.899999999999636
 20
9.8999999999999773
 30
0.0
 11
-72.899999999999636
 21
17.099999999999909
 31
0.0
  0
LINE
  8
DETAIL
  6
CONTINUOUS
 62
     5
 10
-80.100000000000364
 20
9.8999999999999773
 30
0.0
 11
-72.899999999999636
 21
9.8999999999999773
 31
0.0
  0
LINE
  8
DETAIL
  6
CONTINUOUS
 62
     5
 10
-80.100000000000364
 20
9.8999999999999773
 30
0.0
 11
-80.100000000000364
 21
17.099999999999909
 31
0.0
  0
LINE
  8
DETAIL
  6
CONTINUOUS
 62
     5
 10
-53.100000000000357
 20
26.099999999999909
 30
0.0
 11
-45.899999999999643
 21
26.099999999999909
 31
0.0
  0
LINE
  8
DETAIL
  6
CONTINUOUS
 62
     5
 10
-45.899999999999643
 20
18.899999999999981
 30
0.0
 11
-45.899999999999643
 21
26.099999999999909
 31
0.0
  0
LINE
  8
DETAIL
  6
CONTINUOUS
 62
     5
 10
-53.100000000000357
 20
18.899999999999981
 30
0.0
 11
-45.899999999999643
 21
18.899999999999981
 31
0.0
  0
LINE
  8
DETAIL
  6
CONTINUOUS
 62
     5
 10
-53.100000000000357
 20
18.899999999999981
 30
0.0
 11
-53.100000000000357
 21
26.099999999999909
 31
0.0
  0
LINE
  8
DETAIL
  6
CONTINUOUS
 62
     5
 10
-62.100000000000357
 20
26.099999999999909
 30
0.0
 11
-54.899999999999643
 21
26.099999999999909
 31
0.0
  0
LINE
  8
DETAIL
  6
CONTINUOUS
 62
     5
 10
-54.899999999999643
 20
18.899999999999981
 30
0.0
 11
-54.899999999999643
 21
26.099999999999909
 31
0.0
  0
LINE
  8
DETAIL
  6
CONTINUOUS
 62
     5
 10
-62.100000000000357
 20
18.899999999999981
 30
0.0
 11
-54.899999999999643
 21
18.899999999999981
 31
0.0
  0
LINE
  8
DETAIL
  6
CONTINUOUS
 62
     5
 10
-62.100000000000357
 20
18.899999999999981
 30
0.0
 11
-62.100000000000357
 21
26.099999999999909
 31
0.0
  0
LINE
  8
DETAIL
  6
CONTINUOUS
 62
     5
 10
-71.100000000000364
 20
26.099999999999909
 30
0.0
 11
-63.899999999999643
 21
26.099999999999909
 31
0.0
  0
LINE
  8
DETAIL
  6
CONTINUOUS
 62
     5
 10
-63.899999999999643
 20
18.899999999999981
 30
0.0
 11
-63.899999999999643
 21
26.099999999999909
 31
0.0
  0
LINE
  8
DETAIL
  6
CONTINUOUS
 62
     5
 10
-71.100000000000364
 20
18.899999999999981
 30
0.0
 11
-63.899999999999643
 21
18.899999999999981
 31
0.0
  0
LINE
  8
DETAIL
  6
CONTINUOUS
 62
     5
 10
-71.100000000000364
 20
18.899999999999981
 30
0.0
 11
-71.100000000000364
 21
26.099999999999909
 31
0.0
  0
LINE
  8
DETAIL
  6
CONTINUOUS
 62
     5
 10
-80.100000000000364
 20
26.099999999999909
 30
0.0
 11
-72.899999999999636
 21
26.099999999999909
 31
0.0
  0
LINE
  8
DETAIL
  6
CONTINUOUS
 62
     5
 10
-72.899999999999636
 20
18.899999999999981
 30
0.0
 11
-72.899999999999636
 21
26.099999999999909
 31
0.0
  0
LINE
  8
DETAIL
  6
CONTINUOUS
 62
     5
 10
-80.100000000000364
 20
18.899999999999981
 30
0.0
 11
-72.899999999999636
 21
18.899999999999981
 31
0.0
  0
LINE
  8
DETAIL
  6
CONTINUOUS
 62
     5
 10
-80.100000000000364
 20
18.899999999999981
 30
0.0
 11
-80.100000000000364
 21
26.099999999999909
 31
0.0
  0
LINE
  8
DETAIL
  6
CONTINUOUS
 62
     5
 10
-44.100000000000357
 20
27.899999999999981
 30
0.0
 11
-36.899999999999643
 21
27.899999999999981
 31
0.0
  0
LINE
  8
DETAIL
  6
CONTINUOUS
 62
     5
 10
-53.100000000000357
 20
27.899999999999981
 30
0.0
 11
-45.899999999999643
 21
27.899999999999981
 31
0.0
  0
LINE
  8
DETAIL
  6
CONTINUOUS
 62
     5
 10
-62.100000000000357
 20
27.899999999999981
 30
0.0
 11
-54.899999999999643
 21
27.899999999999981
 31
0.0
  0
LINE
  8
DETAIL
  6
CONTINUOUS
 62
     5
 10
-71.100000000000364
 20
27.899999999999981
 30
0.0
 11
-63.899999999999643
 21
27.899999999999981
 31
0.0
  0
LINE
  8
DETAIL
  6
CONTINUOUS
 62
     5
 10
-80.100000000000364
 20
27.899999999999981
 30
0.0
 11
-72.899999999999636
 21
27.899999999999981
 31
0.0
  0
LINE
  8
DETAIL
  6
CONTINUOUS
 62
     5
 10
-27.89999999999964
 20
36.899999999999977
 30
0.0
 11
-27.89999999999964
 21
44.099999999999909
 31
0.0
  0
LINE
  8
DETAIL
  6
CONTINUOUS
 62
     5
 10
-26.10000000000036
 20
53.099999999999909
 30
0.0
 11
-18.89999999999964
 21
53.099999999999909
 31
0.0
  0
LINE
  8
DETAIL
  6
CONTINUOUS
 62
     5
 10
-18.89999999999964
 20
45.899999999999977
 30
0.0
 11
-18.89999999999964
 21
53.099999999999909
 31
0.0
  0
LINE
  8
DETAIL
  6
CONTINUOUS
 62
     5
 10
-26.10000000000036
 20
45.899999999999977
 30
0.0
 11
-18.89999999999964
 21
45.899999999999977
 31
0.0
  0
LINE
  8
DETAIL
  6
CONTINUOUS
 62
     5
 10
-26.10000000000036
 20
45.899999999999977
 30
0.0
 11
-26.10000000000036
 21
53.099999999999909
 31
0.0
  0
LINE
  8
DETAIL
  6
CONTINUOUS
 62
     5
 10
-62.100000000000357
 20
63.899999999999977
 30
0.0
 11
-62.100000000000357
 21
71.099999999999909
 31
0.0
  0
LINE
  8
DETAIL
  6
CONTINUOUS
 62
     5
 10
-27.89999999999964
 20
45.899999999999977
 30
0.0
 11
-27.89999999999964
 21
53.099999999999909
 31
0.0
  0
LINE
  8
DETAIL
  6
CONTINUOUS
 62
     5
 10
-71.100000000000364
 20
71.099999999999909
 30
0.0
 11
-63.899999999999643
 21
71.099999999999909
 31
0.0
  0
LINE
  8
DETAIL
  6
CONTINUOUS
 62
     5
 10
-17.10000000000036
 20
62.099999999999909
 30
0.0
 11
-9.8999999999996362
 21
62.099999999999909
 31
0.0
  0
LINE
  8
DETAIL
  6
CONTINUOUS
 62
     5
 10
-35.100000000000357
 20
35.099999999999909
 30
0.0
 11
-27.89999999999964
 21
35.099999999999909
 31
0.0
  0
LINE
  8
DETAIL
  6
CONTINUOUS
 62
     5
 10
-9.8999999999996362
 20
54.899999999999977
 30
0.0
 11
-9.8999999999996362
 21
62.099999999999909
 31
0.0
  0
LINE
  8
DETAIL
  6
CONTINUOUS
 62
     5
 10
-63.899999999999643
 20
63.899999999999977
 30
0.0
 11
-63.899999999999643
 21
71.099999999999909
 31
0.0
  0
LINE
  8
DETAIL
  6
CONTINUOUS
 62
     5
 10
-17.10000000000036
 20
54.899999999999977
 30
0.0
 11
-9.8999999999996362
 21
54.899999999999977
 31
0.0
  0
LINE
  8
DETAIL
  6
CONTINUOUS
 62
     5
 10
-71.100000000000364
 20
63.899999999999977
 30
0.0
 11
-63.899999999999643
 21
63.899999999999977
 31
0.0
  0
LINE
  8
DETAIL
  6
CONTINUOUS
 62
     5
 10
-17.10000000000036
 20
54.899999999999977
 30
0.0
 11
-17.10000000000036
 21
62.099999999999909
 31
0.0
  0
LINE
  8
DETAIL
  6
CONTINUOUS
 62
     5
 10
-71.100000000000364
 20
63.899999999999977
 30
0.0
 11
-71.100000000000364
 21
71.099999999999909
 31
0.0
  0
LINE
  8
DETAIL
  6
CONTINUOUS
 62
     5
 10
-26.10000000000036
 20
62.099999999999909
 30
0.0
 11
-18.89999999999964
 21
62.099999999999909
 31
0.0
  0
LINE
  8
DETAIL
  6
CONTINUOUS
 62
     5
 10
-35.100000000000357
 20
27.899999999999981
 30
0.0
 11
-35.100000000000357
 21
35.099999999999909
 31
0.0
  0
LINE
  8
DETAIL
  6
CONTINUOUS
 62
     5
 10
-18.89999999999964
 20
54.899999999999977
 30
0.0
 11
-18.89999999999964
 21
62.099999999999909
 31
0.0
  0
LINE
  8
DETAIL
  6
CONTINUOUS
 62
     5
 10
-80.100000000000364
 20
71.099999999999909
 30
0.0
 11
-72.899999999999636
 21
71.099999999999909
 31
0.0
  0
LINE
  8
DETAIL
  6
CONTINUOUS
 62
     5
 10
-26.10000000000036
 20
54.899999999999977
 30
0.0
 11
-18.89999999999964
 21
54.899999999999977
 31
0.0
  0
LINE
  8
DETAIL
  6
CONTINUOUS
 62
     5
 10
-72.899999999999636
 20
63.899999999999977
 30
0.0
 11
-72.899999999999636
 21
71.099999999999909
 31
0.0
  0
LINE
  8
DETAIL
  6
CONTINUOUS
 62
     5
 10
-26.10000000000036
 20
54.899999999999977
 30
0.0
 11
-26.10000000000036
 21
62.099999999999909
 31
0.0
  0
LINE
  8
DETAIL
  6
CONTINUOUS
 62
     5
 10
-80.100000000000364
 20
63.899999999999977
 30
0.0
 11
-72.899999999999636
 21
63.899999999999977
 31
0.0
  0
LINE
  8
DETAIL
  6
CONTINUOUS
 62
     5
 10
-27.89999999999964
 20
54.899999999999977
 30
0.0
 11
-27.89999999999964
 21
62.099999999999909
 31
0.0
  0
LINE
  8
DETAIL
  6
CONTINUOUS
 62
     5
 10
-80.100000000000364
 20
63.899999999999977
 30
0.0
 11
-80.100000000000364
 21
71.099999999999909
 31
0.0
  0
LINE
  8
DETAIL
  6
CONTINUOUS
 62
     5
 10
-8.1000000000003638
 20
62.099999999999909
 30
0.0
 11
-0.8999999999996362
 21
62.099999999999909
 31
0.0
  0
LINE
  8
DETAIL
  6
CONTINUOUS
 62
     5
 10
-35.100000000000357
 20
80.099999999999909
 30
0.0
 11
-27.89999999999964
 21
80.099999999999909
 31
0.0
  0
LINE
  8
DETAIL
  6
CONTINUOUS
 62
     5
 10
-8.1000000000003638
 20
54.899999999999977
 30
0.0
 11
-0.8999999999996362
 21
54.899999999999977
 31
0.0
  0
LINE
  8
DETAIL
  6
CONTINUOUS
 62
     5
 10
-35.100000000000357
 20
72.899999999999977
 30
0.0
 11
-27.89999999999964
 21
72.899999999999977
 31
0.0
  0
LINE
  8
DETAIL
  6
CONTINUOUS
 62
     5
 10
-8.1000000000003638
 20
54.899999999999977
 30
0.0
 11
-8.1000000000003638
 21
62.099999999999909
 31
0.0
  0
LINE
  8
DETAIL
  6
CONTINUOUS
 62
     5
 10
-35.100000000000357
 20
72.899999999999977
 30
0.0
 11
-35.100000000000357
 21
80.099999999999909
 31
0.0
  0
LINE
  8
DETAIL
  6
CONTINUOUS
 62
     5
 10
-8.1000000000003638
 20
53.099999999999909
 30
0.0
 11
-0.8999999999996362
 21
53.099999999999909
 31
0.0
  0
LINE
  8
DETAIL
  6
CONTINUOUS
 62
     5
 10
-44.100000000000357
 20
80.099999999999909
 30
0.0
 11
-36.899999999999643
 21
80.099999999999909
 31
0.0
  0
LINE
  8
DETAIL
  6
CONTINUOUS
 62
     5
 10
-8.1000000000003638
 20
45.899999999999977
 30
0.0
 11
-0.8999999999996362
 21
45.899999999999977
 31
0.0
  0
LINE
  8
DETAIL
  6
CONTINUOUS
 62
     5
 10
-36.899999999999643
 20
72.899999999999977
 30
0.0
 11
-36.899999999999643
 21
80.099999999999909
 31
0.0
  0
LINE
  8
DETAIL
  6
CONTINUOUS
 62
     5
 10
-8.1000000000003638
 20
45.899999999999977
 30
0.0
 11
-8.1000000000003638
 21
53.099999999999909
 31
0.0
  0
LINE
  8
DETAIL
  6
CONTINUOUS
 62
     5
 10
-44.100000000000357
 20
72.899999999999977
 30
0.0
 11
-36.899999999999643
 21
72.899999999999977
 31
0.0
  0
LINE
  8
DETAIL
  6
CONTINUOUS
 62
     5
 10
-8.1000000000003638
 20
71.099999999999909
 30
0.0
 11
-0.8999999999996362
 21
71.099999999999909
 31
0.0
  0
LINE
  8
DETAIL
  6
CONTINUOUS
 62
     5
 10
-44.100000000000357
 20
72.899999999999977
 30
0.0
 11
-44.100000000000357
 21
80.099999999999909
 31
0.0
  0
LINE
  8
DETAIL
  6
CONTINUOUS
 62
     5
 10
-17.10000000000036
 20
53.099999999999909
 30
0.0
 11
-9.8999999999996362
 21
53.099999999999909
 31
0.0
  0
LINE
  8
DETAIL
  6
CONTINUOUS
 62
     5
 10
-53.100000000000357
 20
80.099999999999909
 30
0.0
 11
-45.899999999999643
 21
80.099999999999909
 31
0.0
  0
LINE
  8
DETAIL
  6
CONTINUOUS
 62
     5
 10
-9.8999999999996362
 20
45.899999999999977
 30
0.0
 11
-9.8999999999996362
 21
53.099999999999909
 31
0.0
  0
LINE
  8
DETAIL
  6
CONTINUOUS
 62
     5
 10
-45.899999999999643
 20
72.899999999999977
 30
0.0
 11
-45.899999999999643
 21
80.099999999999909
 31
0.0
  0
LINE
  8
DETAIL
  6
CONTINUOUS
 62
     5
 10
-8.1000000000003638
 20
63.899999999999977
 30
0.0
 11
-0.8999999999996362
 21
63.899999999999977
 31
0.0
  0
LINE
  8
DETAIL
  6
CONTINUOUS
 62
     5
 10
-53.100000000000357
 20
72.899999999999977
 30
0.0
 11
-45.899999999999643
 21
72.899999999999977
 31
0.0
  0
LINE
  8
DETAIL
  6
CONTINUOUS
 62
     5
 10
-17.10000000000036
 20
45.899999999999977
 30
0.0
 11
-9.8999999999996362
 21
45.899999999999977
 31
0.0
  0
LINE
  8
DETAIL
  6
CONTINUOUS
 62
     5
 10
-53.100000000000357
 20
72.899999999999977
 30
0.0
 11
-53.100000000000357
 21
80.099999999999909
 31
0.0
  0
LINE
  8
DETAIL
  6
CONTINUOUS
 62
     5
 10
-8.1000000000003638
 20
63.899999999999977
 30
0.0
 11
-8.1000000000003638
 21
71.099999999999909
 31
0.0
  0
LINE
  8
DETAIL
  6
CONTINUOUS
 62
     5
 10
-62.100000000000357
 20
80.099999999999909
 30
0.0
 11
-54.899999999999643
 21
80.099999999999909
 31
0.0
  0
LINE
  8
DETAIL
  6
CONTINUOUS
 62
     5
 10
-17.10000000000036
 20
45.899999999999977
 30
0.0
 11
-17.10000000000036
 21
53.099999999999909
 31
0.0
  0
LINE
  8
DETAIL
  6
CONTINUOUS
 62
     5
 10
-54.899999999999643
 20
72.899999999999977
 30
0.0
 11
-54.899999999999643
 21
80.099999999999909
 31
0.0
  0
LINE
  8
DETAIL
  6
CONTINUOUS
 62
     5
 10
-17.10000000000036
 20
71.099999999999909
 30
0.0
 11
-9.8999999999996362
 21
71.099999999999909
 31
0.0
  0
LINE
  8
DETAIL
  6
CONTINUOUS
 62
     5
 10
-62.100000000000357
 20
72.899999999999977
 30
0.0
 11
-54.899999999999643
 21
72.899999999999977
 31
0.0
  0
LINE
  8
DETAIL
  6
CONTINUOUS
 62
     5
 10
-8.1000000000003638
 20
44.099999999999909
 30
0.0
 11
-0.8999999999996362
 21
44.099999999999909
 31
0.0
  0
LINE
  8
DETAIL
  6
CONTINUOUS
 62
     5
 10
-62.100000000000357
 20
72.899999999999977
 30
0.0
 11
-62.100000000000357
 21
80.099999999999909
 31
0.0
  0
LINE
  8
DETAIL
  6
CONTINUOUS
 62
     5
 10
-9.8999999999996362
 20
63.899999999999977
 30
0.0
 11
-9.8999999999996362
 21
71.099999999999909
 31
0.0
  0
LINE
  8
DETAIL
  6
CONTINUOUS
 62
     5
 10
-71.100000000000364
 20
80.099999999999909
 30
0.0
 11
-63.899999999999643
 21
80.099999999999909
 31
0.0
  0
LINE
  8
DETAIL
  6
CONTINUOUS
 62
     5
 10
-17.10000000000036
 20
63.899999999999977
 30
0.0
 11
-9.8999999999996362
 21
63.899999999999977
 31
0.0
  0
LINE
  8
DETAIL
  6
CONTINUOUS
 62
     5
 10
-63.899999999999643
 20
72.899999999999977
 30
0.0
 11
-63.899999999999643
 21
80.099999999999909
 31
0.0
  0
LINE
  8
DETAIL
  6
CONTINUOUS
 62
     5
 10
-8.1000000000003638
 20
36.899999999999977
 30
0.0
 11
-0.8999999999996362
 21
36.899999999999977
 31
0.0
  0
LINE
  8
DETAIL
  6
CONTINUOUS
 62
     5
 10
-71.100000000000364
 20
72.899999999999977
 30
0.0
 11
-63.899999999999643
 21
72.899999999999977
 31
0.0
  0
LINE
  8
DETAIL
  6
CONTINUOUS
 62
     5
 10
-17.10000000000036
 20
63.899999999999977
 30
0.0
 11
-17.10000000000036
 21
71.099999999999909
 31
0.0
  0
LINE
  8
DETAIL
  6
CONTINUOUS
 62
     5
 10
-71.100000000000364
 20
72.899999999999977
 30
0.0
 11
-71.100000000000364
 21
80.099999999999909
 31
0.0
  0
LINE
  8
DETAIL
  6
CONTINUOUS
 62
     5
 10
-8.1000000000003638
 20
36.899999999999977
 30
0.0
 11
-8.1000000000003638
 21
44.099999999999909
 31
0.0
  0
LINE
  8
DETAIL
  6
CONTINUOUS
 62
     5
 10
-80.100000000000364
 20
80.099999999999909
 30
0.0
 11
-72.899999999999636
 21
80.099999999999909
 31
0.0
  0
LINE
  8
DETAIL
  6
CONTINUOUS
 62
     5
 10
-26.10000000000036
 20
71.099999999999909
 30
0.0
 11
-18.89999999999964
 21
71.099999999999909
 31
0.0
  0
LINE
  8
DETAIL
  6
CONTINUOUS
 62
     5
 10
-72.899999999999636
 20
72.899999999999977
 30
0.0
 11
-72.899999999999636
 21
80.099999999999909
 31
0.0
  0
LINE
  8
DETAIL
  6
CONTINUOUS
 62
     5
 10
-17.10000000000036
 20
44.099999999999909
 30
0.0
 11
-9.8999999999996362
 21
44.099999999999909
 31
0.0
  0
LINE
  8
DETAIL
  6
CONTINUOUS
 62
     5
 10
-80.100000000000364
 20
72.899999999999977
 30
0.0
 11
-72.899999999999636
 21
72.899999999999977
 31
0.0
  0
LINE
  8
DETAIL
  6
CONTINUOUS
 62
     5
 10
-18.89999999999964
 20
63.899999999999977
 30
0.0
 11
-18.89999999999964
 21
71.099999999999909
 31
0.0
  0
LINE
  8
DETAIL
  6
CONTINUOUS
 62
     5
 10
-80.100000000000364
 20
72.899999999999977
 30
0.0
 11
-80.100000000000364
 21
80.099999999999909
 31
0.0
  0
LINE
  8
DETAIL
  6
CONTINUOUS
 62
     5
 10
-9.8999999999996362
 20
36.899999999999977
 30
0.0
 11
-9.8999999999996362
 21
44.099999999999909
 31
0.0
  0
LINE
  8
DETAIL
  6
CONTINUOUS
 62
     5
 10
-84.0
 20
87.5
 30
0.0
 11
-82.5
 21
86.0
 31
0.0
  0
LINE
  8
DETAIL
  6
CONTINUOUS
 62
     5
 10
-26.10000000000036
 20
63.899999999999977
 30
0.0
 11
-18.89999999999964
 21
63.899999999999977
 31
0.0
  0
LINE
  8
DETAIL
  6
CONTINUOUS
 62
     5
 10
-87.5
 20
84.0
 30
0.0
 11
-86.0
 21
82.5
 31
0.0
  0
LINE
  8
DETAIL
  6
CONTINUOUS
 62
     5
 10
-17.10000000000036
 20
36.899999999999977
 30
0.0
 11
-9.8999999999996362
 21
36.899999999999977
 31
0.0
  0
LINE
  8
DETAIL
  6
CONTINUOUS
 62
     5
 10
-44.100000000000357
 20
35.099999999999909
 30
0.0
 11
-36.899999999999643
 21
35.099999999999909
 31
0.0
  0
LINE
  8
DETAIL
  6
CONTINUOUS
 62
     5
 10
-26.10000000000036
 20
63.899999999999977
 30
0.0
 11
-26.10000000000036
 21
71.099999999999909
 31
0.0
  0
LINE
  8
DETAIL
  6
CONTINUOUS
 62
     5
 10
-36.899999999999643
 20
27.899999999999981
 30
0.0
 11
-36.899999999999643
 21
35.099999999999909
 31
0.0
  0
LINE
  8
DETAIL
  6
CONTINUOUS
 62
     5
 10
-17.10000000000036
 20
36.899999999999977
 30
0.0
 11
-17.10000000000036
 21
44.099999999999909
 31
0.0
  0
LINE
  8
DETAIL
  6
CONTINUOUS
 62
     5
 10
-44.100000000000357
 20
27.899999999999981
 30
0.0
 11
-44.100000000000357
 21
35.099999999999909
 31
0.0
  0
LINE
  8
DETAIL
  6
CONTINUOUS
 62
     5
 10
-26.10000000000036
 20
44.099999999999909
 30
0.0
 11
-18.89999999999964
 21
44.099999999999909
 31
0.0
  0
LINE
  8
DETAIL
  6
CONTINUOUS
 62
     5
 10
-53.100000000000357
 20
35.099999999999909
 30
0.0
 11
-45.899999999999643
 21
35.099999999999909
 31
0.0
  0
LINE
  8
DETAIL
  6
CONTINUOUS
 62
     5
 10
-27.89999999999964
 20
63.899999999999977
 30
0.0
 11
-27.89999999999964
 21
71.099999999999909
 31
0.0
  0
LINE
  8
DETAIL
  6
CONTINUOUS
 62
     5
 10
-45.899999999999643
 20
27.899999999999981
 30
0.0
 11
-45.899999999999643
 21
35.099999999999909
 31
0.0
  0
LINE
  8
DETAIL
  6
CONTINUOUS
 62
     5
 10
-18.89999999999964
 20
36.899999999999977
 30
0.0
 11
-18.89999999999964
 21
44.099999999999909
 31
0.0
  0
LINE
  8
DETAIL
  6
CONTINUOUS
 62
     5
 10
-53.100000000000357
 20
27.899999999999981
 30
0.0
 11
-53.100000000000357
 21
35.099999999999909
 31
0.0
  0
LINE
  8
DETAIL
  6
CONTINUOUS
 62
     5
 10
-26.10000000000036
 20
36.899999999999977
 30
0.0
 11
-18.89999999999964
 21
36.899999999999977
 31
0.0
  0
LINE
  8
DETAIL
  6
CONTINUOUS
 62
     5
 10
-62.100000000000357
 20
35.099999999999909
 30
0.0
 11
-54.899999999999643
 21
35.099999999999909
 31
0.0
  0
LINE
  8
DETAIL
  6
CONTINUOUS
 62
     5
 10
-26.10000000000036
 20
36.899999999999977
 30
0.0
 11
-26.10000000000036
 21
44.099999999999909
 31
0.0
  0
LINE
  8
DETAIL
  6
CONTINUOUS
 62
     5
 10
-54.899999999999643
 20
27.899999999999981
 30
0.0
 11
-54.899999999999643
 21
35.099999999999909
 31
0.0
  0
LINE
  8
DETAIL
  6
CONTINUOUS
 62
     5
 10
-8.1000000000003638
 20
35.099999999999909
 30
0.0
 11
-0.8999999999996362
 21
35.099999999999909
 31
0.0
  0
LINE
  8
DETAIL
  6
CONTINUOUS
 62
     5
 10
-62.100000000000357
 20
27.899999999999981
 30
0.0
 11
-62.100000000000357
 21
35.099999999999909
 31
0.0
  0
LINE
  8
DETAIL
  6
CONTINUOUS
 62
     5
 10
-8.1000000000003638
 20
27.899999999999981
 30
0.0
 11
-0.8999999999996362
 21
27.899999999999981
 31
0.0
  0
LINE
  8
DETAIL
  6
CONTINUOUS
 62
     5
 10
-71.100000000000364
 20
35.099999999999909
 30
0.0
 11
-63.899999999999643
 21
35.099999999999909
 31
0.0
  0
LINE
  8
DETAIL
  6
CONTINUOUS
 62
     5
 10
-8.1000000000003638
 20
27.899999999999981
 30
0.0
 11
-8.1000000000003638
 21
35.099999999999909
 31
0.0
  0
LINE
  8
DETAIL
  6
CONTINUOUS
 62
     5
 10
-63.899999999999643
 20
27.899999999999981
 30
0.0
 11
-63.899999999999643
 21
35.099999999999909
 31
0.0
  0
LINE
  8
DETAIL
  6
CONTINUOUS
 62
     5
 10
-17.10000000000036
 20
35.099999999999909
 30
0.0
 11
-9.8999999999996362
 21
35.099999999999909
 31
0.0
  0
LINE
  8
DETAIL
  6
CONTINUOUS
 62
     5
 10
-71.100000000000364
 20
27.899999999999981
 30
0.0
 11
-71.100000000000364
 21
35.099999999999909
 31
0.0
  0
LINE
  8
DETAIL
  6
CONTINUOUS
 62
     5
 10
-9.8999999999996362
 20
27.899999999999981
 30
0.0
 11
-9.8999999999996362
 21
35.099999999999909
 31
0.0
  0
LINE
  8
DETAIL
  6
CONTINUOUS
 62
     5
 10
-80.100000000000364
 20
35.099999999999909
 30
0.0
 11
-72.899999999999636
 21
35.099999999999909
 31
0.0
  0
LINE
  8
DETAIL
  6
CONTINUOUS
 62
     5
 10
-17.10000000000036
 20
27.899999999999981
 30
0.0
 11
-9.8999999999996362
 21
27.899999999999981
 31
0.0
  0
LINE
  8
DETAIL
  6
CONTINUOUS
 62
     5
 10
-72.899999999999636
 20
27.899999999999981
 30
0.0
 11
-72.899999999999636
 21
35.099999999999909
 31
0.0
  0
LINE
  8
DETAIL
  6
CONTINUOUS
 62
     5
 10
-17.10000000000036
 20
27.899999999999981
 30
0.0
 11
-17.10000000000036
 21
35.099999999999909
 31
0.0
  0
LINE
  8
DETAIL
  6
CONTINUOUS
 62
     5
 10
-80.100000000000364
 20
27.899999999999981
 30
0.0
 11
-80.100000000000364
 21
35.099999999999909
 31
0.0
  0
LINE
  8
DETAIL
  6
CONTINUOUS
 62
     5
 10
-26.10000000000036
 20
35.099999999999909
 30
0.0
 11
-18.89999999999964
 21
35.099999999999909
 31
0.0
  0
LINE
  8
DETAIL
  6
CONTINUOUS
 62
     5
 10
-35.100000000000357
 20
44.099999999999909
 30
0.0
 11
-27.89999999999964
 21
44.099999999999909
 31
0.0
  0
LINE
  8
DETAIL
  6
CONTINUOUS
 62
     5
 10
-18.89999999999964
 20
27.899999999999981
 30
0.0
 11
-18.89999999999964
 21
35.099999999999909
 31
0.0
  0
LINE
  8
DETAIL
  6
CONTINUOUS
 62
     5
 10
-35.100000000000357
 20
36.899999999999977
 30
0.0
 11
-27.89999999999964
 21
36.899999999999977
 31
0.0
  0
LINE
  8
DETAIL
  6
CONTINUOUS
 62
     5
 10
-35.100000000000357
 20
36.899999999999977
 30
0.0
 11
-35.100000000000357
 21
44.099999999999909
 31
0.0
  0
LINE
  8
DETAIL
  6
CONTINUOUS
 62
     5
 10
-44.100000000000357
 20
44.099999999999909
 30
0.0
 11
-36.899999999999643
 21
44.099999999999909
 31
0.0
  0
ARC
  8
DETAIL
  6
CONTINUOUS
 62
     5
 10
-117.20564899999999
 20
117.20564899999999
 30
0.0
 40
1.0
 50
90.0
 51
180.0
  0
LINE
  8
DETAIL
  6
CONTINUOUS
 62
     5
 10
-36.899999999999643
 20
36.899999999999977
 30
0.0
 11
-36.899999999999643
 21
44.099999999999909
 31
0.0
  0
ARC
  8
DETAIL
  6
CONTINUOUS
 62
     5
 10
-124.0
 20
124.0
 30
0.0
 40
1.0
 50
90.0
 51
180.0
  0
LINE
  8
DETAIL
  6
CONTINUOUS
 62
     5
 10
-44.100000000000357
 20
36.899999999999977
 30
0.0
 11
-36.899999999999643
 21
36.899999999999977
 31
0.0
  0
LINE
  8
DETAIL
  6
CONTINUOUS
 62
     5
 10
-8.1000000000003638
 20
0.8999999999999773
 30
0.0
 11
-0.8999999999996362
 21
0.8999999999999773
 31
0.0
  0
LINE
  8
DETAIL
  6
CONTINUOUS
 62
     5
 10
-44.100000000000357
 20
36.899999999999977
 30
0.0
 11
-44.100000000000357
 21
44.099999999999909
 31
0.0
  0
LINE
  8
DETAIL
  6
CONTINUOUS
 62
     5
 10
-17.10000000000036
 20
0.8999999999999773
 30
0.0
 11
-9.8999999999996362
 21
0.8999999999999773
 31
0.0
  0
LINE
  8
DETAIL
  6
CONTINUOUS
 62
     5
 10
-53.100000000000357
 20
44.099999999999909
 30
0.0
 11
-45.899999999999643
 21
44.099999999999909
 31
0.0
  0
LINE
  8
DETAIL
  6
CONTINUOUS
 62
     5
 10
-26.10000000000036
 20
0.8999999999999773
 30
0.0
 11
-18.89999999999964
 21
0.8999999999999773
 31
0.0
  0
LINE
  8
DETAIL
  6
CONTINUOUS
 62
     5
 10
-45.899999999999643
 20
36.899999999999977
 30
0.0
 11
-45.899999999999643
 21
44.099999999999909
 31
0.0
  0
LINE
  8
DETAIL
  6
CONTINUOUS
 62
     5
 10
-35.100000000000357
 20
0.8999999999999773
 30
0.0
 11
-27.89999999999964
 21
0.8999999999999773
 31
0.0
  0
LINE
  8
DETAIL
  6
CONTINUOUS
 62
     5
 10
-53.100000000000357
 20
36.899999999999977
 30
0.0
 11
-45.899999999999643
 21
36.899999999999977
 31
0.0
  0
LINE
  8
DETAIL
  6
CONTINUOUS
 62
     5
 10
-44.100000000000357
 20
0.8999999999999773
 30
0.0
 11
-36.899999999999643
 21
0.8999999999999773
 31
0.0
  0
LINE
  8
DETAIL
  6
CONTINUOUS
 62
     5
 10
-53.100000000000357
 20
36.899999999999977
 30
0.0
 11
-53.100000000000357
 21
44.099999999999909
 31
0.0
  0
LINE
  8
DETAIL
  6
CONTINUOUS
 62
     5
 10
-53.100000000000357
 20
0.8999999999999773
 30
0.0
 11
-45.899999999999643
 21
0.8999999999999773
 31
0.0
  0
LINE
  8
DETAIL
  6
CONTINUOUS
 62
     5
 10
-62.100000000000357
 20
44.099999999999909
 30
0.0
 11
-54.899999999999643
 21
44.099999999999909
 31
0.0
  0
LINE
  8
DETAIL
  6
CONTINUOUS
 62
     5
 10
-62.100000000000357
 20
0.8999999999999773
 30
0.0
 11
-54.899999999999643
 21
0.8999999999999773
 31
0.0
  0
LINE
  8
DETAIL
  6
CONTINUOUS
 62
     5
 10
-54.899999999999643
 20
36.899999999999977
 30
0.0
 11
-54.899999999999643
 21
44.099999999999909
 31
0.0
  0
LINE
  8
DETAIL
  6
CONTINUOUS
 62
     5
 10
-71.100000000000364
 20
0.8999999999999773
 30
0.0
 11
-63.899999999999643
 21
0.8999999999999773
 31
0.0
  0
LINE
  8
DETAIL
  6
CONTINUOUS
 62
     5
 10
-62.100000000000357
 20
36.899999999999977
 30
0.0
 11
-54.899999999999643
 21
36.899999999999977
 31
0.0
  0
LINE
  8
DETAIL
  6
CONTINUOUS
 62
     5
 10
-80.100000000000364
 20
0.8999999999999773
 30
0.0
 11
-72.899999999999636
 21
0.8999999999999773
 31
0.0
  0
LINE
  8
DETAIL
  6
CONTINUOUS
 62
     5
 10
-62.100000000000357
 20
36.899999999999977
 30
0.0
 11
-62.100000000000357
 21
44.099999999999909
 31
0.0
  0
LINE
  8
DETAIL
  6
CONTINUOUS
 62
     5
 10
-0.8999999999996362
 20
18.899999999999981
 30
0.0
 11
-0.8999999999996362
 21
26.099999999999909
 31
0.0
  0
LINE
  8
DETAIL
  6
CONTINUOUS
 62
     5
 10
-71.100000000000364
 20
44.099999999999909
 30
0.0
 11
-63.899999999999643
 21
44.099999999999909
 31
0.0
  0
LINE
  8
DETAIL
  6
CONTINUOUS
 62
     5
 10
-0.8999999999996362
 20
72.899999999999977
 30
0.0
 11
-0.8999999999996362
 21
80.099999999999909
 31
0.0
  0
LINE
  8
DETAIL
  6
CONTINUOUS
 62
     5
 10
-63.899999999999643
 20
36.899999999999977
 30
0.0
 11
-63.899999999999643
 21
44.099999999999909
 31
0.0
  0
LINE
  8
DETAIL
  6
CONTINUOUS
 62
     5
 10
-0.8999999999996362
 20
9.8999999999999773
 30
0.0
 11
-0.8999999999996362
 21
17.099999999999909
 31
0.0
  0
LINE
  8
DETAIL
  6
CONTINUOUS
 62
     5
 10
-71.100000000000364
 20
36.899999999999977
 30
0.0
 11
-63.899999999999643
 21
36.899999999999977
 31
0.0
  0
LINE
  8
DETAIL
  6
CONTINUOUS
 62
     5
 10
-0.8999999999996362
 20
0.8999999999999773
 30
0.0
 11
-0.8999999999996362
 21
8.0999999999999091
 31
0.0
  0
LINE
  8
DETAIL
  6
CONTINUOUS
 62
     5
 10
-71.100000000000364
 20
36.899999999999977
 30
0.0
 11
-71.100000000000364
 21
44.099999999999909
 31
0.0
  0
LINE
  8
DETAIL
  6
CONTINUOUS
 62
     5
 10
-0.8999999999996362
 20
54.899999999999977
 30
0.0
 11
-0.8999999999996362
 21
62.099999999999909
 31
0.0
  0
LINE
  8
DETAIL
  6
CONTINUOUS
 62
     5
 10
-80.100000000000364
 20
44.099999999999909
 30
0.0
 11
-72.899999999999636
 21
44.099999999999909
 31
0.0
  0
LINE
  8
DETAIL
  6
CONTINUOUS
 62
     5
 10
-0.8999999999996362
 20
45.899999999999977
 30
0.0
 11
-0.8999999999996362
 21
53.099999999999909
 31
0.0
  0
LINE
  8
DETAIL
  6
CONTINUOUS
 62
     5
 10
-72.899999999999636
 20
36.899999999999977
 30
0.0
 11
-72.899999999999636
 21
44.099999999999909
 31
0.0
  0
LINE
  8
DETAIL
  6
CONTINUOUS
 62
     5
 10
-0.8999999999996362
 20
63.899999999999977
 30
0.0
 11
-0.8999999999996362
 21
71.099999999999909
 31
0.0
  0
LINE
  8
DETAIL
  6
CONTINUOUS
 62
     5
 10
-80.100000000000364
 20
36.899999999999977
 30
0.0
 11
-72.899999999999636
 21
36.899999999999977
 31
0.0
  0
LINE
  8
DETAIL
  6
CONTINUOUS
 62
     5
 10
-0.8999999999996362
 20
36.899999999999977
 30
0.0
 11
-0.8999999999996362
 21
44.099999999999909
 31
0.0
  0
LINE
  8
DETAIL
  6
CONTINUOUS
 62
     5
 10
-80.100000000000364
 20
36.899999999999977
 30
0.0
 11
-80.100000000000364
 21
44.099999999999909
 31
0.0
  0
LINE
  8
DETAIL
  6
CONTINUOUS
 62
     5
 10
-0.8999999999996362
 20
27.899999999999981
 30
0.0
 11
-0.8999999999996362
 21
35.099999999999909
 31
0.0
  0
LINE
  8
DETAIL
  6
CONTINUOUS
 62
     5
 10
-35.100000000000357
 20
53.099999999999909
 30
0.0
 11
-27.89999999999964
 21
53.099999999999909
 31
0.0
  0
LINE
  8
DETAIL
  6
CONTINUOUS
 62
     5
 10
-35.100000000000357
 20
45.899999999999977
 30
0.0
 11
-27.89999999999964
 21
45.899999999999977
 31
0.0
  0
LINE
  8
DETAIL
  6
CONTINUOUS
 62
     5
 10
-35.100000000000357
 20
45.899999999999977
 30
0.0
 11
-35.100000000000357
 21
53.099999999999909
 31
0.0
  0
LINE
  8
DETAIL
  6
CONTINUOUS
 62
     5
 10
-44.100000000000357
 20
53.099999999999909
 30
0.0
 11
-36.899999999999643
 21
53.099999999999909
 31
0.0
  0
LINE
  8
DETAIL
  6
CONTINUOUS
 62
     5
 10
-36.899999999999643
 20
45.899999999999977
 30
0.0
 11
-36.899999999999643
 21
53.099999999999909
 31
0.0
  0
LINE
  8
DETAIL
  6
CONTINUOUS
 62
     5
 10
-44.100000000000357
 20
45.899999999999977
 30
0.0
 11
-36.899999999999643
 21
45.899999999999977
 31
0.0
  0
LINE
  8
DETAIL
  6
CONTINUOUS
 62
     5
 10
-44.100000000000357
 20
45.899999999999977
 30
0.0
 11
-44.100000000000357
 21
53.099999999999909
 31
0.0
  0
LINE
  8
DETAIL
  6
CONTINUOUS
 62
     5
 10
-53.100000000000357
 20
53.099999999999909
 30
0.0
 11
-45.899999999999643
 21
53.099999999999909
 31
0.0
  0
LINE
  8
DETAIL
  6
CONTINUOUS
 62
     5
 10
-45.899999999999643
 20
45.899999999999977
 30
0.0
 11
-45.899999999999643
 21
53.099999999999909
 31
0.0
  0
LINE
  8
DETAIL
  6
CONTINUOUS
 62
     5
 10
-53.100000000000357
 20
45.899999999999977
 30
0.0
 11
-45.899999999999643
 21
45.899999999999977
 31
0.0
  0
LINE
  8
DETAIL
  6
CONTINUOUS
 62
     5
 10
-53.100000000000357
 20
45.899999999999977
 30
0.0
 11
-53.100000000000357
 21
53.099999999999909
 31
0.0
  0
LINE
  8
DETAIL
  6
CONTINUOUS
 62
     5
 10
-62.100000000000357
 20
53.099999999999909
 30
0.0
 11
-54.899999999999643
 21
53.099999999999909
 31
0.0
  0
LINE
  8
DETAIL
  6
CONTINUOUS
 62
     5
 10
-54.899999999999643
 20
45.899999999999977
 30
0.0
 11
-54.899999999999643
 21
53.099999999999909
 31
0.0
  0
LINE
  8
DETAIL
  6
CONTINUOUS
 62
     5
 10
-62.100000000000357
 20
45.899999999999977
 30
0.0
 11
-54.899999999999643
 21
45.899999999999977
 31
0.0
  0
LINE
  8
DETAIL
  6
CONTINUOUS
 62
     5
 10
-62.100000000000357
 20
45.899999999999977
 30
0.0
 11
-62.100000000000357
 21
53.099999999999909
 31
0.0
  0
LINE
  8
DETAIL
  6
CONTINUOUS
 62
     5
 10
-71.100000000000364
 20
53.099999999999909
 30
0.0
 11
-63.899999999999643
 21
53.099999999999909
 31
0.0
  0
LINE
  8
DETAIL
  6
CONTINUOUS
 62
     5
 10
-63.899999999999643
 20
45.899999999999977
 30
0.0
 11
-63.899999999999643
 21
53.099999999999909
 31
0.0
  0
LINE
  8
DETAIL
  6
CONTINUOUS
 62
     5
 10
-71.100000000000364
 20
45.899999999999977
 30
0.0
 11
-63.899999999999643
 21
45.899999999999977
 31
0.0
  0
LINE
  8
DETAIL
  6
CONTINUOUS
 62
     5
 10
-71.100000000000364
 20
45.899999999999977
 30
0.0
 11
-71.100000000000364
 21
53.099999999999909
 31
0.0
  0
LINE
  8
DETAIL
  6
CONTINUOUS
 62
     5
 10
-80.100000000000364
 20
53.099999999999909
 30
0.0
 11
-72.899999999999636
 21
53.099999999999909
 31
0.0
  0
LINE
  8
DETAIL
  6
CONTINUOUS
 62
     5
 10
-72.899999999999636
 20
45.899999999999977
 30
0.0
 11
-72.899999999999636
 21
53.099999999999909
 31
0.0
  0
LINE
  8
DETAIL
  6
CONTINUOUS
 62
     5
 10
-80.100000000000364
 20
45.899999999999977
 30
0.0
 11
-72.899999999999636
 21
45.899999999999977
 31
0.0
  0
LINE
  8
DETAIL
  6
CONTINUOUS
 62
     5
 10
-80.100000000000364
 20
45.899999999999977
 30
0.0
 11
-80.100000000000364
 21
53.099999999999909
 31
0.0
  0
LINE
  8
DETAIL
  6
CONTINUOUS
 62
     5
 10
-35.100000000000357
 20
62.099999999999909
 30
0.0
 11
-27.89999999999964
 21
62.099999999999909
 31
0.0
  0
LINE
  8
DETAIL
  6
CONTINUOUS
 62
     5
 10
-35.100000000000357
 20
54.899999999999977
 30
0.0
 11
-27.89999999999964
 21
54.899999999999977
 31
0.0
  0
LINE
  8
DETAIL
  6
CONTINUOUS
 62
     5
 10
-35.100000000000357
 20
54.899999999999977
 30
0.0
 11
-35.100000000000357
 21
62.099999999999909
 31
0.0
  0
LINE
  8
DETAIL
  6
CONTINUOUS
 62
     5
 10
-44.100000000000357
 20
62.099999999999909
 30
0.0
 11
-36.899999999999643
 21
62.099999999999909
 31
0.0
  0
LINE
  8
DETAIL
  6
CONTINUOUS
 62
     5
 10
-36.899999999999643
 20
54.899999999999977
 30
0.0
 11
-36.899999999999643
 21
62.099999999999909
 31
0.0
  0
LINE
  8
DETAIL
  6
CONTINUOUS
 62
     5
 10
-44.100000000000357
 20
54.899999999999977
 30
0.0
 11
-36.899999999999643
 21
54.899999999999977
 31
0.0
  0
LINE
  8
DETAIL
  6
CONTINUOUS
 62
     5
 10
-44.100000000000357
 20
54.899999999999977
 30
0.0
 11
-44.100000000000357
 21
62.099999999999909
 31
0.0
  0
LINE
  8
DETAIL
  6
CONTINUOUS
 62
     5
 10
-53.100000000000357
 20
62.099999999999909
 30
0.0
 11
-45.899999999999643
 21
62.099999999999909
 31
0.0
  0
LINE
  8
DETAIL
  6
CONTINUOUS
 62
     5
 10
-45.899999999999643
 20
54.899999999999977
 30
0.0
 11
-45.899999999999643
 21
62.099999999999909
 31
0.0
  0
LINE
  8
DETAIL
  6
CONTINUOUS
 62
     5
 10
-53.100000000000357
 20
54.899999999999977
 30
0.0
 11
-45.899999999999643
 21
54.899999999999977
 31
0.0
  0
LINE
  8
DETAIL
  6
CONTINUOUS
 62
     5
 10
-53.100000000000357
 20
54.899999999999977
 30
0.0
 11
-53.100000000000357
 21
62.099999999999909
 31
0.0
  0
LINE
  8
DETAIL
  6
CONTINUOUS
 62
     5
 10
-62.100000000000357
 20
62.099999999999909
 30
0.0
 11
-54.899999999999643
 21
62.099999999999909
 31
0.0
  0
LINE
  8
DETAIL
  6
CONTINUOUS
 62
     5
 10
-54.899999999999643
 20
54.899999999999977
 30
0.0
 11
-54.899999999999643
 21
62.099999999999909
 31
0.0
  0
LINE
  8
DETAIL
  6
CONTINUOUS
 62
     5
 10
-62.100000000000357
 20
54.899999999999977
 30
0.0
 11
-54.899999999999643
 21
54.899999999999977
 31
0.0
  0
LINE
  8
DETAIL
  6
CONTINUOUS
 62
     5
 10
-62.100000000000357
 20
54.899999999999977
 30
0.0
 11
-62.100000000000357
 21
62.099999999999909
 31
0.0
  0
LINE
  8
DETAIL
  6
CONTINUOUS
 62
     5
 10
-71.100000000000364
 20
62.099999999999909
 30
0.0
 11
-63.899999999999643
 21
62.099999999999909
 31
0.0
  0
LINE
  8
DETAIL
  6
CONTINUOUS
 62
     5
 10
-63.899999999999643
 20
54.899999999999977
 30
0.0
 11
-63.899999999999643
 21
62.099999999999909
 31
0.0
  0
LINE
  8
DETAIL
  6
CONTINUOUS
 62
     5
 10
-71.100000000000364
 20
54.899999999999977
 30
0.0
 11
-63.899999999999643
 21
54.899999999999977
 31
0.0
  0
LINE
  8
DETAIL
  6
CONTINUOUS
 62
     5
 10
-71.100000000000364
 20
54.899999999999977
 30
0.0
 11
-71.100000000000364
 21
62.099999999999909
 31
0.0
  0
LINE
  8
DETAIL
  6
CONTINUOUS
 62
     5
 10
-80.100000000000364
 20
62.099999999999909
 30
0.0
 11
-72.899999999999636
 21
62.099999999999909
 31
0.0
  0
LINE
  8
DETAIL
  6
CONTINUOUS
 62
     5
 10
-72.899999999999636
 20
54.899999999999977
 30
0.0
 11
-72.899999999999636
 21
62.099999999999909
 31
0.0
  0
LINE
  8
DETAIL
  6
CONTINUOUS
 62
     5
 10
-80.100000000000364
 20
54.899999999999977
 30
0.0
 11
-72.899999999999636
 21
54.899999999999977
 31
0.0
  0
LINE
  8
DETAIL
  6
CONTINUOUS
 62
     5
 10
-80.100000000000364
 20
54.899999999999977
 30
0.0
 11
-80.100000000000364
 21
62.099999999999909
 31
0.0
  0
LINE
  8
DETAIL
  6
CONTINUOUS
 62
     5
 10
-35.100000000000357
 20
71.099999999999909
 30
0.0
 11
-27.89999999999964
 21
71.099999999999909
 31
0.0
  0
LINE
  8
DETAIL
  6
CONTINUOUS
 62
     5
 10
-35.100000000000357
 20
63.899999999999977
 30
0.0
 11
-27.89999999999964
 21
63.899999999999977
 31
0.0
  0
LINE
  8
DETAIL
  6
CONTINUOUS
 62
     5
 10
-35.100000000000357
 20
63.899999999999977
 30
0.0
 11
-35.100000000000357
 21
71.099999999999909
 31
0.0
  0
LINE
  8
DETAIL
  6
CONTINUOUS
 62
     5
 10
-44.100000000000357
 20
71.099999999999909
 30
0.0
 11
-36.899999999999643
 21
71.099999999999909
 31
0.0
  0
LINE
  8
DETAIL
  6
CONTINUOUS
 62
     5
 10
-36.899999999999643
 20
63.899999999999977
 30
0.0
 11
-36.899999999999643
 21
71.099999999999909
 31
0.0
  0
LINE
  8
DETAIL
  6
CONTINUOUS
 62
     5
 10
-44.100000000000357
 20
63.899999999999977
 30
0.0
 11
-36.899999999999643
 21
63.899999999999977
 31
0.0
  0
LINE
  8
DETAIL
  6
CONTINUOUS
 62
     5
 10
-44.100000000000357
 20
63.899999999999977
 30
0.0
 11
-44.100000000000357
 21
71.099999999999909
 31
0.0
  0
LINE
  8
DETAIL
  6
CONTINUOUS
 62
     5
 10
-53.100000000000357
 20
71.099999999999909
 30
0.0
 11
-45.899999999999643
 21
71.099999999999909
 31
0.0
  0
LINE
  8
DETAIL
  6
CONTINUOUS
 62
     5
 10
-45.899999999999643
 20
63.899999999999977
 30
0.0
 11
-45.899999999999643
 21
71.099999999999909
 31
0.0
  0
LINE
  8
DETAIL
  6
CONTINUOUS
 62
     5
 10
-53.100000000000357
 20
63.899999999999977
 30
0.0
 11
-45.899999999999643
 21
63.899999999999977
 31
0.0
  0
LINE
  8
DETAIL
  6
CONTINUOUS
 62
     5
 10
-53.100000000000357
 20
63.899999999999977
 30
0.0
 11
-53.100000000000357
 21
71.099999999999909
 31
0.0
  0
LINE
  8
DETAIL
  6
CONTINUOUS
 62
     5
 10
-62.100000000000357
 20
71.099999999999909
 30
0.0
 11
-54.899999999999643
 21
71.099999999999909
 31
0.0
  0
LINE
  8
DETAIL
  6
CONTINUOUS
 62
     5
 10
-54.899999999999643
 20
63.899999999999977
 30
0.0
 11
-54.899999999999643
 21
71.099999999999909
 31
0.0
  0
LINE
  8
DETAIL
  6
CONTINUOUS
 62
     5
 10
-62.100000000000357
 20
63.899999999999977
 30
0.0
 11
-54.899999999999643
 21
63.899999999999977
 31
0.0
  0
LINE
  8
DETAIL
  6
CONTINUOUS
 62
     5
 10
-26.10000000000036
 20
27.899999999999981
 30
0.0
 11
-18.89999999999964
 21
27.899999999999981
 31
0.0
  0
LINE
  8
DETAIL
  6
CONTINUOUS
 62
     5
 10
-26.10000000000036
 20
27.899999999999981
 30
0.0
 11
-26.10000000000036
 21
35.099999999999909
 31
0.0
  0
LINE
  8
DETAIL
  6
CONTINUOUS
 62
     5
 10
-27.89999999999964
 20
27.899999999999981
 30
0.0
 11
-27.89999999999964
 21
35.099999999999909
 31
0.0
  0
LINE
  8
DETAIL
  6
CONTINUOUS
 62
     5
 10
-35.100000000000357
 20
27.899999999999981
 30
0.0
 11
-27.89999999999964
 21
27.899999999999981
 31
0.0
  0
LINE
  8
DETAIL
  6
CONTINUOUS
 62
     5
 10
-8.1000000000003638
 20
26.099999999999909
 30
0.0
 11
-0.8999999999996362
 21
26.099999999999909
 31
0.0
  0
LINE
  8
DETAIL
  6
CONTINUOUS
 62
     5
 10
-8.1000000000003638
 20
18.899999999999981
 30
0.0
 11
-0.8999999999996362
 21
18.899999999999981
 31
0.0
  0
LINE
  8
DETAIL
  6
CONTINUOUS
 62
     5
 10
-8.1000000000003638
 20
18.899999999999981
 30
0.0
 11
-8.1000000000003638
 21
26.099999999999909
 31
0.0
  0
LINE
  8
DETAIL
  6
CONTINUOUS
 62
     5
 10
-8.1000000000003638
 20
80.099999999999909
 30
0.0
 11
-0.8999999999996362
 21
80.099999999999909
 31
0.0
  0
LINE
  8
DETAIL
  6
CONTINUOUS
 62
     5
 10
-17.10000000000036
 20
26.099999999999909
 30
0.0
 11
-9.8999999999996362
 21
26.099999999999909
 31
0.0
  0
LINE
  8
DETAIL
  6
CONTINUOUS
 62
     5
 10
-9.8999999999996362
 20
18.899999999999981
 30
0.0
 11
-9.8999999999996362
 21
26.099999999999909
 31
0.0
  0
LINE
  8
DETAIL
  6
CONTINUOUS
 62
     5
 10
-8.1000000000003638
 20
72.899999999999977
 30
0.0
 11
-0.8999999999996362
 21
72.899999999999977
 31
0.0
  0
LINE
  8
DETAIL
  6
CONTINUOUS
 62
     5
 10
-17.10000000000036
 20
18.899999999999981
 30
0.0
 11
-9.8999999999996362
 21
18.899999999999981
 31
0.0
  0
LINE
  8
DETAIL
  6
CONTINUOUS
 62
     5
 10
-8.1000000000003638
 20
72.899999999999977
 30
0.0
 11
-8.1000000000003638
 21
80.099999999999909
 31
0.0
  0
LINE
  8
DETAIL
  6
CONTINUOUS
 62
     5
 10
-17.10000000000036
 20
18.899999999999981
 30
0.0
 11
-17.10000000000036
 21
26.099999999999909
 31
0.0
  0
LINE
  8
DETAIL
  6
CONTINUOUS
 62
     5
 10
-17.10000000000036
 20
80.099999999999909
 30
0.0
 11
-9.8999999999996362
 21
80.099999999999909
 31
0.0
  0
LINE
  8
DETAIL
  6
CONTINUOUS
 62
     5
 10
-26.10000000000036
 20
26.099999999999909
 30
0.0
 11
-18.89999999999964
 21
26.099999999999909
 31
0.0
  0
LINE
  8
DETAIL
  6
CONTINUOUS
 62
     5
 10
-9.8999999999996362
 20
72.899999999999977
 30
0.0
 11
-9.8999999999996362
 21
80.099999999999909
 31
0.0
  0
LINE
  8
DETAIL
  6
CONTINUOUS
 62
     5
 10
-18.89999999999964
 20
18.899999999999981
 30
0.0
 11
-18.89999999999964
 21
26.099999999999909
 31
0.0
  0
LINE
  8
DETAIL
  6
CONTINUOUS
 62
     5
 10
-17.10000000000036
 20
72.899999999999977
 30
0.0
 11
-9.8999999999996362
 21
72.899999999999977
 31
0.0
  0
LINE
  8
DETAIL
  6
CONTINUOUS
 62
     5
 10
-26.10000000000036
 20
18.899999999999981
 30
0.0
 11
-18.89999999999964
 21
18.899999999999981
 31
0.0
  0
LINE
  8
DETAIL
  6
CONTINUOUS
 62
     5
 10
-17.10000000000036
 20
72.899999999999977
 30
0.0
 11
-17.10000000000036
 21
80.099999999999909
 31
0.0
  0
LINE
  8
DETAIL
  6
CONTINUOUS
 62
     5
 10
-26.10000000000036
 20
18.899999999999981
 30
0.0
 11
-26.10000000000036
 21
26.099999999999909
 31
0.0
  0
LINE
  8
DETAIL
  6
CONTINUOUS
 62
     5
 10
-26.10000000000036
 20
80.099999999999909
 30
0.0
 11
-18.89999999999964
 21
80.099999999999909
 31
0.0
  0
LINE
  8
DETAIL
  6
CONTINUOUS
 62
     5
 10
-35.100000000000357
 20
26.099999999999909
 30
0.0
 11
-27.89999999999964
 21
26.099999999999909
 31
0.0
  0
LINE
  8
DETAIL
  6
CONTINUOUS
 62
     5
 10
-18.89999999999964
 20
72.899999999999977
 30
0.0
 11
-18.89999999999964
 21
80.099999999999909
 31
0.0
  0
LINE
  8
DETAIL
  6
CONTINUOUS
 62
     5
 10
-27.89999999999964
 20
18.899999999999981
 30
0.0
 11
-27.89999999999964
 21
26.099999999999909
 31
0.0
  0
LINE
  8
DETAIL
  6
CONTINUOUS
 62
     5
 10
-26.10000000000036
 20
72.899999999999977
 30
0.0
 11
-18.89999999999964
 21
72.899999999999977
 31
0.0
  0
LINE
  8
DETAIL
  6
CONTINUOUS
 62
     5
 10
-35.100000000000357
 20
18.899999999999981
 30
0.0
 11
-27.89999999999964
 21
18.899999999999981
 31
0.0
  0
LINE
  8
DETAIL
  6
CONTINUOUS
 62
     5
 10
-26.10000000000036
 20
72.899999999999977
 30
0.0
 11
-26.10000000000036
 21
80.099999999999909
 31
0.0
  0
LINE
  8
DETAIL
  6
CONTINUOUS
 62
     5
 10
-35.100000000000357
 20
18.899999999999981
 30
0.0
 11
-35.100000000000357
 21
26.099999999999909
 31
0.0
  0
LINE
  8
DETAIL
  6
CONTINUOUS
 62
     5
 10
-44.100000000000357
 20
26.099999999999909
 30
0.0
 11
-36.899999999999643
 21
26.099999999999909
 31
0.0
  0
LINE
  8
DETAIL
  6
CONTINUOUS
 62
     5
 10
-27.89999999999964
 20
72.899999999999977
 30
0.0
 11
-27.89999999999964
 21
80.099999999999909
 31
0.0
  0
LINE
  8
DETAIL
  6
CONTINUOUS
 62
     5
 10
-36.899999999999643
 20
18.899999999999981
 30
0.0
 11
-36.899999999999643
 21
26.099999999999909
 31
0.0
  0
LINE
  8
DETAIL
  6
CONTINUOUS
 62
     5
 10
-118.20564899999999
 20
117.20564899999999
 30
0.0
 11
-118.20564899999999
 21
0.0
 31
0.0
  0
LINE
  8
DETAIL
  6
CONTINUOUS
 62
     5
 10
-125.0
 20
124.0
 30
0.0
 11
-125.0
 21
0.0
 31
0.0
  0
LINE
  8
DETAIL
  6
CONTINUOUS
 62
     5
 10
-86.0
 20
82.5
 30
0.0
 11
-86.0
 21
0.0
 31
0.0
  0
LINE
  8
DETAIL
  6
CONTINUOUS
 62
     5
 10
-87.5
 20
84.0
 30
0.0
 11
-87.5
 21
0.0
 31
0.0
  0
LINE
  8
DETAIL
  6
CONTINUOUS
 62
     5
 10
-117.20564899999999
 20
118.20564899999999
 30
0.0
 11
0.0
 21
118.20564899999999
 31
0.0
  0
LINE
  8
DETAIL
  6
CONTINUOUS
 62
     5
 10
0.0
 20
125.0
 30
0.0
 11
-124.0
 21
125.0
 31
0.0
  0
LINE
  8
DETAIL
  6
CONTINUOUS
 62
     5
 10
0.0
 20
87.5
 30
0.0
 11
-84.0
 21
87.5
 31
0.0
  0
LINE
  8
DETAIL
  6
CONTINUOUS
 62
     5
 10
0.0
 20
86.0
 30
0.0
 11
-82.5
 21
86.0
 31
0.0
  0
LINE
  8
DETAIL
  6
CONTINUOUS
 62
     5
 10
-44.100000000000357
 20
-18.900000000000091
 30
0.0
 11
-36.899999999999643
 21
-18.900000000000091
 31
0.0
  0
LINE
  8
DETAIL
  6
CONTINUOUS
 62
     5
 10
-44.100000000000357
 20
-18.900000000000091
 30
0.0
 11
-44.100000000000357
 21
-26.100000000000019
 31
0.0
  0
LINE
  8
DETAIL
  6
CONTINUOUS
 62
     5
 10
-8.1000000000003638
 20
-17.100000000000019
 30
0.0
 11
-0.8999999999996362
 21
-17.100000000000019
 31
0.0
  0
LINE
  8
DETAIL
  6
CONTINUOUS
 62
     5
 10
-8.1000000000003638
 20
-9.9000000000000909
 30
0.0
 11
-0.8999999999996362
 21
-9.9000000000000909
 31
0.0
  0
LINE
  8
DETAIL
  6
CONTINUOUS
 62
     5
 10
-8.1000000000003638
 20
-9.9000000000000909
 30
0.0
 11
-8.1000000000003638
 21
-17.100000000000019
 31
0.0
  0
LINE
  8
DETAIL
  6
CONTINUOUS
 62
     5
 10
-17.10000000000036
 20
-17.100000000000019
 30
0.0
 11
-9.8999999999996362
 21
-17.100000000000019
 31
0.0
  0
LINE
  8
DETAIL
  6
CONTINUOUS
 62
     5
 10
-9.8999999999996362
 20
-9.9000000000000909
 30
0.0
 11
-9.8999999999996362
 21
-17.100000000000019
 31
0.0
  0
LINE
  8
DETAIL
  6
CONTINUOUS
 62
     5
 10
-17.10000000000036
 20
-9.9000000000000909
 30
0.0
 11
-9.8999999999996362
 21
-9.9000000000000909
 31
0.0
  0
LINE
  8
DETAIL
  6
CONTINUOUS
 62
     5
 10
-17.10000000000036
 20
-9.9000000000000909
 30
0.0
 11
-17.10000000000036
 21
-17.100000000000019
 31
0.0
  0
LINE
  8
DETAIL
  6
CONTINUOUS
 62
     5
 10
-26.10000000000036
 20
-17.100000000000019
 30
0.0
 11
-18.89999999999964
 21
-17.100000000000019
 31
0.0
  0
LINE
  8
DETAIL
  6
CONTINUOUS
 62
     5
 10
-18.89999999999964
 20
-9.9000000000000909
 30
0.0
 11
-18.89999999999964
 21
-17.100000000000019
 31
0.0
  0
LINE
  8
DETAIL
  6
CONTINUOUS
 62
     5
 10
-26.10000000000036
 20
-9.9000000000000909
 30
0.0
 11
-18.89999999999964
 21
-9.9000000000000909
 31
0.0
  0
LINE
  8
DETAIL
  6
CONTINUOUS
 62
     5
 10
-26.10000000000036
 20
-9.9000000000000909
 30
0.0
 11
-26.10000000000036
 21
-17.100000000000019
 31
0.0
  0
LINE
  8
DETAIL
  6
CONTINUOUS
 62
     5
 10
-35.100000000000357
 20
-17.100000000000019
 30
0.0
 11
-27.89999999999964
 21
-17.100000000000019
 31
0.0
  0
LINE
  8
DETAIL
  6
CONTINUOUS
 62
     5
 10
-27.89999999999964
 20
-9.9000000000000909
 30
0.0
 11
-27.89999999999964
 21
-17.100000000000019
 31
0.0
  0
LINE
  8
DETAIL
  6
CONTINUOUS
 62
     5
 10
-35.100000000000357
 20
-9.9000000000000909
 30
0.0
 11
-27.89999999999964
 21
-9.9000000000000909
 31
0.0
  0
LINE
  8
DETAIL
  6
CONTINUOUS
 62
     5
 10
-35.100000000000357
 20
-9.9000000000000909
 30
0.0
 11
-35.100000000000357
 21
-17.100000000000019
 31
0.0
  0
LINE
  8
DETAIL
  6
CONTINUOUS
 62
     5
 10
-44.100000000000357
 20
-17.100000000000019
 30
0.0
 11
-36.899999999999643
 21
-17.100000000000019
 31
0.0
  0
LINE
  8
DETAIL
  6
CONTINUOUS
 62
     5
 10
-36.899999999999643
 20
-9.9000000000000909
 30
0.0
 11
-36.899999999999643
 21
-17.100000000000019
 31
0.0
  0
LINE
  8
DETAIL
  6
CONTINUOUS
 62
     5
 10
-44.100000000000357
 20
-9.9000000000000909
 30
0.0
 11
-36.899999999999643
 21
-9.9000000000000909
 31
0.0
  0
LINE
  8
DETAIL
  6
CONTINUOUS
 62
     5
 10
-44.100000000000357
 20
-9.9000000000000909
 30
0.0
 11
-44.100000000000357
 21
-17.100000000000019
 31
0.0
  0
LINE
  8
DETAIL
  6
CONTINUOUS
 62
     5
 10
-53.100000000000357
 20
-17.100000000000019
 30
0.0
 11
-45.899999999999643
 21
-17.100000000000019
 31
0.0
  0
LINE
  8
DETAIL
  6
CONTINUOUS
 62
     5
 10
-45.899999999999643
 20
-9.9000000000000909
 30
0.0
 11
-45.899999999999643
 21
-17.100000000000019
 31
0.0
  0
LINE
  8
DETAIL
  6
CONTINUOUS
 62
     5
 10
-53.100000000000357
 20
-9.9000000000000909
 30
0.0
 11
-45.899999999999643
 21
-9.9000000000000909
 31
0.0
  0
LINE
  8
DETAIL
  6
CONTINUOUS
 62
     5
 10
-53.100000000000357
 20
-9.9000000000000909
 30
0.0
 11
-53.100000000000357
 21
-17.100000000000019
 31
0.0
  0
LINE
  8
DETAIL
  6
CONTINUOUS
 62
     5
 10
-8.1000000000003638
 20
-8.1000000000000227
 30
0.0
 11
-0.8999999999996362
 21
-8.1000000000000227
 31
0.0
  0
LINE
  8
DETAIL
  6
CONTINUOUS
 62
     5
 10
-8.1000000000003638
 20
-0.900000000000091
 30
0.0
 11
-8.1000000000003638
 21
-8.1000000000000227
 31
0.0
  0
LINE
  8
DETAIL
  6
CONTINUOUS
 62
     5
 10
-17.10000000000036
 20
-8.1000000000000227
 30
0.0
 11
-9.8999999999996362
 21
-8.1000000000000227
 31
0.0
  0
LINE
  8
DETAIL
  6
CONTINUOUS
 62
     5
 10
-9.8999999999996362
 20
-0.900000000000091
 30
0.0
 11
-9.8999999999996362
 21
-8.1000000000000227
 31
0.0
  0
LINE
  8
DETAIL
  6
CONTINUOUS
 62
     5
 10
-17.10000000000036
 20
-0.900000000000091
 30
0.0
 11
-17.10000000000036
 21
-8.1000000000000227
 31
0.0
  0
LINE
  8
DETAIL
  6
CONTINUOUS
 62
     5
 10
-26.10000000000036
 20
-8.1000000000000227
 30
0.0
 11
-18.89999999999964
 21
-8.1000000000000227
 31
0.0
  0
LINE
  8
DETAIL
  6
CONTINUOUS
 62
     5
 10
-18.89999999999964
 20
-0.900000000000091
 30
0.0
 11
-18.89999999999964
 21
-8.1000000000000227
 31
0.0
  0
LINE
  8
DETAIL
  6
CONTINUOUS
 62
     5
 10
-26.10000000000036
 20
-0.900000000000091
 30
0.0
 11
-26.10000000000036
 21
-8.1000000000000227
 31
0.0
  0
LINE
  8
DETAIL
  6
CONTINUOUS
 62
     5
 10
-35.100000000000357
 20
-8.1000000000000227
 30
0.0
 11
-27.89999999999964
 21
-8.1000000000000227
 31
0.0
  0
LINE
  8
DETAIL
  6
CONTINUOUS
 62
     5
 10
-27.89999999999964
 20
-0.900000000000091
 30
0.0
 11
-27.89999999999964
 21
-8.1000000000000227
 31
0.0
  0
LINE
  8
DETAIL
  6
CONTINUOUS
 62
     5
 10
-35.100000000000357
 20
-0.900000000000091
 30
0.0
 11
-35.100000000000357
 21
-8.1000000000000227
 31
0.0
  0
LINE
  8
DETAIL
  6
CONTINUOUS
 62
     5
 10
-44.100000000000357
 20
-8.1000000000000227
 30
0.0
 11
-36.899999999999643
 21
-8.1000000000000227
 31
0.0
  0
LINE
  8
DETAIL
  6
CONTINUOUS
 62
     5
 10
-36.899999999999643
 20
-0.900000000000091
 30
0.0
 11
-36.899999999999643
 21
-8.1000000000000227
 31
0.0
  0
LINE
  8
DETAIL
  6
CONTINUOUS
 62
     5
 10
-44.100000000000357
 20
-0.900000000000091
 30
0.0
 11
-44.100000000000357
 21
-8.1000000000000227
 31
0.0
  0
LINE
  8
DETAIL
  6
CONTINUOUS
 62
     5
 10
-53.100000000000357
 20
-8.1000000000000227
 30
0.0
 11
-45.899999999999643
 21
-8.1000000000000227
 31
0.0
  0
LINE
  8
DETAIL
  6
CONTINUOUS
 62
     5
 10
-45.899999999999643
 20
-0.900000000000091
 30
0.0
 11
-45.899999999999643
 21
-8.1000000000000227
 31
0.0
  0
LINE
  8
DETAIL
  6
CONTINUOUS
 62
     5
 10
-53.100000000000357
 20
-0.900000000000091
 30
0.0
 11
-53.100000000000357
 21
-8.1000000000000227
 31
0.0
  0
LINE
  8
DETAIL
  6
CONTINUOUS
 62
     5
 10
-62.100000000000357
 20
-8.1000000000000227
 30
0.0
 11
-54.899999999999643
 21
-8.1000000000000227
 31
0.0
  0
LINE
  8
DETAIL
  6
CONTINUOUS
 62
     5
 10
-54.899999999999643
 20
-0.900000000000091
 30
0.0
 11
-54.899999999999643
 21
-8.1000000000000227
 31
0.0
  0
LINE
  8
DETAIL
  6
CONTINUOUS
 62
     5
 10
-62.100000000000357
 20
-0.900000000000091
 30
0.0
 11
-62.100000000000357
 21
-8.1000000000000227
 31
0.0
  0
LINE
  8
DETAIL
  6
CONTINUOUS
 62
     5
 10
-71.100000000000364
 20
-8.1000000000000227
 30
0.0
 11
-63.899999999999643
 21
-8.1000000000000227
 31
0.0
  0
LINE
  8
DETAIL
  6
CONTINUOUS
 62
     5
 10
-63.899999999999643
 20
-0.900000000000091
 30
0.0
 11
-63.899999999999643
 21
-8.1000000000000227
 31
0.0
  0
LINE
  8
DETAIL
  6
CONTINUOUS
 62
     5
 10
-71.100000000000364
 20
-0.900000000000091
 30
0.0
 11
-71.100000000000364
 21
-8.1000000000000227
 31
0.0
  0
LINE
  8
DETAIL
  6
CONTINUOUS
 62
     5
 10
-80.100000000000364
 20
-8.1000000000000227
 30
0.0
 11
-72.899999999999636
 21
-8.1000000000000227
 31
0.0
  0
LINE
  8
DETAIL
  6
CONTINUOUS
 62
     5
 10
-72.899999999999636
 20
-0.900000000000091
 30
0.0
 11
-72.899999999999636
 21
-8.1000000000000227
 31
0.0
  0
LINE
  8
DETAIL
  6
CONTINUOUS
 62
     5
 10
-80.100000000000364
 20
-0.900000000000091
 30
0.0
 11
-80.100000000000364
 21
-8.1000000000000227
 31
0.0
  0
LINE
  8
DETAIL
  6
CONTINUOUS
 62
     5
 10
-62.100000000000357
 20
-17.100000000000019
 30
0.0
 11
-54.899999999999643
 21
-17.100000000000019
 31
0.0
  0
LINE
  8
DETAIL
  6
CONTINUOUS
 62
     5
 10
-54.899999999999643
 20
-9.9000000000000909
 30
0.0
 11
-54.899999999999643
 21
-17.100000000000019
 31
0.0
  0
LINE
  8
DETAIL
  6
CONTINUOUS
 62
     5
 10
-62.100000000000357
 20
-9.9000000000000909
 30
0.0
 11
-54.899999999999643
 21
-9.9000000000000909
 31
0.0
  0
LINE
  8
DETAIL
  6
CONTINUOUS
 62
     5
 10
-62.100000000000357
 20
-9.9000000000000909
 30
0.0
 11
-62.100000000000357
 21
-17.100000000000019
 31
0.0
  0
LINE
  8
DETAIL
  6
CONTINUOUS
 62
     5
 10
-71.100000000000364
 20
-17.100000000000019
 30
0.0
 11
-63.899999999999643
 21
-17.100000000000019
 31
0.0
  0
LINE
  8
DETAIL
  6
CONTINUOUS
 62
     5
 10
-63.899999999999643
 20
-9.9000000000000909
 30
0.0
 11
-63.899999999999643
 21
-17.100000000000019
 31
0.0
  0
LINE
  8
DETAIL
  6
CONTINUOUS
 62
     5
 10
-71.100000000000364
 20
-9.9000000000000909
 30
0.0
 11
-63.899999999999643
 21
-9.9000000000000909
 31
0.0
  0
LINE
  8
DETAIL
  6
CONTINUOUS
 62
     5
 10
-71.100000000000364
 20
-9.9000000000000909
 30
0.0
 11
-71.100000000000364
 21
-17.100000000000019
 31
0.0
  0
LINE
  8
DETAIL
  6
CONTINUOUS
 62
     5
 10
-80.100000000000364
 20
-17.100000000000019
 30
0.0
 11
-72.899999999999636
 21
-17.100000000000019
 31
0.0
  0
LINE
  8
DETAIL
  6
CONTINUOUS
 62
     5
 10
-72.899999999999636
 20
-9.9000000000000909
 30
0.0
 11
-72.899999999999636
 21
-17.100000000000019
 31
0.0
  0
LINE
  8
DETAIL
  6
CONTINUOUS
 62
     5
 10
-80.100000000000364
 20
-9.9000000000000909
 30
0.0
 11
-72.899999999999636
 21
-9.9000000000000909
 31
0.0
  0
LINE
  8
DETAIL
  6
CONTINUOUS
 62
     5
 10
-80.100000000000364
 20
-9.9000000000000909
 30
0.0
 11
-80.100000000000364
 21
-17.100000000000019
 31
0.0
  0
LINE
  8
DETAIL
  6
CONTINUOUS
 62
     5
 10
-53.100000000000357
 20
-26.100000000000019
 30
0.0
 11
-45.899999999999643
 21
-26.100000000000019
 31
0.0
  0
LINE
  8
DETAIL
  6
CONTINUOUS
 62
     5
 10
-45.899999999999643
 20
-18.900000000000091
 30
0.0
 11
-45.899999999999643
 21
-26.100000000000019
 31
0.0
  0
LINE
  8
DETAIL
  6
CONTINUOUS
 62
     5
 10
-53.100000000000357
 20
-18.900000000000091
 30
0.0
 11
-45.899999999999643
 21
-18.900000000000091
 31
0.0
  0
LINE
  8
DETAIL
  6
CONTINUOUS
 62
     5
 10
-53.100000000000357
 20
-18.900000000000091
 30
0.0
 11
-53.100000000000357
 21
-26.100000000000019
 31
0.0
  0
LINE
  8
DETAIL
  6
CONTINUOUS
 62
     5
 10
-62.100000000000357
 20
-26.100000000000019
 30
0.0
 11
-54.899999999999643
 21
-26.100000000000019
 31
0.0
  0
LINE
  8
DETAIL
  6
CONTINUOUS
 62
     5
 10
-54.899999999999643
 20
-18.900000000000091
 30
0.0
 11
-54.899999999999643
 21
-26.100000000000019
 31
0.0
  0
LINE
  8
DETAIL
  6
CONTINUOUS
 62
     5
 10
-62.100000000000357
 20
-18.900000000000091
 30
0.0
 11
-54.899999999999643
 21
-18.900000000000091
 31
0.0
  0
LINE
  8
DETAIL
  6
CONTINUOUS
 62
     5
 10
-62.100000000000357
 20
-18.900000000000091
 30
0.0
 11
-62.100000000000357
 21
-26.100000000000019
 31
0.0
  0
LINE
  8
DETAIL
  6
CONTINUOUS
 62
     5
 10
-71.100000000000364
 20
-26.100000000000019
 30
0.0
 11
-63.899999999999643
 21
-26.100000000000019
 31
0.0
  0
LINE
  8
DETAIL
  6
CONTINUOUS
 62
     5
 10
-63.899999999999643
 20
-18.900000000000091
 30
0.0
 11
-63.899999999999643
 21
-26.100000000000019
 31
0.0
  0
LINE
  8
DETAIL
  6
CONTINUOUS
 62
     5
 10
-71.100000000000364
 20
-18.900000000000091
 30
0.0
 11
-63.899999999999643
 21
-18.900000000000091
 31
0.0
  0
LINE
  8
DETAIL
  6
CONTINUOUS
 62
     5
 10
-71.100000000000364
 20
-18.900000000000091
 30
0.0
 11
-71.100000000000364
 21
-26.100000000000019
 31
0.0
  0
LINE
  8
DETAIL
  6
CONTINUOUS
 62
     5
 10
-80.100000000000364
 20
-26.100000000000019
 30
0.0
 11
-72.899999999999636
 21
-26.100000000000019
 31
0.0
  0
LINE
  8
DETAIL
  6
CONTINUOUS
 62
     5
 10
-72.899999999999636
 20
-18.900000000000091
 30
0.0
 11
-72.899999999999636
 21
-26.100000000000019
 31
0.0
  0
LINE
  8
DETAIL
  6
CONTINUOUS
 62
     5
 10
-80.100000000000364
 20
-18.900000000000091
 30
0.0
 11
-72.899999999999636
 21
-18.900000000000091
 31
0.0
  0
LINE
  8
DETAIL
  6
CONTINUOUS
 62
     5
 10
-80.100000000000364
 20
-18.900000000000091
 30
0.0
 11
-80.100000000000364
 21
-26.100000000000019
 31
0.0
  0
LINE
  8
DETAIL
  6
CONTINUOUS
 62
     5
 10
-44.100000000000357
 20
-27.900000000000091
 30
0.0
 11
-36.899999999999643
 21
-27.900000000000091
 31
0.0
  0
LINE
  8
DETAIL
  6
CONTINUOUS
 62
     5
 10
-53.100000000000357
 20
-27.900000000000091
 30
0.0
 11
-45.899999999999643
 21
-27.900000000000091
 31
0.0
  0
LINE
  8
DETAIL
  6
CONTINUOUS
 62
     5
 10
-62.100000000000357
 20
-27.900000000000091
 30
0.0
 11
-54.899999999999643
 21
-27.900000000000091
 31
0.0
  0
LINE
  8
DETAIL
  6
CONTINUOUS
 62
     5
 10
-71.100000000000364
 20
-27.900000000000091
 30
0.0
 11
-63.899999999999643
 21
-27.900000000000091
 31
0.0
  0
LINE
  8
DETAIL
  6
CONTINUOUS
 62
     5
 10
-80.100000000000364
 20
-27.900000000000091
 30
0.0
 11
-72.899999999999636
 21
-27.900000000000091
 31
0.0
  0
LINE
  8
DETAIL
  6
CONTINUOUS
 62
     5
 10
-27.89999999999964
 20
-36.900000000000091
 30
0.0
 11
-27.89999999999964
 21
-44.100000000000023
 31
0.0
  0
LINE
  8
DETAIL
  6
CONTINUOUS
 62
     5
 10
-26.10000000000036
 20
-53.100000000000023
 30
0.0
 11
-18.89999999999964
 21
-53.100000000000023
 31
0.0
  0
LINE
  8
DETAIL
  6
CONTINUOUS
 62
     5
 10
-18.89999999999964
 20
-45.900000000000091
 30
0.0
 11
-18.89999999999964
 21
-53.100000000000023
 31
0.0
  0
LINE
  8
DETAIL
  6
CONTINUOUS
 62
     5
 10
-26.10000000000036
 20
-45.900000000000091
 30
0.0
 11
-18.89999999999964
 21
-45.900000000000091
 31
0.0
  0
LINE
  8
DETAIL
  6
CONTINUOUS
 62
     5
 10
-26.10000000000036
 20
-45.900000000000091
 30
0.0
 11
-26.10000000000036
 21
-53.100000000000023
 31
0.0
  0
LINE
  8
DETAIL
  6
CONTINUOUS
 62
     5
 10
-62.100000000000357
 20
-63.900000000000091
 30
0.0
 11
-62.100000000000357
 21
-71.100000000000023
 31
0.0
  0
LINE
  8
DETAIL
  6
CONTINUOUS
 62
     5
 10
-27.89999999999964
 20
-45.900000000000091
 30
0.0
 11
-27.89999999999964
 21
-53.100000000000023
 31
0.0
  0
LINE
  8
DETAIL
  6
CONTINUOUS
 62
     5
 10
-71.100000000000364
 20
-71.100000000000023
 30
0.0
 11
-63.899999999999643
 21
-71.100000000000023
 31
0.0
  0
LINE
  8
DETAIL
  6
CONTINUOUS
 62
     5
 10
-17.10000000000036
 20
-62.100000000000023
 30
0.0
 11
-9.8999999999996362
 21
-62.100000000000023
 31
0.0
  0
LINE
  8
DETAIL
  6
CONTINUOUS
 62
     5
 10
-35.100000000000357
 20
-35.100000000000023
 30
0.0
 11
-27.89999999999964
 21
-35.100000000000023
 31
0.0
  0
LINE
  8
DETAIL
  6
CONTINUOUS
 62
     5
 10
-9.8999999999996362
 20
-54.900000000000091
 30
0.0
 11
-9.8999999999996362
 21
-62.100000000000023
 31
0.0
  0
LINE
  8
DETAIL
  6
CONTINUOUS
 62
     5
 10
-63.899999999999643
 20
-63.900000000000091
 30
0.0
 11
-63.899999999999643
 21
-71.100000000000023
 31
0.0
  0
LINE
  8
DETAIL
  6
CONTINUOUS
 62
     5
 10
-17.10000000000036
 20
-54.900000000000091
 30
0.0
 11
-9.8999999999996362
 21
-54.900000000000091
 31
0.0
  0
LINE
  8
DETAIL
  6
CONTINUOUS
 62
     5
 10
-71.100000000000364
 20
-63.900000000000091
 30
0.0
 11
-63.899999999999643
 21
-63.900000000000091
 31
0.0
  0
LINE
  8
DETAIL
  6
CONTINUOUS
 62
     5
 10
-17.10000000000036
 20
-54.900000000000091
 30
0.0
 11
-17.10000000000036
 21
-62.100000000000023
 31
0.0
  0
LINE
  8
DETAIL
  6
CONTINUOUS
 62
     5
 10
-71.100000000000364
 20
-63.900000000000091
 30
0.0
 11
-71.100000000000364
 21
-71.100000000000023
 31
0.0
  0
LINE
  8
DETAIL
  6
CONTINUOUS
 62
     5
 10
-26.10000000000036
 20
-62.100000000000023
 30
0.0
 11
-18.89999999999964
 21
-62.100000000000023
 31
0.0
  0
LINE
  8
DETAIL
  6
CONTINUOUS
 62
     5
 10
-35.100000000000357
 20
-27.900000000000091
 30
0.0
 11
-35.100000000000357
 21
-35.100000000000023
 31
0.0
  0
LINE
  8
DETAIL
  6
CONTINUOUS
 62
     5
 10
-18.89999999999964
 20
-54.900000000000091
 30
0.0
 11
-18.89999999999964
 21
-62.100000000000023
 31
0.0
  0
LINE
  8
DETAIL
  6
CONTINUOUS
 62
     5
 10
-80.100000000000364
 20
-71.100000000000023
 30
0.0
 11
-72.899999999999636
 21
-71.100000000000023
 31
0.0
  0
LINE
  8
DETAIL
  6
CONTINUOUS
 62
     5
 10
-26.10000000000036
 20
-54.900000000000091
 30
0.0
 11
-18.89999999999964
 21
-54.900000000000091
 31
0.0
  0
LINE
  8
DETAIL
  6
CONTINUOUS
 62
     5
 10
-72.899999999999636
 20
-63.900000000000091
 30
0.0
 11
-72.899999999999636
 21
-71.100000000000023
 31
0.0
  0
LINE
  8
DETAIL
  6
CONTINUOUS
 62
     5
 10
-26.10000000000036
 20
-54.900000000000091
 30
0.0
 11
-26.10000000000036
 21
-62.100000000000023
 31
0.0
  0
LINE
  8
DETAIL
  6
CONTINUOUS
 62
     5
 10
-80.100000000000364
 20
-63.900000000000091
 30
0.0
 11
-72.899999999999636
 21
-63.900000000000091
 31
0.0
  0
LINE
  8
DETAIL
  6
CONTINUOUS
 62
     5
 10
-27.89999999999964
 20
-54.900000000000091
 30
0.0
 11
-27.89999999999964
 21
-62.100000000000023
 31
0.0
  0
LINE
  8
DETAIL
  6
CONTINUOUS
 62
     5
 10
-80.100000000000364
 20
-63.900000000000091
 30
0.0
 11
-80.100000000000364
 21
-71.100000000000023
 31
0.0
  0
LINE
  8
DETAIL
  6
CONTINUOUS
 62
     5
 10
-8.1000000000003638
 20
-62.100000000000023
 30
0.0
 11
-0.8999999999996362
 21
-62.100000000000023
 31
0.0
  0
LINE
  8
DETAIL
  6
CONTINUOUS
 62
     5
 10
-35.100000000000357
 20
-80.100000000000023
 30
0.0
 11
-27.89999999999964
 21
-80.100000000000023
 31
0.0
  0
LINE
  8
DETAIL
  6
CONTINUOUS
 62
     5
 10
-8.1000000000003638
 20
-54.900000000000091
 30
0.0
 11
-0.8999999999996362
 21
-54.900000000000091
 31
0.0
  0
LINE
  8
DETAIL
  6
CONTINUOUS
 62
     5
 10
-35.100000000000357
 20
-72.900000000000091
 30
0.0
 11
-27.89999999999964
 21
-72.900000000000091
 31
0.0
  0
LINE
  8
DETAIL
  6
CONTINUOUS
 62
     5
 10
-8.1000000000003638
 20
-54.900000000000091
 30
0.0
 11
-8.1000000000003638
 21
-62.100000000000023
 31
0.0
  0
LINE
  8
DETAIL
  6
CONTINUOUS
 62
     5
 10
-35.100000000000357
 20
-72.900000000000091
 30
0.0
 11
-35.100000000000357
 21
-80.100000000000023
 31
0.0
  0
LINE
  8
DETAIL
  6
CONTINUOUS
 62
     5
 10
-8.1000000000003638
 20
-53.100000000000023
 30
0.0
 11
-0.8999999999996362
 21
-53.100000000000023
 31
0.0
  0
LINE
  8
DETAIL
  6
CONTINUOUS
 62
     5
 10
-44.100000000000357
 20
-80.100000000000023
 30
0.0
 11
-36.899999999999643
 21
-80.100000000000023
 31
0.0
  0
LINE
  8
DETAIL
  6
CONTINUOUS
 62
     5
 10
-8.1000000000003638
 20
-45.900000000000091
 30
0.0
 11
-0.8999999999996362
 21
-45.900000000000091
 31
0.0
  0
LINE
  8
DETAIL
  6
CONTINUOUS
 62
     5
 10
-36.899999999999643
 20
-72.900000000000091
 30
0.0
 11
-36.899999999999643
 21
-80.100000000000023
 31
0.0
  0
LINE
  8
DETAIL
  6
CONTINUOUS
 62
     5
 10
-8.1000000000003638
 20
-45.900000000000091
 30
0.0
 11
-8.1000000000003638
 21
-53.100000000000023
 31
0.0
  0
LINE
  8
DETAIL
  6
CONTINUOUS
 62
     5
 10
-44.100000000000357
 20
-72.900000000000091
 30
0.0
 11
-36.899999999999643
 21
-72.900000000000091
 31
0.0
  0
LINE
  8
DETAIL
  6
CONTINUOUS
 62
     5
 10
-8.1000000000003638
 20
-71.100000000000023
 30
0.0
 11
-0.8999999999996362
 21
-71.100000000000023
 31
0.0
  0
LINE
  8
DETAIL
  6
CONTINUOUS
 62
     5
 10
-44.100000000000357
 20
-72.900000000000091
 30
0.0
 11
-44.100000000000357
 21
-80.100000000000023
 31
0.0
  0
LINE
  8
DETAIL
  6
CONTINUOUS
 62
     5
 10
-17.10000000000036
 20
-53.100000000000023
 30
0.0
 11
-9.8999999999996362
 21
-53.100000000000023
 31
0.0
  0
LINE
  8
DETAIL
  6
CONTINUOUS
 62
     5
 10
-53.100000000000357
 20
-80.100000000000023
 30
0.0
 11
-45.899999999999643
 21
-80.100000000000023
 31
0.0
  0
LINE
  8
DETAIL
  6
CONTINUOUS
 62
     5
 10
-9.8999999999996362
 20
-45.900000000000091
 30
0.0
 11
-9.8999999999996362
 21
-53.100000000000023
 31
0.0
  0
LINE
  8
DETAIL
  6
CONTINUOUS
 62
     5
 10
-45.899999999999643
 20
-72.900000000000091
 30
0.0
 11
-45.899999999999643
 21
-80.100000000000023
 31
0.0
  0
LINE
  8
DETAIL
  6
CONTINUOUS
 62
     5
 10
-8.1000000000003638
 20
-63.900000000000091
 30
0.0
 11
-0.8999999999996362
 21
-63.900000000000091
 31
0.0
  0
LINE
  8
DETAIL
  6
CONTINUOUS
 62
     5
 10
-53.100000000000357
 20
-72.900000000000091
 30
0.0
 11
-45.899999999999643
 21
-72.900000000000091
 31
0.0
  0
LINE
  8
DETAIL
  6
CONTINUOUS
 62
     5
 10
-17.10000000000036
 20
-45.900000000000091
 30
0.0
 11
-9.8999999999996362
 21
-45.900000000000091
 31
0.0
  0
LINE
  8
DETAIL
  6
CONTINUOUS
 62
     5
 10
-53.100000000000357
 20
-72.900000000000091
 30
0.0
 11
-53.100000000000357
 21
-80.100000000000023
 31
0.0
  0
LINE
  8
DETAIL
  6
CONTINUOUS
 62
     5
 10
-8.1000000000003638
 20
-63.900000000000091
 30
0.0
 11
-8.1000000000003638
 21
-71.100000000000023
 31
0.0
  0
LINE
  8
DETAIL
  6
CONTINUOUS
 62
     5
 10
-62.100000000000357
 20
-80.100000000000023
 30
0.0
 11
-54.899999999999643
 21
-80.100000000000023
 31
0.0
  0
LINE
  8
DETAIL
  6
CONTINUOUS
 62
     5
 10
-17.10000000000036
 20
-45.900000000000091
 30
0.0
 11
-17.10000000000036
 21
-53.100000000000023
 31
0.0
  0
LINE
  8
DETAIL
  6
CONTINUOUS
 62
     5
 10
-54.899999999999643
 20
-72.900000000000091
 30
0.0
 11
-54.899999999999643
 21
-80.100000000000023
 31
0.0
  0
LINE
  8
DETAIL
  6
CONTINUOUS
 62
     5
 10
-17.10000000000036
 20
-71.100000000000023
 30
0.0
 11
-9.8999999999996362
 21
-71.100000000000023
 31
0.0
  0
LINE
  8
DETAIL
  6
CONTINUOUS
 62
     5
 10
-62.100000000000357
 20
-72.900000000000091
 30
0.0
 11
-54.899999999999643
 21
-72.900000000000091
 31
0.0
  0
LINE
  8
DETAIL
  6
CONTINUOUS
 62
     5
 10
-8.1000000000003638
 20
-44.100000000000023
 30
0.0
 11
-0.8999999999996362
 21
-44.100000000000023
 31
0.0
  0
LINE
  8
DETAIL
  6
CONTINUOUS
 62
     5
 10
-62.100000000000357
 20
-72.900000000000091
 30
0.0
 11
-62.100000000000357
 21
-80.100000000000023
 31
0.0
  0
LINE
  8
DETAIL
  6
CONTINUOUS
 62
     5
 10
-9.8999999999996362
 20
-63.900000000000091
 30
0.0
 11
-9.8999999999996362
 21
-71.100000000000023
 31
0.0
  0
LINE
  8
DETAIL
  6
CONTINUOUS
 62
     5
 10
-71.100000000000364
 20
-80.100000000000023
 30
0.0
 11
-63.899999999999643
 21
-80.100000000000023
 31
0.0
  0
LINE
  8
DETAIL
  6
CONTINUOUS
 62
     5
 10
-17.10000000000036
 20
-63.900000000000091
 30
0.0
 11
-9.8999999999996362
 21
-63.900000000000091
 31
0.0
  0
LINE
  8
DETAIL
  6
CONTINUOUS
 62
     5
 10
-63.899999999999643
 20
-72.900000000000091
 30
0.0
 11
-63.899999999999643
 21
-80.100000000000023
 31
0.0
  0
LINE
  8
DETAIL
  6
CONTINUOUS
 62
     5
 10
-8.1000000000003638
 20
-36.900000000000091
 30
0.0
 11
-0.8999999999996362
 21
-36.900000000000091
 31
0.0
  0
LINE
  8
DETAIL
  6
CONTINUOUS
 62
     5
 10
-71.100000000000364
 20
-72.900000000000091
 30
0.0
 11
-63.899999999999643
 21
-72.900000000000091
 31
0.0
  0
LINE
  8
DETAIL
  6
CONTINUOUS
 62
     5
 10
-17.10000000000036
 20
-63.900000000000091
 30
0.0
 11
-17.10000000000036
 21
-71.100000000000023
 31
0.0
  0
LINE
  8
DETAIL
  6
CONTINUOUS
 62
     5
 10
-71.100000000000364
 20
-72.900000000000091
 30
0.0
 11
-71.100000000000364
 21
-80.100000000000023
 31
0.0
  0
LINE
  8
DETAIL
  6
CONTINUOUS
 62
     5
 10
-8.1000000000003638
 20
-36.900000000000091
 30
0.0
 11
-8.1000000000003638
 21
-44.100000000000023
 31
0.0
  0
LINE
  8
DETAIL
  6
CONTINUOUS
 62
     5
 10
-80.100000000000364
 20
-80.100000000000023
 30
0.0
 11
-72.899999999999636
 21
-80.100000000000023
 31
0.0
  0
LINE
  8
DETAIL
  6
CONTINUOUS
 62
     5
 10
-26.10000000000036
 20
-71.100000000000023
 30
0.0
 11
-18.89999999999964
 21
-71.100000000000023
 31
0.0
  0
LINE
  8
DETAIL
  6
CONTINUOUS
 62
     5
 10
-72.899999999999636
 20
-72.900000000000091
 30
0.0
 11
-72.899999999999636
 21
-80.100000000000023
 31
0.0
  0
LINE
  8
DETAIL
  6
CONTINUOUS
 62
     5
 10
-17.10000000000036
 20
-44.100000000000023
 30
0.0
 11
-9.8999999999996362
 21
-44.100000000000023
 31
0.0
  0
LINE
  8
DETAIL
  6
CONTINUOUS
 62
     5
 10
-80.100000000000364
 20
-72.900000000000091
 30
0.0
 11
-72.899999999999636
 21
-72.900000000000091
 31
0.0
  0
LINE
  8
DETAIL
  6
CONTINUOUS
 62
     5
 10
-18.89999999999964
 20
-63.900000000000091
 30
0.0
 11
-18.89999999999964
 21
-71.100000000000023
 31
0.0
  0
LINE
  8
DETAIL
  6
CONTINUOUS
 62
     5
 10
-80.100000000000364
 20
-72.900000000000091
 30
0.0
 11
-80.100000000000364
 21
-80.100000000000023
 31
0.0
  0
LINE
  8
DETAIL
  6
CONTINUOUS
 62
     5
 10
-9.8999999999996362
 20
-36.900000000000091
 30
0.0
 11
-9.8999999999996362
 21
-44.100000000000023
 31
0.0
  0
LINE
  8
DETAIL
  6
CONTINUOUS
 62
     5
 10
-84.0
 20
-87.5
 30
0.0
 11
-82.5
 21
-86.0
 31
0.0
  0
LINE
  8
DETAIL
  6
CONTINUOUS
 62
     5
 10
-26.10000000000036
 20
-63.900000000000091
 30
0.0
 11
-18.89999999999964
 21
-63.900000000000091
 31
0.0
  0
LINE
  8
DETAIL
  6
CONTINUOUS
 62
     5
 10
-87.5
 20
-84.0
 30
0.0
 11
-86.0
 21
-82.5
 31
0.0
  0
LINE
  8
DETAIL
  6
CONTINUOUS
 62
     5
 10
-17.10000000000036
 20
-36.900000000000091
 30
0.0
 11
-9.8999999999996362
 21
-36.900000000000091
 31
0.0
  0
LINE
  8
DETAIL
  6
CONTINUOUS
 62
     5
 10
-44.100000000000357
 20
-35.100000000000023
 30
0.0
 11
-36.899999999999643
 21
-35.100000000000023
 31
0.0
  0
LINE
  8
DETAIL
  6
CONTINUOUS
 62
     5
 10
-26.10000000000036
 20
-63.900000000000091
 30
0.0
 11
-26.10000000000036
 21
-71.100000000000023
 31
0.0
  0
LINE
  8
DETAIL
  6
CONTINUOUS
 62
     5
 10
-36.899999999999643
 20
-27.900000000000091
 30
0.0
 11
-36.899999999999643
 21
-35.100000000000023
 31
0.0
  0
LINE
  8
DETAIL
  6
CONTINUOUS
 62
     5
 10
-17.10000000000036
 20
-36.900000000000091
 30
0.0
 11
-17.10000000000036
 21
-44.100000000000023
 31
0.0
  0
LINE
  8
DETAIL
  6
CONTINUOUS
 62
     5
 10
-44.100000000000357
 20
-27.900000000000091
 30
0.0
 11
-44.100000000000357
 21
-35.100000000000023
 31
0.0
  0
LINE
  8
DETAIL
  6
CONTINUOUS
 62
     5
 10
-26.10000000000036
 20
-44.100000000000023
 30
0.0
 11
-18.89999999999964
 21
-44.100000000000023
 31
0.0
  0
LINE
  8
DETAIL
  6
CONTINUOUS
 62
     5
 10
-53.100000000000357
 20
-35.100000000000023
 30
0.0
 11
-45.899999999999643
 21
-35.100000000000023
 31
0.0
  0
LINE
  8
DETAIL
  6
CONTINUOUS
 62
     5
 10
-27.89999999999964
 20
-63.900000000000091
 30
0.0
 11
-27.89999999999964
 21
-71.100000000000023
 31
0.0
  0
LINE
  8
DETAIL
  6
CONTINUOUS
 62
     5
 10
-45.899999999999643
 20
-27.900000000000091
 30
0.0
 11
-45.899999999999643
 21
-35.100000000000023
 31
0.0
  0
LINE
  8
DETAIL
  6
CONTINUOUS
 62
     5
 10
-18.89999999999964
 20
-36.900000000000091
 30
0.0
 11
-18.89999999999964
 21
-44.100000000000023
 31
0.0
  0
LINE
  8
DETAIL
  6
CONTINUOUS
 62
     5
 10
-53.100000000000357
 20
-27.900000000000091
 30
0.0
 11
-53.100000000000357
 21
-35.100000000000023
 31
0.0
  0
LINE
  8
DETAIL
  6
CONTINUOUS
 62
     5
 10
-26.10000000000036
 20
-36.900000000000091
 30
0.0
 11
-18.89999999999964
 21
-36.900000000000091
 31
0.0
  0
LINE
  8
DETAIL
  6
CONTINUOUS
 62
     5
 10
-62.100000000000357
 20
-35.100000000000023
 30
0.0
 11
-54.899999999999643
 21
-35.100000000000023
 31
0.0
  0
LINE
  8
DETAIL
  6
CONTINUOUS
 62
     5
 10
-26.10000000000036
 20
-36.900000000000091
 30
0.0
 11
-26.10000000000036
 21
-44.100000000000023
 31
0.0
  0
LINE
  8
DETAIL
  6
CONTINUOUS
 62
     5
 10
-54.899999999999643
 20
-27.900000000000091
 30
0.0
 11
-54.899999999999643
 21
-35.100000000000023
 31
0.0
  0
LINE
  8
DETAIL
  6
CONTINUOUS
 62
     5
 10
-8.1000000000003638
 20
-35.100000000000023
 30
0.0
 11
-0.8999999999996362
 21
-35.100000000000023
 31
0.0
  0
LINE
  8
DETAIL
  6
CONTINUOUS
 62
     5
 10
-62.100000000000357
 20
-27.900000000000091
 30
0.0
 11
-62.100000000000357
 21
-35.100000000000023
 31
0.0
  0
LINE
  8
DETAIL
  6
CONTINUOUS
 62
     5
 10
-8.1000000000003638
 20
-27.900000000000091
 30
0.0
 11
-0.8999999999996362
 21
-27.900000000000091
 31
0.0
  0
LINE
  8
DETAIL
  6
CONTINUOUS
 62
     5
 10
-71.100000000000364
 20
-35.100000000000023
 30
0.0
 11
-63.899999999999643
 21
-35.100000000000023
 31
0.0
  0
LINE
  8
DETAIL
  6
CONTINUOUS
 62
     5
 10
-8.1000000000003638
 20
-27.900000000000091
 30
0.0
 11
-8.1000000000003638
 21
-35.100000000000023
 31
0.0
  0
LINE
  8
DETAIL
  6
CONTINUOUS
 62
     5
 10
-63.899999999999643
 20
-27.900000000000091
 30
0.0
 11
-63.899999999999643
 21
-35.100000000000023
 31
0.0
  0
LINE
  8
DETAIL
  6
CONTINUOUS
 62
     5
 10
-17.10000000000036
 20
-35.100000000000023
 30
0.0
 11
-9.8999999999996362
 21
-35.100000000000023
 31
0.0
  0
LINE
  8
DETAIL
  6
CONTINUOUS
 62
     5
 10
-71.100000000000364
 20
-27.900000000000091
 30
0.0
 11
-71.100000000000364
 21
-35.100000000000023
 31
0.0
  0
LINE
  8
DETAIL
  6
CONTINUOUS
 62
     5
 10
-9.8999999999996362
 20
-27.900000000000091
 30
0.0
 11
-9.8999999999996362
 21
-35.100000000000023
 31
0.0
  0
LINE
  8
DETAIL
  6
CONTINUOUS
 62
     5
 10
-80.100000000000364
 20
-35.100000000000023
 30
0.0
 11
-72.899999999999636
 21
-35.100000000000023
 31
0.0
  0
LINE
  8
DETAIL
  6
CONTINUOUS
 62
     5
 10
-17.10000000000036
 20
-27.900000000000091
 30
0.0
 11
-9.8999999999996362
 21
-27.900000000000091
 31
0.0
  0
LINE
  8
DETAIL
  6
CONTINUOUS
 62
     5
 10
-72.899999999999636
 20
-27.900000000000091
 30
0.0
 11
-72.899999999999636
 21
-35.100000000000023
 31
0.0
  0
LINE
  8
DETAIL
  6
CONTINUOUS
 62
     5
 10
-17.10000000000036
 20
-27.900000000000091
 30
0.0
 11
-17.10000000000036
 21
-35.100000000000023
 31
0.0
  0
LINE
  8
DETAIL
  6
CONTINUOUS
 62
     5
 10
-80.100000000000364
 20
-27.900000000000091
 30
0.0
 11
-80.100000000000364
 21
-35.100000000000023
 31
0.0
  0
LINE
  8
DETAIL
  6
CONTINUOUS
 62
     5
 10
-26.10000000000036
 20
-35.100000000000023
 30
0.0
 11
-18.89999999999964
 21
-35.100000000000023
 31
0.0
  0
LINE
  8
DETAIL
  6
CONTINUOUS
 62
     5
 10
-35.100000000000357
 20
-44.100000000000023
 30
0.0
 11
-27.89999999999964
 21
-44.100000000000023
 31
0.0
  0
LINE
  8
DETAIL
  6
CONTINUOUS
 62
     5
 10
-18.89999999999964
 20
-27.900000000000091
 30
0.0
 11
-18.89999999999964
 21
-35.100000000000023
 31
0.0
  0
LINE
  8
DETAIL
  6
CONTINUOUS
 62
     5
 10
-35.100000000000357
 20
-36.900000000000091
 30
0.0
 11
-27.89999999999964
 21
-36.900000000000091
 31
0.0
  0
LINE
  8
DETAIL
  6
CONTINUOUS
 62
     5
 10
-35.100000000000357
 20
-36.900000000000091
 30
0.0
 11
-35.100000000000357
 21
-44.100000000000023
 31
0.0
  0
LINE
  8
DETAIL
  6
CONTINUOUS
 62
     5
 10
-44.100000000000357
 20
-44.100000000000023
 30
0.0
 11
-36.899999999999643
 21
-44.100000000000023
 31
0.0
  0
ARC
  8
DETAIL
  6
CONTINUOUS
 62
     5
 10
-117.20564899999999
 20
-117.20564899999999
 30
0.0
 40
1.0
 50
180.0
 51
270.0
  0
LINE
  8
DETAIL
  6
CONTINUOUS
 62
     5
 10
-36.899999999999643
 20
-36.900000000000091
 30
0.0
 11
-36.899999999999643
 21
-44.100000000000023
 31
0.0
  0
ARC
  8
DETAIL
  6
CONTINUOUS
 62
     5
 10
-124.0
 20
-124.0
 30
0.0
 40
1.0
 50
180.0
 51
270.0
  0
LINE
  8
DETAIL
  6
CONTINUOUS
 62
     5
 10
-44.100000000000357
 20
-36.900000000000091
 30
0.0
 11
-36.899999999999643
 21
-36.900000000000091
 31
0.0
  0
LINE
  8
DETAIL
  6
CONTINUOUS
 62
     5
 10
-8.1000000000003638
 20
-0.900000000000091
 30
0.0
 11
-0.8999999999996362
 21
-0.900000000000091
 31
0.0
  0
LINE
  8
DETAIL
  6
CONTINUOUS
 62
     5
 10
-44.100000000000357
 20
-36.900000000000091
 30
0.0
 11
-44.100000000000357
 21
-44.100000000000023
 31
0.0
  0
LINE
  8
DETAIL
  6
CONTINUOUS
 62
     5
 10
-17.10000000000036
 20
-0.900000000000091
 30
0.0
 11
-9.8999999999996362
 21
-0.900000000000091
 31
0.0
  0
LINE
  8
DETAIL
  6
CONTINUOUS
 62
     5
 10
-53.100000000000357
 20
-44.100000000000023
 30
0.0
 11
-45.899999999999643
 21
-44.100000000000023
 31
0.0
  0
LINE
  8
DETAIL
  6
CONTINUOUS
 62
     5
 10
-26.10000000000036
 20
-0.900000000000091
 30
0.0
 11
-18.89999999999964
 21
-0.900000000000091
 31
0.0
  0
LINE
  8
DETAIL
  6
CONTINUOUS
 62
     5
 10
-45.899999999999643
 20
-36.900000000000091
 30
0.0
 11
-45.899999999999643
 21
-44.100000000000023
 31
0.0
  0
LINE
  8
DETAIL
  6
CONTINUOUS
 62
     5
 10
-35.100000000000357
 20
-0.900000000000091
 30
0.0
 11
-27.89999999999964
 21
-0.900000000000091
 31
0.0
  0
LINE
  8
DETAIL
  6
CONTINUOUS
 62
     5
 10
-53.100000000000357
 20
-36.900000000000091
 30
0.0
 11
-45.899999999999643
 21
-36.900000000000091
 31
0.0
  0
LINE
  8
DETAIL
  6
CONTINUOUS
 62
     5
 10
-44.100000000000357
 20
-0.900000000000091
 30
0.0
 11
-36.899999999999643
 21
-0.900000000000091
 31
0.0
  0
LINE
  8
DETAIL
  6
CONTINUOUS
 62
     5
 10
-53.100000000000357
 20
-36.900000000000091
 30
0.0
 11
-53.100000000000357
 21
-44.100000000000023
 31
0.0
  0
LINE
  8
DETAIL
  6
CONTINUOUS
 62
     5
 10
-53.100000000000357
 20
-0.900000000000091
 30
0.0
 11
-45.899999999999643
 21
-0.900000000000091
 31
0.0
  0
LINE
  8
DETAIL
  6
CONTINUOUS
 62
     5
 10
-62.100000000000357
 20
-44.100000000000023
 30
0.0
 11
-54.899999999999643
 21
-44.100000000000023
 31
0.0
  0
LINE
  8
DETAIL
  6
CONTINUOUS
 62
     5
 10
-62.100000000000357
 20
-0.900000000000091
 30
0.0
 11
-54.899999999999643
 21
-0.900000000000091
 31
0.0
  0
LINE
  8
DETAIL
  6
CONTINUOUS
 62
     5
 10
-54.899999999999643
 20
-36.900000000000091
 30
0.0
 11
-54.899999999999643
 21
-44.100000000000023
 31
0.0
  0
LINE
  8
DETAIL
  6
CONTINUOUS
 62
     5
 10
-71.100000000000364
 20
-0.900000000000091
 30
0.0
 11
-63.899999999999643
 21
-0.900000000000091
 31
0.0
  0
LINE
  8
DETAIL
  6
CONTINUOUS
 62
     5
 10
-62.100000000000357
 20
-36.900000000000091
 30
0.0
 11
-54.899999999999643
 21
-36.900000000000091
 31
0.0
  0
LINE
  8
DETAIL
  6
CONTINUOUS
 62
     5
 10
-80.100000000000364
 20
-0.900000000000091
 30
0.0
 11
-72.899999999999636
 21
-0.900000000000091
 31
0.0
  0
LINE
  8
DETAIL
  6
CONTINUOUS
 62
     5
 10
-62.100000000000357
 20
-36.900000000000091
 30
0.0
 11
-62.100000000000357
 21
-44.100000000000023
 31
0.0
  0
LINE
  8
DETAIL
  6
CONTINUOUS
 62
     5
 10
-0.8999999999996362
 20
-18.900000000000091
 30
0.0
 11
-0.8999999999996362
 21
-26.100000000000019
 31
0.0
  0
LINE
  8
DETAIL
  6
CONTINUOUS
 62
     5
 10
-71.100000000000364
 20
-44.100000000000023
 30
0.0
 11
-63.899999999999643
 21
-44.100000000000023
 31
0.0
  0
LINE
  8
DETAIL
  6
CONTINUOUS
 62
     5
 10
-0.8999999999996362
 20
-72.900000000000091
 30
0.0
 11
-0.8999999999996362
 21
-80.100000000000023
 31
0.0
  0
LINE
  8
DETAIL
  6
CONTINUOUS
 62
     5
 10
-63.899999999999643
 20
-36.900000000000091
 30
0.0
 11
-63.899999999999643
 21
-44.100000000000023
 31
0.0
  0
LINE
  8
DETAIL
  6
CONTINUOUS
 62
     5
 10
-0.8999999999996362
 20
-9.9000000000000909
 30
0.0
 11
-0.8999999999996362
 21
-17.100000000000019
 31
0.0
  0
LINE
  8
DETAIL
  6
CONTINUOUS
 62
     5
 10
-71.100000000000364
 20
-36.900000000000091
 30
0.0
 11
-63.899999999999643
 21
-36.900000000000091
 31
0.0
  0
LINE
  8
DETAIL
  6
CONTINUOUS
 62
     5
 10
-0.8999999999996362
 20
-0.900000000000091
 30
0.0
 11
-0.8999999999996362
 21
-8.1000000000000227
 31
0.0
  0
LINE
  8
DETAIL
  6
CONTINUOUS
 62
     5
 10
-71.100000000000364
 20
-36.900000000000091
 30
0.0
 11
-71.100000000000364
 21
-44.100000000000023
 31
0.0
  0
LINE
  8
DETAIL
  6
CONTINUOUS
 62
     5
 10
-0.8999999999996362
 20
-54.900000000000091
 30
0.0
 11
-0.8999999999996362
 21
-62.100000000000023
 31
0.0
  0
LINE
  8
DETAIL
  6
CONTINUOUS
 62
     5
 10
-80.100000000000364
 20
-44.100000000000023
 30
0.0
 11
-72.899999999999636
 21
-44.100000000000023
 31
0.0
  0
LINE
  8
DETAIL
  6
CONTINUOUS
 62
     5
 10
-0.8999999999996362
 20
-45.900000000000091
 30
0.0
 11
-0.8999999999996362
 21
-53.100000000000023
 31
0.0
  0
LINE
  8
DETAIL
  6
CONTINUOUS
 62
     5
 10
-72.899999999999636
 20
-36.900000000000091
 30
0.0
 11
-72.899999999999636
 21
-44.100000000000023
 31
0.0
  0
LINE
  8
DETAIL
  6
CONTINUOUS
 62
     5
 10
-0.8999999999996362
 20
-63.900000000000091
 30
0.0
 11
-0.8999999999996362
 21
-71.100000000000023
 31
0.0
  0
LINE
  8
DETAIL
  6
CONTINUOUS
 62
     5
 10
-80.100000000000364
 20
-36.900000000000091
 30
0.0
 11
-72.899999999999636
 21
-36.900000000000091
 31
0.0
  0
LINE
  8
DETAIL
  6
CONTINUOUS
 62
     5
 10
-0.8999999999996362
 20
-36.900000000000091
 30
0.0
 11
-0.8999999999996362
 21
-44.100000000000023
 31
0.0
  0
LINE
  8
DETAIL
  6
CONTINUOUS
 62
     5
 10
-80.100000000000364
 20
-36.900000000000091
 30
0.0
 11
-80.100000000000364
 21
-44.100000000000023
 31
0.0
  0
LINE
  8
DETAIL
  6
CONTINUOUS
 62
     5
 10
-0.8999999999996362
 20
-27.900000000000091
 30
0.0
 11
-0.8999999999996362
 21
-35.100000000000023
 31
0.0
  0
LINE
  8
DETAIL
  6
CONTINUOUS
 62
     5
 10
-35.100000000000357
 20
-53.100000000000023
 30
0.0
 11
-27.89999999999964
 21
-53.100000000000023
 31
0.0
  0
LINE
  8
DETAIL
  6
CONTINUOUS
 62
     5
 10
-35.100000000000357
 20
-45.900000000000091
 30
0.0
 11
-27.89999999999964
 21
-45.900000000000091
 31
0.0
  0
LINE
  8
DETAIL
  6
CONTINUOUS
 62
     5
 10
-35.100000000000357
 20
-45.900000000000091
 30
0.0
 11
-35.100000000000357
 21
-53.100000000000023
 31
0.0
  0
LINE
  8
DETAIL
  6
CONTINUOUS
 62
     5
 10
-44.100000000000357
 20
-53.100000000000023
 30
0.0
 11
-36.899999999999643
 21
-53.100000000000023
 31
0.0
  0
LINE
  8
DETAIL
  6
CONTINUOUS
 62
     5
 10
-36.899999999999643
 20
-45.900000000000091
 30
0.0
 11
-36.899999999999643
 21
-53.100000000000023
 31
0.0
  0
LINE
  8
DETAIL
  6
CONTINUOUS
 62
     5
 10
-44.100000000000357
 20
-45.900000000000091
 30
0.0
 11
-36.899999999999643
 21
-45.900000000000091
 31
0.0
  0
LINE
  8
DETAIL
  6
CONTINUOUS
 62
     5
 10
-44.100000000000357
 20
-45.900000000000091
 30
0.0
 11
-44.100000000000357
 21
-53.100000000000023
 31
0.0
  0
LINE
  8
DETAIL
  6
CONTINUOUS
 62
     5
 10
-53.100000000000357
 20
-53.100000000000023
 30
0.0
 11
-45.899999999999643
 21
-53.100000000000023
 31
0.0
  0
LINE
  8
DETAIL
  6
CONTINUOUS
 62
     5
 10
-45.899999999999643
 20
-45.900000000000091
 30
0.0
 11
-45.899999999999643
 21
-53.100000000000023
 31
0.0
  0
LINE
  8
DETAIL
  6
CONTINUOUS
 62
     5
 10
-53.100000000000357
 20
-45.900000000000091
 30
0.0
 11
-45.899999999999643
 21
-45.900000000000091
 31
0.0
  0
LINE
  8
DETAIL
  6
CONTINUOUS
 62
     5
 10
-53.100000000000357
 20
-45.900000000000091
 30
0.0
 11
-53.100000000000357
 21
-53.100000000000023
 31
0.0
  0
LINE
  8
DETAIL
  6
CONTINUOUS
 62
     5
 10
-62.100000000000357
 20
-53.100000000000023
 30
0.0
 11
-54.899999999999643
 21
-53.100000000000023
 31
0.0
  0
LINE
  8
DETAIL
  6
CONTINUOUS
 62
     5
 10
-54.899999999999643
 20
-45.900000000000091
 30
0.0
 11
-54.899999999999643
 21
-53.100000000000023
 31
0.0
  0
LINE
  8
DETAIL
  6
CONTINUOUS
 62
     5
 10
-62.100000000000357
 20
-45.900000000000091
 30
0.0
 11
-54.899999999999643
 21
-45.900000000000091
 31
0.0
  0
LINE
  8
DETAIL
  6
CONTINUOUS
 62
     5
 10
-62.100000000000357
 20
-45.900000000000091
 30
0.0
 11
-62.100000000000357
 21
-53.100000000000023
 31
0.0
  0
LINE
  8
DETAIL
  6
CONTINUOUS
 62
     5
 10
-71.100000000000364
 20
-53.100000000000023
 30
0.0
 11
-63.899999999999643
 21
-53.100000000000023
 31
0.0
  0
LINE
  8
DETAIL
  6
CONTINUOUS
 62
     5
 10
-63.899999999999643
 20
-45.900000000000091
 30
0.0
 11
-63.899999999999643
 21
-53.100000000000023
 31
0.0
  0
LINE
  8
DETAIL
  6
CONTINUOUS
 62
     5
 10
-71.100000000000364
 20
-45.900000000000091
 30
0.0
 11
-63.899999999999643
 21
-45.900000000000091
 31
0.0
  0
LINE
  8
DETAIL
  6
CONTINUOUS
 62
     5
 10
-71.100000000000364
 20
-45.900000000000091
 30
0.0
 11
-71.100000000000364
 21
-53.100000000000023
 31
0.0
  0
LINE
  8
DETAIL
  6
CONTINUOUS
 62
     5
 10
-80.100000000000364
 20
-53.100000000000023
 30
0.0
 11
-72.899999999999636
 21
-53.100000000000023
 31
0.0
  0
LINE
  8
DETAIL
  6
CONTINUOUS
 62
     5
 10
-72.899999999999636
 20
-45.900000000000091
 30
0.0
 11
-72.899999999999636
 21
-53.100000000000023
 31
0.0
  0
LINE
  8
DETAIL
  6
CONTINUOUS
 62
     5
 10
-80.100000000000364
 20
-45.900000000000091
 30
0.0
 11
-72.899999999999636
 21
-45.900000000000091
 31
0.0
  0
LINE
  8
DETAIL
  6
CONTINUOUS
 62
     5
 10
-80.100000000000364
 20
-45.900000000000091
 30
0.0
 11
-80.100000000000364
 21
-53.100000000000023
 31
0.0
  0
LINE
  8
DETAIL
  6
CONTINUOUS
 62
     5
 10
-35.100000000000357
 20
-62.100000000000023
 30
0.0
 11
-27.89999999999964
 21
-62.100000000000023
 31
0.0
  0
LINE
  8
DETAIL
  6
CONTINUOUS
 62
     5
 10
-35.100000000000357
 20
-54.900000000000091
 30
0.0
 11
-27.89999999999964
 21
-54.900000000000091
 31
0.0
  0
LINE
  8
DETAIL
  6
CONTINUOUS
 62
     5
 10
-35.100000000000357
 20
-54.900000000000091
 30
0.0
 11
-35.100000000000357
 21
-62.100000000000023
 31
0.0
  0
LINE
  8
DETAIL
  6
CONTINUOUS
 62
     5
 10
-44.100000000000357
 20
-62.100000000000023
 30
0.0
 11
-36.899999999999643
 21
-62.100000000000023
 31
0.0
  0
LINE
  8
DETAIL
  6
CONTINUOUS
 62
     5
 10
-36.899999999999643
 20
-54.900000000000091
 30
0.0
 11
-36.899999999999643
 21
-62.100000000000023
 31
0.0
  0
LINE
  8
DETAIL
  6
CONTINUOUS
 62
     5
 10
-44.100000000000357
 20
-54.900000000000091
 30
0.0
 11
-36.899999999999643
 21
-54.900000000000091
 31
0.0
  0
LINE
  8
DETAIL
  6
CONTINUOUS
 62
     5
 10
-44.100000000000357
 20
-54.900000000000091
 30
0.0
 11
-44.100000000000357
 21
-62.100000000000023
 31
0.0
  0
LINE
  8
DETAIL
  6
CONTINUOUS
 62
     5
 10
-53.100000000000357
 20
-62.100000000000023
 30
0.0
 11
-45.899999999999643
 21
-62.100000000000023
 31
0.0
  0
LINE
  8
DETAIL
  6
CONTINUOUS
 62
     5
 10
-45.899999999999643
 20
-54.900000000000091
 30
0.0
 11
-45.899999999999643
 21
-62.100000000000023
 31
0.0
  0
LINE
  8
DETAIL
  6
CONTINUOUS
 62
     5
 10
-53.100000000000357
 20
-54.900000000000091
 30
0.0
 11
-45.899999999999643
 21
-54.900000000000091
 31
0.0
  0
LINE
  8
DETAIL
  6
CONTINUOUS
 62
     5
 10
-53.100000000000357
 20
-54.900000000000091
 30
0.0
 11
-53.100000000000357
 21
-62.100000000000023
 31
0.0
  0
LINE
  8
DETAIL
  6
CONTINUOUS
 62
     5
 10
-62.100000000000357
 20
-62.100000000000023
 30
0.0
 11
-54.899999999999643
 21
-62.100000000000023
 31
0.0
  0
LINE
  8
DETAIL
  6
CONTINUOUS
 62
     5
 10
-54.899999999999643
 20
-54.900000000000091
 30
0.0
 11
-54.899999999999643
 21
-62.100000000000023
 31
0.0
  0
LINE
  8
DETAIL
  6
CONTINUOUS
 62
     5
 10
-62.100000000000357
 20
-54.900000000000091
 30
0.0
 11
-54.899999999999643
 21
-54.900000000000091
 31
0.0
  0
LINE
  8
DETAIL
  6
CONTINUOUS
 62
     5
 10
-62.100000000000357
 20
-54.900000000000091
 30
0.0
 11
-62.100000000000357
 21
-62.100000000000023
 31
0.0
  0
LINE
  8
DETAIL
  6
CONTINUOUS
 62
     5
 10
-71.100000000000364
 20
-62.100000000000023
 30
0.0
 11
-63.899999999999643
 21
-62.100000000000023
 31
0.0
  0
LINE
  8
DETAIL
  6
CONTINUOUS
 62
     5
 10
-63.899999999999643
 20
-54.900000000000091
 30
0.0
 11
-63.899999999999643
 21
-62.100000000000023
 31
0.0
  0
LINE
  8
DETAIL
  6
CONTINUOUS
 62
     5
 10
-71.100000000000364
 20
-54.900000000000091
 30
0.0
 11
-63.899999999999643
 21
-54.900000000000091
 31
0.0
  0
LINE
  8
DETAIL
  6
CONTINUOUS
 62
     5
 10
-71.100000000000364
 20
-54.900000000000091
 30
0.0
 11
-71.100000000000364
 21
-62.100000000000023
 31
0.0
  0
LINE
  8
DETAIL
  6
CONTINUOUS
 62
     5
 10
-80.100000000000364
 20
-62.100000000000023
 30
0.0
 11
-72.899999999999636
 21
-62.100000000000023
 31
0.0
  0
LINE
  8
DETAIL
  6
CONTINUOUS
 62
     5
 10
-72.899999999999636
 20
-54.900000000000091
 30
0.0
 11
-72.899999999999636
 21
-62.100000000000023
 31
0.0
  0
LINE
  8
DETAIL
  6
CONTINUOUS
 62
     5
 10
-80.100000000000364
 20
-54.900000000000091
 30
0.0
 11
-72.899999999999636
 21
-54.900000000000091
 31
0.0
  0
LINE
  8
DETAIL
  6
CONTINUOUS
 62
     5
 10
-80.100000000000364
 20
-54.900000000000091
 30
0.0
 11
-80.100000000000364
 21
-62.100000000000023
 31
0.0
  0
LINE
  8
DETAIL
  6
CONTINUOUS
 62
     5
 10
-35.100000000000357
 20
-71.100000000000023
 30
0.0
 11
-27.89999999999964
 21
-71.100000000000023
 31
0.0
  0
LINE
  8
DETAIL
  6
CONTINUOUS
 62
     5
 10
-35.100000000000357
 20
-63.900000000000091
 30
0.0
 11
-27.89999999999964
 21
-63.900000000000091
 31
0.0
  0
LINE
  8
DETAIL
  6
CONTINUOUS
 62
     5
 10
-35.100000000000357
 20
-63.900000000000091
 30
0.0
 11
-35.100000000000357
 21
-71.100000000000023
 31
0.0
  0
LINE
  8
DETAIL
  6
CONTINUOUS
 62
     5
 10
-44.100000000000357
 20
-71.100000000000023
 30
0.0
 11
-36.899999999999643
 21
-71.100000000000023
 31
0.0
  0
LINE
  8
DETAIL
  6
CONTINUOUS
 62
     5
 10
-36.899999999999643
 20
-63.900000000000091
 30
0.0
 11
-36.899999999999643
 21
-71.100000000000023
 31
0.0
  0
LINE
  8
DETAIL
  6
CONTINUOUS
 62
     5
 10
-44.100000000000357
 20
-63.900000000000091
 30
0.0
 11
-36.899999999999643
 21
-63.900000000000091
 31
0.0
  0
LINE
  8
DETAIL
  6
CONTINUOUS
 62
     5
 10
-44.100000000000357
 20
-63.900000000000091
 30
0.0
 11
-44.100000000000357
 21
-71.100000000000023
 31
0.0
  0
LINE
  8
DETAIL
  6
CONTINUOUS
 62
     5
 10
-53.100000000000357
 20
-71.100000000000023
 30
0.0
 11
-45.899999999999643
 21
-71.100000000000023
 31
0.0
  0
LINE
  8
DETAIL
  6
CONTINUOUS
 62
     5
 10
-45.899999999999643
 20
-63.900000000000091
 30
0.0
 11
-45.899999999999643
 21
-71.100000000000023
 31
0.0
  0
LINE
  8
DETAIL
  6
CONTINUOUS
 62
     5
 10
-53.100000000000357
 20
-63.900000000000091
 30
0.0
 11
-45.899999999999643
 21
-63.900000000000091
 31
0.0
  0
LINE
  8
DETAIL
  6
CONTINUOUS
 62
     5
 10
-53.100000000000357
 20
-63.900000000000091
 30
0.0
 11
-53.100000000000357
 21
-71.100000000000023
 31
0.0
  0
LINE
  8
DETAIL
  6
CONTINUOUS
 62
     5
 10
-62.100000000000357
 20
-71.100000000000023
 30
0.0
 11
-54.899999999999643
 21
-71.100000000000023
 31
0.0
  0
LINE
  8
DETAIL
  6
CONTINUOUS
 62
     5
 10
-54.899999999999643
 20
-63.900000000000091
 30
0.0
 11
-54.899999999999643
 21
-71.100000000000023
 31
0.0
  0
LINE
  8
DETAIL
  6
CONTINUOUS
 62
     5
 10
-62.100000000000357
 20
-63.900000000000091
 30
0.0
 11
-54.899999999999643
 21
-63.900000000000091
 31
0.0
  0
LINE
  8
DETAIL
  6
CONTINUOUS
 62
     5
 10
-26.10000000000036
 20
-27.900000000000091
 30
0.0
 11
-18.89999999999964
 21
-27.900000000000091
 31
0.0
  0
LINE
  8
DETAIL
  6
CONTINUOUS
 62
     5
 10
-26.10000000000036
 20
-27.900000000000091
 30
0.0
 11
-26.10000000000036
 21
-35.100000000000023
 31
0.0
  0
LINE
  8
DETAIL
  6
CONTINUOUS
 62
     5
 10
-27.89999999999964
 20
-27.900000000000091
 30
0.0
 11
-27.89999999999964
 21
-35.100000000000023
 31
0.0
  0
LINE
  8
DETAIL
  6
CONTINUOUS
 62
     5
 10
-35.100000000000357
 20
-27.900000000000091
 30
0.0
 11
-27.89999999999964
 21
-27.900000000000091
 31
0.0
  0
LINE
  8
DETAIL
  6
CONTINUOUS
 62
     5
 10
-8.1000000000003638
 20
-26.100000000000019
 30
0.0
 11
-0.8999999999996362
 21
-26.100000000000019
 31
0.0
  0
LINE
  8
DETAIL
  6
CONTINUOUS
 62
     5
 10
-8.1000000000003638
 20
-18.900000000000091
 30
0.0
 11
-0.8999999999996362
 21
-18.900000000000091
 31
0.0
  0
LINE
  8
DETAIL
  6
CONTINUOUS
 62
     5
 10
-8.1000000000003638
 20
-18.900000000000091
 30
0.0
 11
-8.1000000000003638
 21
-26.100000000000019
 31
0.0
  0
LINE
  8
DETAIL
  6
CONTINUOUS
 62
     5
 10
-8.1000000000003638
 20
-80.100000000000023
 30
0.0
 11
-0.8999999999996362
 21
-80.100000000000023
 31
0.0
  0
LINE
  8
DETAIL
  6
CONTINUOUS
 62
     5
 10
-17.10000000000036
 20
-26.100000000000019
 30
0.0
 11
-9.8999999999996362
 21
-26.100000000000019
 31
0.0
  0
LINE
  8
DETAIL
  6
CONTINUOUS
 62
     5
 10
-9.8999999999996362
 20
-18.900000000000091
 30
0.0
 11
-9.8999999999996362
 21
-26.100000000000019
 31
0.0
  0
LINE
  8
DETAIL
  6
CONTINUOUS
 62
     5
 10
-8.1000000000003638
 20
-72.900000000000091
 30
0.0
 11
-0.8999999999996362
 21
-72.900000000000091
 31
0.0
  0
LINE
  8
DETAIL
  6
CONTINUOUS
 62
     5
 10
-17.10000000000036
 20
-18.900000000000091
 30
0.0
 11
-9.8999999999996362
 21
-18.900000000000091
 31
0.0
  0
LINE
  8
DETAIL
  6
CONTINUOUS
 62
     5
 10
-8.1000000000003638
 20
-72.900000000000091
 30
0.0
 11
-8.1000000000003638
 21
-80.100000000000023
 31
0.0
  0
LINE
  8
DETAIL
  6
CONTINUOUS
 62
     5
 10
-17.10000000000036
 20
-18.900000000000091
 30
0.0
 11
-17.10000000000036
 21
-26.100000000000019
 31
0.0
  0
LINE
  8
DETAIL
  6
CONTINUOUS
 62
     5
 10
-17.10000000000036
 20
-80.100000000000023
 30
0.0
 11
-9.8999999999996362
 21
-80.100000000000023
 31
0.0
  0
LINE
  8
DETAIL
  6
CONTINUOUS
 62
     5
 10
-26.10000000000036
 20
-26.100000000000019
 30
0.0
 11
-18.89999999999964
 21
-26.100000000000019
 31
0.0
  0
LINE
  8
DETAIL
  6
CONTINUOUS
 62
     5
 10
-9.8999999999996362
 20
-72.900000000000091
 30
0.0
 11
-9.8999999999996362
 21
-80.100000000000023
 31
0.0
  0
LINE
  8
DETAIL
  6
CONTINUOUS
 62
     5
 10
-18.89999999999964
 20
-18.900000000000091
 30
0.0
 11
-18.89999999999964
 21
-26.100000000000019
 31
0.0
  0
LINE
  8
DETAIL
  6
CONTINUOUS
 62
     5
 10
-17.10000000000036
 20
-72.900000000000091
 30
0.0
 11
-9.8999999999996362
 21
-72.900000000000091
 31
0.0
  0
LINE
  8
DETAIL
  6
CONTINUOUS
 62
     5
 10
-26.10000000000036
 20
-18.900000000000091
 30
0.0
 11
-18.89999999999964
 21
-18.900000000000091
 31
0.0
  0
LINE
  8
DETAIL
  6
CONTINUOUS
 62
     5
 10
-17.10000000000036
 20
-72.900000000000091
 30
0.0
 11
-17.10000000000036
 21
-80.100000000000023
 31
0.0
  0
LINE
  8
DETAIL
  6
CONTINUOUS
 62
     5
 10
-26.10000000000036
 20
-18.900000000000091
 30
0.0
 11
-26.10000000000036
 21
-26.100000000000019
 31
0.0
  0
LINE
  8
DETAIL
  6
CONTINUOUS
 62
     5
 10
-26.10000000000036
 20
-80.100000000000023
 30
0.0
 11
-18.89999999999964
 21
-80.100000000000023
 31
0.0
  0
LINE
  8
DETAIL
  6
CONTINUOUS
 62
     5
 10
-35.100000000000357
 20
-26.100000000000019
 30
0.0
 11
-27.89999999999964
 21
-26.100000000000019
 31
0.0
  0
LINE
  8
DETAIL
  6
CONTINUOUS
 62
     5
 10
-18.89999999999964
 20
-72.900000000000091
 30
0.0
 11
-18.89999999999964
 21
-80.100000000000023
 31
0.0
  0
LINE
  8
DETAIL
  6
CONTINUOUS
 62
     5
 10
-27.89999999999964
 20
-18.900000000000091
 30
0.0
 11
-27.89999999999964
 21
-26.100000000000019
 31
0.0
  0
LINE
  8
DETAIL
  6
CONTINUOUS
 62
     5
 10
-26.10000000000036
 20
-72.900000000000091
 30
0.0
 11
-18.89999999999964
 21
-72.900000000000091
 31
0.0
  0
LINE
  8
DETAIL
  6
CONTINUOUS
 62
     5
 10
-35.100000000000357
 20
-18.900000000000091
 30
0.0
 11
-27.89999999999964
 21
-18.900000000000091
 31
0.0
  0
LINE
  8
DETAIL
  6
CONTINUOUS
 62
     5
 10
-26.10000000000036
 20
-72.900000000000091
 30
0.0
 11
-26.10000000000036
 21
-80.100000000000023
 31
0.0
  0
LINE
  8
DETAIL
  6
CONTINUOUS
 62
     5
 10
-35.100000000000357
 20
-18.900000000000091
 30
0.0
 11
-35.100000000000357
 21
-26.100000000000019
 31
0.0
  0
LINE
  8
DETAIL
  6
CONTINUOUS
 62
     5
 10
-44.100000000000357
 20
-26.100000000000019
 30
0.0
 11
-36.899999999999643
 21
-26.100000000000019
 31
0.0
  0
LINE
  8
DETAIL
  6
CONTINUOUS
 62
     5
 10
-27.89999999999964
 20
-72.900000000000091
 30
0.0
 11
-27.89999999999964
 21
-80.100000000000023
 31
0.0
  0
LINE
  8
DETAIL
  6
CONTINUOUS
 62
     5
 10
-36.899999999999643
 20
-18.900000000000091
 30
0.0
 11
-36.899999999999643
 21
-26.100000000000019
 31
0.0
  0
LINE
  8
DETAIL
  6
CONTINUOUS
 62
     5
 10
-118.20564899999999
 20
-117.20564899999999
 30
0.0
 11
-118.20564899999999
 21
0.0
 31
0.0
  0
LINE
  8
DETAIL
  6
CONTINUOUS
 62
     5
 10
-125.0
 20
-124.0
 30
0.0
 11
-125.0
 21
0.0
 31
0.0
  0
LINE
  8
DETAIL
  6
CONTINUOUS
 62
     5
 10
-86.0
 20
-82.5
 30
0.0
 11
-86.0
 21
0.0
 31
0.0
  0
LINE
  8
DETAIL
  6
CONTINUOUS
 62
     5
 10
-87.5
 20
-84.0
 30
0.0
 11
-87.5
 21
0.0
 31
0.0
  0
LINE
  8
DETAIL
  6
CONTINUOUS
 62
     5
 10
-117.20564899999999
 20
-118.20564899999999
 30
0.0
 11
0.0
 21
-118.20564899999999
 31
0.0
  0
LINE
  8
DETAIL
  6
CONTINUOUS
 62
     5
 10
0.0
 20
-125.0
 30
0.0
 11
-124.0
 21
-125.0
 31
0.0
  0
LINE
  8
DETAIL
  6
CONTINUOUS
 62
     5
 10
0.0
 20
-87.5
 30
0.0
 11
-84.0
 21
-87.5
 31
0.0
  0
LINE
  8
DETAIL
  6
CONTINUOUS
 62
     5
 10
0.0
 20
-86.0
 30
0.0
 11
-82.5
 21
-86.0
 31
0.0
  0
LINE
  8
DETAIL
  6
CONTINUOUS
 62
     5
 10
44.100000000000357
 20
-18.900000000000091
 30
0.0
 11
36.899999999999643
 21
-18.900000000000091
 31
0.0
  0
LINE
  8
DETAIL
  6
CONTINUOUS
 62
     5
 10
44.100000000000357
 20
-18.900000000000091
 30
0.0
 11
44.100000000000357
 21
-26.100000000000019
 31
0.0
  0
LINE
  8
DETAIL
  6
CONTINUOUS
 62
     5
 10
8.1000000000003638
 20
-17.100000000000019
 30
0.0
 11
0.8999999999996362
 21
-17.100000000000019
 31
0.0
  0
LINE
  8
DETAIL
  6
CONTINUOUS
 62
     5
 10
8.1000000000003638
 20
-9.9000000000000909
 30
0.0
 11
0.8999999999996362
 21
-9.9000000000000909
 31
0.0
  0
LINE
  8
DETAIL
  6
CONTINUOUS
 62
     5
 10
8.1000000000003638
 20
-9.9000000000000909
 30
0.0
 11
8.1000000000003638
 21
-17.100000000000019
 31
0.0
  0
LINE
  8
DETAIL
  6
CONTINUOUS
 62
     5
 10
17.10000000000036
 20
-17.100000000000019
 30
0.0
 11
9.8999999999996362
 21
-17.100000000000019
 31
0.0
  0
LINE
  8
DETAIL
  6
CONTINUOUS
 62
     5
 10
9.8999999999996362
 20
-9.9000000000000909
 30
0.0
 11
9.8999999999996362
 21
-17.100000000000019
 31
0.0
  0
LINE
  8
DETAIL
  6
CONTINUOUS
 62
     5
 10
17.10000000000036
 20
-9.9000000000000909
 30
0.0
 11
9.8999999999996362
 21
-9.9000000000000909
 31
0.0
  0
LINE
  8
DETAIL
  6
CONTINUOUS
 62
     5
 10
17.10000000000036
 20
-9.9000000000000909
 30
0.0
 11
17.10000000000036
 21
-17.100000000000019
 31
0.0
  0
LINE
  8
DETAIL
  6
CONTINUOUS
 62
     5
 10
26.10000000000036
 20
-17.100000000000019
 30
0.0
 11
18.89999999999964
 21
-17.100000000000019
 31
0.0
  0
LINE
  8
DETAIL
  6
CONTINUOUS
 62
     5
 10
18.89999999999964
 20
-9.9000000000000909
 30
0.0
 11
18.89999999999964
 21
-17.100000000000019
 31
0.0
  0
LINE
  8
DETAIL
  6
CONTINUOUS
 62
     5
 10
26.10000000000036
 20
-9.9000000000000909
 30
0.0
 11
18.89999999999964
 21
-9.9000000000000909
 31
0.0
  0
LINE
  8
DETAIL
  6
CONTINUOUS
 62
     5
 10
26.10000000000036
 20
-9.9000000000000909
 30
0.0
 11
26.10000000000036
 21
-17.100000000000019
 31
0.0
  0
LINE
  8
DETAIL
  6
CONTINUOUS
 62
     5
 10
35.100000000000357
 20
-17.100000000000019
 30
0.0
 11
27.89999999999964
 21
-17.100000000000019
 31
0.0
  0
LINE
  8
DETAIL
  6
CONTINUOUS
 62
     5
 10
27.89999999999964
 20
-9.9000000000000909
 30
0.0
 11
27.89999999999964
 21
-17.100000000000019
 31
0.0
  0
LINE
  8
DETAIL
  6
CONTINUOUS
 62
     5
 10
35.100000000000357
 20
-9.9000000000000909
 30
0.0
 11
27.89999999999964
 21
-9.9000000000000909
 31
0.0
  0
LINE
  8
DETAIL
  6
CONTINUOUS
 62
     5
 10
35.100000000000357
 20
-9.9000000000000909
 30
0.0
 11
35.100000000000357
 21
-17.100000000000019
 31
0.0
  0
LINE
  8
DETAIL
  6
CONTINUOUS
 62
     5
 10
44.100000000000357
 20
-17.100000000000019
 30
0.0
 11
36.899999999999643
 21
-17.100000000000019
 31
0.0
  0
LINE
  8
DETAIL
  6
CONTINUOUS
 62
     5
 10
36.899999999999643
 20
-9.9000000000000909
 30
0.0
 11
36.899999999999643
 21
-17.100000000000019
 31
0.0
  0
LINE
  8
DETAIL
  6
CONTINUOUS
 62
     5
 10
44.100000000000357
 20
-9.9000000000000909
 30
0.0
 11
36.899999999999643
 21
-9.9000000000000909
 31
0.0
  0
LINE
  8
DETAIL
  6
CONTINUOUS
 62
     5
 10
44.100000000000357
 20
-9.9000000000000909
 30
0.0
 11
44.100000000000357
 21
-17.100000000000019
 31
0.0
  0
LINE
  8
DETAIL
  6
CONTINUOUS
 62
     5
 10
53.100000000000357
 20
-17.100000000000019
 30
0.0
 11
45.899999999999643
 21
-17.100000000000019
 31
0.0
  0
LINE
  8
DETAIL
  6
CONTINUOUS
 62
     5
 10
45.899999999999643
 20
-9.9000000000000909
 30
0.0
 11
45.899999999999643
 21
-17.100000000000019
 31
0.0
  0
LINE
  8
DETAIL
  6
CONTINUOUS
 62
     5
 10
53.100000000000357
 20
-9.9000000000000909
 30
0.0
 11
45.899999999999643
 21
-9.9000000000000909
 31
0.0
  0
LINE
  8
DETAIL
  6
CONTINUOUS
 62
     5
 10
53.100000000000357
 20
-9.9000000000000909
 30
0.0
 11
53.100000000000357
 21
-17.100000000000019
 31
0.0
  0
LINE
  8
DETAIL
  6
CONTINUOUS
 62
     5
 10
8.1000000000003638
 20
-8.1000000000000227
 30
0.0
 11
0.8999999999996362
 21
-8.1000000000000227
 31
0.0
  0
LINE
  8
DETAIL
  6
CONTINUOUS
 62
     5
 10
8.1000000000003638
 20
-0.900000000000091
 30
0.0
 11
8.1000000000003638
 21
-8.1000000000000227
 31
0.0
  0
LINE
  8
DETAIL
  6
CONTINUOUS
 62
     5
 10
17.10000000000036
 20
-8.1000000000000227
 30
0.0
 11
9.8999999999996362
 21
-8.1000000000000227
 31
0.0
  0
LINE
  8
DETAIL
  6
CONTINUOUS
 62
     5
 10
9.8999999999996362
 20
-0.900000000000091
 30
0.0
 11
9.8999999999996362
 21
-8.1000000000000227
 31
0.0
  0
LINE
  8
DETAIL
  6
CONTINUOUS
 62
     5
 10
17.10000000000036
 20
-0.900000000000091
 30
0.0
 11
17.10000000000036
 21
-8.1000000000000227
 31
0.0
  0
LINE
  8
DETAIL
  6
CONTINUOUS
 62
     5
 10
26.10000000000036
 20
-8.1000000000000227
 30
0.0
 11
18.89999999999964
 21
-8.1000000000000227
 31
0.0
  0
LINE
  8
DETAIL
  6
CONTINUOUS
 62
     5
 10
18.89999999999964
 20
-0.900000000000091
 30
0.0
 11
18.89999999999964
 21
-8.1000000000000227
 31
0.0
  0
LINE
  8
DETAIL
  6
CONTINUOUS
 62
     5
 10
26.10000000000036
 20
-0.900000000000091
 30
0.0
 11
26.10000000000036
 21
-8.1000000000000227
 31
0.0
  0
LINE
  8
DETAIL
  6
CONTINUOUS
 62
     5
 10
35.100000000000357
 20
-8.1000000000000227
 30
0.0
 11
27.89999999999964
 21
-8.1000000000000227
 31
0.0
  0
LINE
  8
DETAIL
  6
CONTINUOUS
 62
     5
 10
27.89999999999964
 20
-0.900000000000091
 30
0.0
 11
27.89999999999964
 21
-8.1000000000000227
 31
0.0
  0
LINE
  8
DETAIL
  6
CONTINUOUS
 62
     5
 10
35.100000000000357
 20
-0.900000000000091
 30
0.0
 11
35.100000000000357
 21
-8.1000000000000227
 31
0.0
  0
LINE
  8
DETAIL
  6
CONTINUOUS
 62
     5
 10
44.100000000000357
 20
-8.1000000000000227
 30
0.0
 11
36.899999999999643
 21
-8.1000000000000227
 31
0.0
  0
LINE
  8
DETAIL
  6
CONTINUOUS
 62
     5
 10
36.899999999999643
 20
-0.900000000000091
 30
0.0
 11
36.899999999999643
 21
-8.1000000000000227
 31
0.0
  0
LINE
  8
DETAIL
  6
CONTINUOUS
 62
     5
 10
44.100000000000357
 20
-0.900000000000091
 30
0.0
 11
44.100000000000357
 21
-8.1000000000000227
 31
0.0
  0
LINE
  8
DETAIL
  6
CONTINUOUS
 62
     5
 10
53.100000000000357
 20
-8.1000000000000227
 30
0.0
 11
45.899999999999643
 21
-8.1000000000000227
 31
0.0
  0
LINE
  8
DETAIL
  6
CONTINUOUS
 62
     5
 10
45.899999999999643
 20
-0.900000000000091
 30
0.0
 11
45.899999999999643
 21
-8.1000000000000227
 31
0.0
  0
LINE
  8
DETAIL
  6
CONTINUOUS
 62
     5
 10
53.100000000000357
 20
-0.900000000000091
 30
0.0
 11
53.100000000000357
 21
-8.1000000000000227
 31
0.0
  0
LINE
  8
DETAIL
  6
CONTINUOUS
 62
     5
 10
62.100000000000357
 20
-8.1000000000000227
 30
0.0
 11
54.899999999999643
 21
-8.1000000000000227
 31
0.0
  0
LINE
  8
DETAIL
  6
CONTINUOUS
 62
     5
 10
54.899999999999643
 20
-0.900000000000091
 30
0.0
 11
54.899999999999643
 21
-8.1000000000000227
 31
0.0
  0
LINE
  8
DETAIL
  6
CONTINUOUS
 62
     5
 10
62.100000000000357
 20
-0.900000000000091
 30
0.0
 11
62.100000000000357
 21
-8.1000000000000227
 31
0.0
  0
LINE
  8
DETAIL
  6
CONTINUOUS
 62
     5
 10
71.100000000000364
 20
-8.1000000000000227
 30
0.0
 11
63.899999999999643
 21
-8.1000000000000227
 31
0.0
  0
LINE
  8
DETAIL
  6
CONTINUOUS
 62
     5
 10
63.899999999999643
 20
-0.900000000000091
 30
0.0
 11
63.899999999999643
 21
-8.1000000000000227
 31
0.0
  0
LINE
  8
DETAIL
  6
CONTINUOUS
 62
     5
 10
71.100000000000364
 20
-0.900000000000091
 30
0.0
 11
71.100000000000364
 21
-8.1000000000000227
 31
0.0
  0
LINE
  8
DETAIL
  6
CONTINUOUS
 62
     5
 10
80.100000000000364
 20
-8.1000000000000227
 30
0.0
 11
72.899999999999636
 21
-8.1000000000000227
 31
0.0
  0
LINE
  8
DETAIL
  6
CONTINUOUS
 62
     5
 10
72.899999999999636
 20
-0.900000000000091
 30
0.0
 11
72.899999999999636
 21
-8.1000000000000227
 31
0.0
  0
LINE
  8
DETAIL
  6
CONTINUOUS
 62
     5
 10
80.100000000000364
 20
-0.900000000000091
 30
0.0
 11
80.100000000000364
 21
-8.1000000000000227
 31
0.0
  0
LINE
  8
DETAIL
  6
CONTINUOUS
 62
     5
 10
62.100000000000357
 20
-17.100000000000019
 30
0.0
 11
54.899999999999643
 21
-17.100000000000019
 31
0.0
  0
LINE
  8
DETAIL
  6
CONTINUOUS
 62
     5
 10
54.899999999999643
 20
-9.9000000000000909
 30
0.0
 11
54.899999999999643
 21
-17.100000000000019
 31
0.0
  0
LINE
  8
DETAIL
  6
CONTINUOUS
 62
     5
 10
62.100000000000357
 20
-9.9000000000000909
 30
0.0
 11
54.899999999999643
 21
-9.9000000000000909
 31
0.0
  0
LINE
  8
DETAIL
  6
CONTINUOUS
 62
     5
 10
62.100000000000357
 20
-9.9000000000000909
 30
0.0
 11
62.100000000000357
 21
-17.100000000000019
 31
0.0
  0
LINE
  8
DETAIL
  6
CONTINUOUS
 62
     5
 10
71.100000000000364
 20
-17.100000000000019
 30
0.0
 11
63.899999999999643
 21
-17.100000000000019
 31
0.0
  0
LINE
  8
DETAIL
  6
CONTINUOUS
 62
     5
 10
63.899999999999643
 20
-9.9000000000000909
 30
0.0
 11
63.899999999999643
 21
-17.100000000000019
 31
0.0
  0
LINE
  8
DETAIL
  6
CONTINUOUS
 62
     5
 10
71.100000000000364
 20
-9.9000000000000909
 30
0.0
 11
63.899999999999643
 21
-9.9000000000000909
 31
0.0
  0
LINE
  8
DETAIL
  6
CONTINUOUS
 62
     5
 10
71.100000000000364
 20
-9.9000000000000909
 30
0.0
 11
71.100000000000364
 21
-17.100000000000019
 31
0.0
  0
LINE
  8
DETAIL
  6
CONTINUOUS
 62
     5
 10
80.100000000000364
 20
-17.100000000000019
 30
0.0
 11
72.899999999999636
 21
-17.100000000000019
 31
0.0
  0
LINE
  8
DETAIL
  6
CONTINUOUS
 62
     5
 10
72.899999999999636
 20
-9.9000000000000909
 30
0.0
 11
72.899999999999636
 21
-17.100000000000019
 31
0.0
  0
LINE
  8
DETAIL
  6
CONTINUOUS
 62
     5
 10
80.100000000000364
 20
-9.9000000000000909
 30
0.0
 11
72.899999999999636
 21
-9.9000000000000909
 31
0.0
  0
LINE
  8
DETAIL
  6
CONTINUOUS
 62
     5
 10
80.100000000000364
 20
-9.9000000000000909
 30
0.0
 11
80.100000000000364
 21
-17.100000000000019
 31
0.0
  0
LINE
  8
DETAIL
  6
CONTINUOUS
 62
     5
 10
53.100000000000357
 20
-26.100000000000019
 30
0.0
 11
45.899999999999643
 21
-26.100000000000019
 31
0.0
  0
LINE
  8
DETAIL
  6
CONTINUOUS
 62
     5
 10
45.899999999999643
 20
-18.900000000000091
 30
0.0
 11
45.899999999999643
 21
-26.100000000000019
 31
0.0
  0
LINE
  8
DETAIL
  6
CONTINUOUS
 62
     5
 10
53.100000000000357
 20
-18.900000000000091
 30
0.0
 11
45.899999999999643
 21
-18.900000000000091
 31
0.0
  0
LINE
  8
DETAIL
  6
CONTINUOUS
 62
     5
 10
53.100000000000357
 20
-18.900000000000091
 30
0.0
 11
53.100000000000357
 21
-26.100000000000019
 31
0.0
  0
LINE
  8
DETAIL
  6
CONTINUOUS
 62
     5
 10
62.100000000000357
 20
-26.100000000000019
 30
0.0
 11
54.899999999999643
 21
-26.100000000000019
 31
0.0
  0
LINE
  8
DETAIL
  6
CONTINUOUS
 62
     5
 10
54.899999999999643
 20
-18.900000000000091
 30
0.0
 11
54.899999999999643
 21
-26.100000000000019
 31
0.0
  0
LINE
  8
DETAIL
  6
CONTINUOUS
 62
     5
 10
62.100000000000357
 20
-18.900000000000091
 30
0.0
 11
54.899999999999643
 21
-18.900000000000091
 31
0.0
  0
LINE
  8
DETAIL
  6
CONTINUOUS
 62
     5
 10
62.100000000000357
 20
-18.900000000000091
 30
0.0
 11
62.100000000000357
 21
-26.100000000000019
 31
0.0
  0
LINE
  8
DETAIL
  6
CONTINUOUS
 62
     5
 10
71.100000000000364
 20
-26.100000000000019
 30
0.0
 11
63.899999999999643
 21
-26.100000000000019
 31
0.0
  0
LINE
  8
DETAIL
  6
CONTINUOUS
 62
     5
 10
63.899999999999643
 20
-18.900000000000091
 30
0.0
 11
63.899999999999643
 21
-26.100000000000019
 31
0.0
  0
LINE
  8
DETAIL
  6
CONTINUOUS
 62
     5
 10
71.100000000000364
 20
-18.900000000000091
 30
0.0
 11
63.899999999999643
 21
-18.900000000000091
 31
0.0
  0
LINE
  8
DETAIL
  6
CONTINUOUS
 62
     5
 10
71.100000000000364
 20
-18.900000000000091
 30
0.0
 11
71.100000000000364
 21
-26.100000000000019
 31
0.0
  0
LINE
  8
DETAIL
  6
CONTINUOUS
 62
     5
 10
80.100000000000364
 20
-26.100000000000019
 30
0.0
 11
72.899999999999636
 21
-26.100000000000019
 31
0.0
  0
LINE
  8
DETAIL
  6
CONTINUOUS
 62
     5
 10
72.899999999999636
 20
-18.900000000000091
 30
0.0
 11
72.899999999999636
 21
-26.100000000000019
 31
0.0
  0
LINE
  8
DETAIL
  6
CONTINUOUS
 62
     5
 10
80.100000000000364
 20
-18.900000000000091
 30
0.0
 11
72.899999999999636
 21
-18.900000000000091
 31
0.0
  0
LINE
  8
DETAIL
  6
CONTINUOUS
 62
     5
 10
80.100000000000364
 20
-18.900000000000091
 30
0.0
 11
80.100000000000364
 21
-26.100000000000019
 31
0.0
  0
LINE
  8
DETAIL
  6
CONTINUOUS
 62
     5
 10
44.100000000000357
 20
-27.900000000000091
 30
0.0
 11
36.899999999999643
 21
-27.900000000000091
 31
0.0
  0
LINE
  8
DETAIL
  6
CONTINUOUS
 62
     5
 10
53.100000000000357
 20
-27.900000000000091
 30
0.0
 11
45.899999999999643
 21
-27.900000000000091
 31
0.0
  0
LINE
  8
DETAIL
  6
CONTINUOUS
 62
     5
 10
62.100000000000357
 20
-27.900000000000091
 30
0.0
 11
54.899999999999643
 21
-27.900000000000091
 31
0.0
  0
LINE
  8
DETAIL
  6
CONTINUOUS
 62
     5
 10
71.100000000000364
 20
-27.900000000000091
 30
0.0
 11
63.899999999999643
 21
-27.900000000000091
 31
0.0
  0
LINE
  8
DETAIL
  6
CONTINUOUS
 62
     5
 10
80.100000000000364
 20
-27.900000000000091
 30
0.0
 11
72.899999999999636
 21
-27.900000000000091
 31
0.0
  0
LINE
  8
DETAIL
  6
CONTINUOUS
 62
     5
 10
27.89999999999964
 20
-36.900000000000091
 30
0.0
 11
27.89999999999964
 21
-44.100000000000023
 31
0.0
  0
LINE
  8
DETAIL
  6
CONTINUOUS
 62
     5
 10
26.10000000000036
 20
-53.100000000000023
 30
0.0
 11
18.89999999999964
 21
-53.100000000000023
 31
0.0
  0
LINE
  8
DETAIL
  6
CONTINUOUS
 62
     5
 10
18.89999999999964
 20
-45.900000000000091
 30
0.0
 11
18.89999999999964
 21
-53.100000000000023
 31
0.0
  0
LINE
  8
DETAIL
  6
CONTINUOUS
 62
     5
 10
26.10000000000036
 20
-45.900000000000091
 30
0.0
 11
18.89999999999964
 21
-45.900000000000091
 31
0.0
  0
LINE
  8
DETAIL
  6
CONTINUOUS
 62
     5
 10
26.10000000000036
 20
-45.900000000000091
 30
0.0
 11
26.10000000000036
 21
-53.100000000000023
 31
0.0
  0
LINE
  8
DETAIL
  6
CONTINUOUS
 62
     5
 10
62.100000000000357
 20
-63.900000000000091
 30
0.0
 11
62.100000000000357
 21
-71.100000000000023
 31
0.0
  0
LINE
  8
DETAIL
  6
CONTINUOUS
 62
     5
 10
27.89999999999964
 20
-45.900000000000091
 30
0.0
 11
27.89999999999964
 21
-53.100000000000023
 31
0.0
  0
LINE
  8
DETAIL
  6
CONTINUOUS
 62
     5
 10
71.100000000000364
 20
-71.100000000000023
 30
0.0
 11
63.899999999999643
 21
-71.100000000000023
 31
0.0
  0
LINE
  8
DETAIL
  6
CONTINUOUS
 62
     5
 10
17.10000000000036
 20
-62.100000000000023
 30
0.0
 11
9.8999999999996362
 21
-62.100000000000023
 31
0.0
  0
LINE
  8
DETAIL
  6
CONTINUOUS
 62
     5
 10
35.100000000000357
 20
-35.100000000000023
 30
0.0
 11
27.89999999999964
 21
-35.100000000000023
 31
0.0
  0
LINE
  8
DETAIL
  6
CONTINUOUS
 62
     5
 10
9.8999999999996362
 20
-54.900000000000091
 30
0.0
 11
9.8999999999996362
 21
-62.100000000000023
 31
0.0
  0
LINE
  8
DETAIL
  6
CONTINUOUS
 62
     5
 10
63.899999999999643
 20
-63.900000000000091
 30
0.0
 11
63.899999999999643
 21
-71.100000000000023
 31
0.0
  0
LINE
  8
DETAIL
  6
CONTINUOUS
 62
     5
 10
17.10000000000036
 20
-54.900000000000091
 30
0.0
 11
9.8999999999996362
 21
-54.900000000000091
 31
0.0
  0
LINE
  8
DETAIL
  6
CONTINUOUS
 62
     5
 10
71.100000000000364
 20
-63.900000000000091
 30
0.0
 11
63.899999999999643
 21
-63.900000000000091
 31
0.0
  0
LINE
  8
DETAIL
  6
CONTINUOUS
 62
     5
 10
17.10000000000036
 20
-54.900000000000091
 30
0.0
 11
17.10000000000036
 21
-62.100000000000023
 31
0.0
  0
LINE
  8
DETAIL
  6
CONTINUOUS
 62
     5
 10
71.100000000000364
 20
-63.900000000000091
 30
0.0
 11
71.100000000000364
 21
-71.100000000000023
 31
0.0
  0
LINE
  8
DETAIL
  6
CONTINUOUS
 62
     5
 10
26.10000000000036
 20
-62.100000000000023
 30
0.0
 11
18.89999999999964
 21
-62.100000000000023
 31
0.0
  0
LINE
  8
DETAIL
  6
CONTINUOUS
 62
     5
 10
35.100000000000357
 20
-27.900000000000091
 30
0.0
 11
35.100000000000357
 21
-35.100000000000023
 31
0.0
  0
LINE
  8
DETAIL
  6
CONTINUOUS
 62
     5
 10
18.89999999999964
 20
-54.900000000000091
 30
0.0
 11
18.89999999999964
 21
-62.100000000000023
 31
0.0
  0
LINE
  8
DETAIL
  6
CONTINUOUS
 62
     5
 10
80.100000000000364
 20
-71.100000000000023
 30
0.0
 11
72.899999999999636
 21
-71.100000000000023
 31
0.0
  0
LINE
  8
DETAIL
  6
CONTINUOUS
 62
     5
 10
26.10000000000036
 20
-54.900000000000091
 30
0.0
 11
18.89999999999964
 21
-54.900000000000091
 31
0.0
  0
LINE
  8
DETAIL
  6
CONTINUOUS
 62
     5
 10
72.899999999999636
 20
-63.900000000000091
 30
0.0
 11
72.899999999999636
 21
-71.100000000000023
 31
0.0
  0
LINE
  8
DETAIL
  6
CONTINUOUS
 62
     5
 10
26.10000000000036
 20
-54.900000000000091
 30
0.0
 11
26.10000000000036
 21
-62.100000000000023
 31
0.0
  0
LINE
  8
DETAIL
  6
CONTINUOUS
 62
     5
 10
80.100000000000364
 20
-63.900000000000091
 30
0.0
 11
72.899999999999636
 21
-63.900000000000091
 31
0.0
  0
LINE
  8
DETAIL
  6
CONTINUOUS
 62
     5
 10
27.89999999999964
 20
-54.900000000000091
 30
0.0
 11
27.89999999999964
 21
-62.100000000000023
 31
0.0
  0
LINE
  8
DETAIL
  6
CONTINUOUS
 62
     5
 10
80.100000000000364
 20
-63.900000000000091
 30
0.0
 11
80.100000000000364
 21
-71.100000000000023
 31
0.0
  0
LINE
  8
DETAIL
  6
CONTINUOUS
 62
     5
 10
8.1000000000003638
 20
-62.100000000000023
 30
0.0
 11
0.8999999999996362
 21
-62.100000000000023
 31
0.0
  0
LINE
  8
DETAIL
  6
CONTINUOUS
 62
     5
 10
35.100000000000357
 20
-80.100000000000023
 30
0.0
 11
27.89999999999964
 21
-80.100000000000023
 31
0.0
  0
LINE
  8
DETAIL
  6
CONTINUOUS
 62
     5
 10
8.1000000000003638
 20
-54.900000000000091
 30
0.0
 11
0.8999999999996362
 21
-54.900000000000091
 31
0.0
  0
LINE
  8
DETAIL
  6
CONTINUOUS
 62
     5
 10
35.100000000000357
 20
-72.900000000000091
 30
0.0
 11
27.89999999999964
 21
-72.900000000000091
 31
0.0
  0
LINE
  8
DETAIL
  6
CONTINUOUS
 62
     5
 10
8.1000000000003638
 20
-54.900000000000091
 30
0.0
 11
8.1000000000003638
 21
-62.100000000000023
 31
0.0
  0
LINE
  8
DETAIL
  6
CONTINUOUS
 62
     5
 10
35.100000000000357
 20
-72.900000000000091
 30
0.0
 11
35.100000000000357
 21
-80.100000000000023
 31
0.0
  0
LINE
  8
DETAIL
  6
CONTINUOUS
 62
     5
 10
8.1000000000003638
 20
-53.100000000000023
 30
0.0
 11
0.8999999999996362
 21
-53.100000000000023
 31
0.0
  0
LINE
  8
DETAIL
  6
CONTINUOUS
 62
     5
 10
44.100000000000357
 20
-80.100000000000023
 30
0.0
 11
36.899999999999643
 21
-80.100000000000023
 31
0.0
  0
LINE
  8
DETAIL
  6
CONTINUOUS
 62
     5
 10
8.1000000000003638
 20
-45.900000000000091
 30
0.0
 11
0.8999999999996362
 21
-45.900000000000091
 31
0.0
  0
LINE
  8
DETAIL
  6
CONTINUOUS
 62
     5
 10
36.899999999999643
 20
-72.900000000000091
 30
0.0
 11
36.899999999999643
 21
-80.100000000000023
 31
0.0
  0
LINE
  8
DETAIL
  6
CONTINUOUS
 62
     5
 10
8.1000000000003638
 20
-45.900000000000091
 30
0.0
 11
8.1000000000003638
 21
-53.100000000000023
 31
0.0
  0
LINE
  8
DETAIL
  6
CONTINUOUS
 62
     5
 10
44.100000000000357
 20
-72.900000000000091
 30
0.0
 11
36.899999999999643
 21
-72.900000000000091
 31
0.0
  0
LINE
  8
DETAIL
  6
CONTINUOUS
 62
     5
 10
8.1000000000003638
 20
-71.100000000000023
 30
0.0
 11
0.8999999999996362
 21
-71.100000000000023
 31
0.0
  0
LINE
  8
DETAIL
  6
CONTINUOUS
 62
     5
 10
44.100000000000357
 20
-72.900000000000091
 30
0.0
 11
44.100000000000357
 21
-80.100000000000023
 31
0.0
  0
LINE
  8
DETAIL
  6
CONTINUOUS
 62
     5
 10
17.10000000000036
 20
-53.100000000000023
 30
0.0
 11
9.8999999999996362
 21
-53.100000000000023
 31
0.0
  0
LINE
  8
DETAIL
  6
CONTINUOUS
 62
     5
 10
53.100000000000357
 20
-80.100000000000023
 30
0.0
 11
45.899999999999643
 21
-80.100000000000023
 31
0.0
  0
LINE
  8
DETAIL
  6
CONTINUOUS
 62
     5
 10
9.8999999999996362
 20
-45.900000000000091
 30
0.0
 11
9.8999999999996362
 21
-53.100000000000023
 31
0.0
  0
LINE
  8
DETAIL
  6
CONTINUOUS
 62
     5
 10
45.899999999999643
 20
-72.900000000000091
 30
0.0
 11
45.899999999999643
 21
-80.100000000000023
 31
0.0
  0
LINE
  8
DETAIL
  6
CONTINUOUS
 62
     5
 10
8.1000000000003638
 20
-63.900000000000091
 30
0.0
 11
0.8999999999996362
 21
-63.900000000000091
 31
0.0
  0
LINE
  8
DETAIL
  6
CONTINUOUS
 62
     5
 10
53.100000000000357
 20
-72.900000000000091
 30
0.0
 11
45.899999999999643
 21
-72.900000000000091
 31
0.0
  0
LINE
  8
DETAIL
  6
CONTINUOUS
 62
     5
 10
17.10000000000036
 20
-45.900000000000091
 30
0.0
 11
9.8999999999996362
 21
-45.900000000000091
 31
0.0
  0
LINE
  8
DETAIL
  6
CONTINUOUS
 62
     5
 10
53.100000000000357
 20
-72.900000000000091
 30
0.0
 11
53.100000000000357
 21
-80.100000000000023
 31
0.0
  0
LINE
  8
DETAIL
  6
CONTINUOUS
 62
     5
 10
8.1000000000003638
 20
-63.900000000000091
 30
0.0
 11
8.1000000000003638
 21
-71.100000000000023
 31
0.0
  0
LINE
  8
DETAIL
  6
CONTINUOUS
 62
     5
 10
62.100000000000357
 20
-80.100000000000023
 30
0.0
 11
54.899999999999643
 21
-80.100000000000023
 31
0.0
  0
LINE
  8
DETAIL
  6
CONTINUOUS
 62
     5
 10
17.10000000000036
 20
-45.900000000000091
 30
0.0
 11
17.10000000000036
 21
-53.100000000000023
 31
0.0
  0
LINE
  8
DETAIL
  6
CONTINUOUS
 62
     5
 10
54.899999999999643
 20
-72.900000000000091
 30
0.0
 11
54.899999999999643
 21
-80.100000000000023
 31
0.0
  0
LINE
  8
DETAIL
  6
CONTINUOUS
 62
     5
 10
17.10000000000036
 20
-71.100000000000023
 30
0.0
 11
9.8999999999996362
 21
-71.100000000000023
 31
0.0
  0
LINE
  8
DETAIL
  6
CONTINUOUS
 62
     5
 10
62.100000000000357
 20
-72.900000000000091
 30
0.0
 11
54.899999999999643
 21
-72.900000000000091
 31
0.0
  0
LINE
  8
DETAIL
  6
CONTINUOUS
 62
     5
 10
8.1000000000003638
 20
-44.100000000000023
 30
0.0
 11
0.8999999999996362
 21
-44.100000000000023
 31
0.0
  0
LINE
  8
DETAIL
  6
CONTINUOUS
 62
     5
 10
62.100000000000357
 20
-72.900000000000091
 30
0.0
 11
62.100000000000357
 21
-80.100000000000023
 31
0.0
  0
LINE
  8
DETAIL
  6
CONTINUOUS
 62
     5
 10
9.8999999999996362
 20
-63.900000000000091
 30
0.0
 11
9.8999999999996362
 21
-71.100000000000023
 31
0.0
  0
LINE
  8
DETAIL
  6
CONTINUOUS
 62
     5
 10
71.100000000000364
 20
-80.100000000000023
 30
0.0
 11
63.899999999999643
 21
-80.100000000000023
 31
0.0
  0
LINE
  8
DETAIL
  6
CONTINUOUS
 62
     5
 10
17.10000000000036
 20
-63.900000000000091
 30
0.0
 11
9.8999999999996362
 21
-63.900000000000091
 31
0.0
  0
LINE
  8
DETAIL
  6
CONTINUOUS
 62
     5
 10
63.899999999999643
 20
-72.900000000000091
 30
0.0
 11
63.899999999999643
 21
-80.100000000000023
 31
0.0
  0
LINE
  8
DETAIL
  6
CONTINUOUS
 62
     5
 10
8.1000000000003638
 20
-36.900000000000091
 30
0.0
 11
0.8999999999996362
 21
-36.900000000000091
 31
0.0
  0
LINE
  8
DETAIL
  6
CONTINUOUS
 62
     5
 10
71.100000000000364
 20
-72.900000000000091
 30
0.0
 11
63.899999999999643
 21
-72.900000000000091
 31
0.0
  0
LINE
  8
DETAIL
  6
CONTINUOUS
 62
     5
 10
17.10000000000036
 20
-63.900000000000091
 30
0.0
 11
17.10000000000036
 21
-71.100000000000023
 31
0.0
  0
LINE
  8
DETAIL
  6
CONTINUOUS
 62
     5
 10
71.100000000000364
 20
-72.900000000000091
 30
0.0
 11
71.100000000000364
 21
-80.100000000000023
 31
0.0
  0
LINE
  8
DETAIL
  6
CONTINUOUS
 62
     5
 10
8.1000000000003638
 20
-36.900000000000091
 30
0.0
 11
8.1000000000003638
 21
-44.100000000000023
 31
0.0
  0
LINE
  8
DETAIL
  6
CONTINUOUS
 62
     5
 10
80.100000000000364
 20
-80.100000000000023
 30
0.0
 11
72.899999999999636
 21
-80.100000000000023
 31
0.0
  0
LINE
  8
DETAIL
  6
CONTINUOUS
 62
     5
 10
26.10000000000036
 20
-71.100000000000023
 30
0.0
 11
18.89999999999964
 21
-71.100000000000023
 31
0.0
  0
LINE
  8
DETAIL
  6
CONTINUOUS
 62
     5
 10
72.899999999999636
 20
-72.900000000000091
 30
0.0
 11
72.899999999999636
 21
-80.100000000000023
 31
0.0
  0
LINE
  8
DETAIL
  6
CONTINUOUS
 62
     5
 10
17.10000000000036
 20
-44.100000000000023
 30
0.0
 11
9.8999999999996362
 21
-44.100000000000023
 31
0.0
  0
LINE
  8
DETAIL
  6
CONTINUOUS
 62
     5
 10
80.100000000000364
 20
-72.900000000000091
 30
0.0
 11
72.899999999999636
 21
-72.900000000000091
 31
0.0
  0
LINE
  8
DETAIL
  6
CONTINUOUS
 62
     5
 10
18.89999999999964
 20
-63.900000000000091
 30
0.0
 11
18.89999999999964
 21
-71.100000000000023
 31
0.0
  0
LINE
  8
DETAIL
  6
CONTINUOUS
 62
     5
 10
80.100000000000364
 20
-72.900000000000091
 30
0.0
 11
80.100000000000364
 21
-80.100000000000023
 31
0.0
  0
LINE
  8
DETAIL
  6
CONTINUOUS
 62
     5
 10
9.8999999999996362
 20
-36.900000000000091
 30
0.0
 11
9.8999999999996362
 21
-44.100000000000023
 31
0.0
  0
LINE
  8
DETAIL
  6
CONTINUOUS
 62
     5
 10
84.0
 20
-87.5
 30
0.0
 11
82.5
 21
-86.0
 31
0.0
  0
LINE
  8
DETAIL
  6
CONTINUOUS
 62
     5
 10
26.10000000000036
 20
-63.900000000000091
 30
0.0
 11
18.89999999999964
 21
-63.900000000000091
 31
0.0
  0
LINE
  8
DETAIL
  6
CONTINUOUS
 62
     5
 10
87.5
 20
-84.0
 30
0.0
 11
86.0
 21
-82.5
 31
0.0
  0
LINE
  8
DETAIL
  6
CONTINUOUS
 62
     5
 10
17.10000000000036
 20
-36.900000000000091
 30
0.0
 11
9.8999999999996362
 21
-36.900000000000091
 31
0.0
  0
LINE
  8
DETAIL
  6
CONTINUOUS
 62
     5
 10
44.100000000000357
 20
-35.100000000000023
 30
0.0
 11
36.899999999999643
 21
-35.100000000000023
 31
0.0
  0
LINE
  8
DETAIL
  6
CONTINUOUS
 62
     5
 10
26.10000000000036
 20
-63.900000000000091
 30
0.0
 11
26.10000000000036
 21
-71.100000000000023
 31
0.0
  0
LINE
  8
DETAIL
  6
CONTINUOUS
 62
     5
 10
36.899999999999643
 20
-27.900000000000091
 30
0.0
 11
36.899999999999643
 21
-35.100000000000023
 31
0.0
  0
LINE
  8
DETAIL
  6
CONTINUOUS
 62
     5
 10
17.10000000000036
 20
-36.900000000000091
 30
0.0
 11
17.10000000000036
 21
-44.100000000000023
 31
0.0
  0
LINE
  8
DETAIL
  6
CONTINUOUS
 62
     5
 10
44.100000000000357
 20
-27.900000000000091
 30
0.0
 11
44.100000000000357
 21
-35.100000000000023
 31
0.0
  0
LINE
  8
DETAIL
  6
CONTINUOUS
 62
     5
 10
26.10000000000036
 20
-44.100000000000023
 30
0.0
 11
18.89999999999964
 21
-44.100000000000023
 31
0.0
  0
LINE
  8
DETAIL
  6
CONTINUOUS
 62
     5
 10
53.100000000000357
 20
-35.100000000000023
 30
0.0
 11
45.899999999999643
 21
-35.100000000000023
 31
0.0
  0
LINE
  8
DETAIL
  6
CONTINUOUS
 62
     5
 10
27.89999999999964
 20
-63.900000000000091
 30
0.0
 11
27.89999999999964
 21
-71.100000000000023
 31
0.0
  0
LINE
  8
DETAIL
  6
CONTINUOUS
 62
     5
 10
45.899999999999643
 20
-27.900000000000091
 30
0.0
 11
45.899999999999643
 21
-35.100000000000023
 31
0.0
  0
LINE
  8
DETAIL
  6
CONTINUOUS
 62
     5
 10
18.89999999999964
 20
-36.900000000000091
 30
0.0
 11
18.89999999999964
 21
-44.100000000000023
 31
0.0
  0
LINE
  8
DETAIL
  6
CONTINUOUS
 62
     5
 10
53.100000000000357
 20
-27.900000000000091
 30
0.0
 11
53.100000000000357
 21
-35.100000000000023
 31
0.0
  0
LINE
  8
DETAIL
  6
CONTINUOUS
 62
     5
 10
26.10000000000036
 20
-36.900000000000091
 30
0.0
 11
18.89999999999964
 21
-36.900000000000091
 31
0.0
  0
LINE
  8
DETAIL
  6
CONTINUOUS
 62
     5
 10
62.100000000000357
 20
-35.100000000000023
 30
0.0
 11
54.899999999999643
 21
-35.100000000000023
 31
0.0
  0
LINE
  8
DETAIL
  6
CONTINUOUS
 62
     5
 10
26.10000000000036
 20
-36.900000000000091
 30
0.0
 11
26.10000000000036
 21
-44.100000000000023
 31
0.0
  0
LINE
  8
DETAIL
  6
CONTINUOUS
 62
     5
 10
54.899999999999643
 20
-27.900000000000091
 30
0.0
 11
54.899999999999643
 21
-35.100000000000023
 31
0.0
  0
LINE
  8
DETAIL
  6
CONTINUOUS
 62
     5
 10
8.1000000000003638
 20
-35.100000000000023
 30
0.0
 11
0.8999999999996362
 21
-35.100000000000023
 31
0.0
  0
LINE
  8
DETAIL
  6
CONTINUOUS
 62
     5
 10
62.100000000000357
 20
-27.900000000000091
 30
0.0
 11
62.100000000000357
 21
-35.100000000000023
 31
0.0
  0
LINE
  8
DETAIL
  6
CONTINUOUS
 62
     5
 10
8.1000000000003638
 20
-27.900000000000091
 30
0.0
 11
0.8999999999996362
 21
-27.900000000000091
 31
0.0
  0
LINE
  8
DETAIL
  6
CONTINUOUS
 62
     5
 10
71.100000000000364
 20
-35.100000000000023
 30
0.0
 11
63.899999999999643
 21
-35.100000000000023
 31
0.0
  0
LINE
  8
DETAIL
  6
CONTINUOUS
 62
     5
 10
8.1000000000003638
 20
-27.900000000000091
 30
0.0
 11
8.1000000000003638
 21
-35.100000000000023
 31
0.0
  0
LINE
  8
DETAIL
  6
CONTINUOUS
 62
     5
 10
63.899999999999643
 20
-27.900000000000091
 30
0.0
 11
63.899999999999643
 21
-35.100000000000023
 31
0.0
  0
LINE
  8
DETAIL
  6
CONTINUOUS
 62
     5
 10
17.10000000000036
 20
-35.100000000000023
 30
0.0
 11
9.8999999999996362
 21
-35.100000000000023
 31
0.0
  0
LINE
  8
DETAIL
  6
CONTINUOUS
 62
     5
 10
71.100000000000364
 20
-27.900000000000091
 30
0.0
 11
71.100000000000364
 21
-35.100000000000023
 31
0.0
  0
LINE
  8
DETAIL
  6
CONTINUOUS
 62
     5
 10
9.8999999999996362
 20
-27.900000000000091
 30
0.0
 11
9.8999999999996362
 21
-35.100000000000023
 31
0.0
  0
LINE
  8
DETAIL
  6
CONTINUOUS
 62
     5
 10
80.100000000000364
 20
-35.100000000000023
 30
0.0
 11
72.899999999999636
 21
-35.100000000000023
 31
0.0
  0
LINE
  8
DETAIL
  6
CONTINUOUS
 62
     5
 10
17.10000000000036
 20
-27.900000000000091
 30
0.0
 11
9.8999999999996362
 21
-27.900000000000091
 31
0.0
  0
LINE
  8
DETAIL
  6
CONTINUOUS
 62
     5
 10
72.899999999999636
 20
-27.900000000000091
 30
0.0
 11
72.899999999999636
 21
-35.100000000000023
 31
0.0
  0
LINE
  8
DETAIL
  6
CONTINUOUS
 62
     5
 10
17.10000000000036
 20
-27.900000000000091
 30
0.0
 11
17.10000000000036
 21
-35.100000000000023
 31
0.0
  0
LINE
  8
DETAIL
  6
CONTINUOUS
 62
     5
 10
80.100000000000364
 20
-27.900000000000091
 30
0.0
 11
80.100000000000364
 21
-35.100000000000023
 31
0.0
  0
LINE
  8
DETAIL
  6
CONTINUOUS
 62
     5
 10
26.10000000000036
 20
-35.100000000000023
 30
0.0
 11
18.89999999999964
 21
-35.100000000000023
 31
0.0
  0
LINE
  8
DETAIL
  6
CONTINUOUS
 62
     5
 10
35.100000000000357
 20
-44.100000000000023
 30
0.0
 11
27.89999999999964
 21
-44.100000000000023
 31
0.0
  0
LINE
  8
DETAIL
  6
CONTINUOUS
 62
     5
 10
18.89999999999964
 20
-27.900000000000091
 30
0.0
 11
18.89999999999964
 21
-35.100000000000023
 31
0.0
  0
LINE
  8
DETAIL
  6
CONTINUOUS
 62
     5
 10
35.100000000000357
 20
-36.900000000000091
 30
0.0
 11
27.89999999999964
 21
-36.900000000000091
 31
0.0
  0
LINE
  8
DETAIL
  6
CONTINUOUS
 62
     5
 10
35.100000000000357
 20
-36.900000000000091
 30
0.0
 11
35.100000000000357
 21
-44.100000000000023
 31
0.0
  0
LINE
  8
DETAIL
  6
CONTINUOUS
 62
     5
 10
44.100000000000357
 20
-44.100000000000023
 30
0.0
 11
36.899999999999643
 21
-44.100000000000023
 31
0.0
  0
ARC
  8
DETAIL
  6
CONTINUOUS
 62
     5
 10
117.20564899999999
 20
-117.20564899999999
 30
0.0
 40
1.0
 50
270.0
 51
0.0
  0
LINE
  8
DETAIL
  6
CONTINUOUS
 62
     5
 10
36.899999999999643
 20
-36.900000000000091
 30
0.0
 11
36.899999999999643
 21
-44.100000000000023
 31
0.0
  0
ARC
  8
DETAIL
  6
CONTINUOUS
 62
     5
 10
124.0
 20
-124.0
 30
0.0
 40
1.0
 50
270.0
 51
0.0
  0
LINE
  8
DETAIL
  6
CONTINUOUS
 62
     5
 10
44.100000000000357
 20
-36.900000000000091
 30
0.0
 11
36.899999999999643
 21
-36.900000000000091
 31
0.0
  0
LINE
  8
DETAIL
  6
CONTINUOUS
 62
     5
 10
8.1000000000003638
 20
-0.900000000000091
 30
0.0
 11
0.8999999999996362
 21
-0.900000000000091
 31
0.0
  0
LINE
  8
DETAIL
  6
CONTINUOUS
 62
     5
 10
44.100000000000357
 20
-36.900000000000091
 30
0.0
 11
44.100000000000357
 21
-44.100000000000023
 31
0.0
  0
LINE
  8
DETAIL
  6
CONTINUOUS
 62
     5
 10
17.10000000000036
 20
-0.900000000000091
 30
0.0
 11
9.8999999999996362
 21
-0.900000000000091
 31
0.0
  0
LINE
  8
DETAIL
  6
CONTINUOUS
 62
     5
 10
53.100000000000357
 20
-44.100000000000023
 30
0.0
 11
45.899999999999643
 21
-44.100000000000023
 31
0.0
  0
LINE
  8
DETAIL
  6
CONTINUOUS
 62
     5
 10
26.10000000000036
 20
-0.900000000000091
 30
0.0
 11
18.89999999999964
 21
-0.900000000000091
 31
0.0
  0
LINE
  8
DETAIL
  6
CONTINUOUS
 62
     5
 10
45.899999999999643
 20
-36.900000000000091
 30
0.0
 11
45.899999999999643
 21
-44.100000000000023
 31
0.0
  0
LINE
  8
DETAIL
  6
CONTINUOUS
 62
     5
 10
35.100000000000357
 20
-0.900000000000091
 30
0.0
 11
27.89999999999964
 21
-0.900000000000091
 31
0.0
  0
LINE
  8
DETAIL
  6
CONTINUOUS
 62
     5
 10
53.100000000000357
 20
-36.900000000000091
 30
0.0
 11
45.899999999999643
 21
-36.900000000000091
 31
0.0
  0
LINE
  8
DETAIL
  6
CONTINUOUS
 62
     5
 10
44.100000000000357
 20
-0.900000000000091
 30
0.0
 11
36.899999999999643
 21
-0.900000000000091
 31
0.0
  0
LINE
  8
DETAIL
  6
CONTINUOUS
 62
     5
 10
53.100000000000357
 20
-36.900000000000091
 30
0.0
 11
53.100000000000357
 21
-44.100000000000023
 31
0.0
  0
LINE
  8
DETAIL
  6
CONTINUOUS
 62
     5
 10
53.100000000000357
 20
-0.900000000000091
 30
0.0
 11
45.899999999999643
 21
-0.900000000000091
 31
0.0
  0
LINE
  8
DETAIL
  6
CONTINUOUS
 62
     5
 10
62.100000000000357
 20
-44.100000000000023
 30
0.0
 11
54.899999999999643
 21
-44.100000000000023
 31
0.0
  0
LINE
  8
DETAIL
  6
CONTINUOUS
 62
     5
 10
62.100000000000357
 20
-0.900000000000091
 30
0.0
 11
54.899999999999643
 21
-0.900000000000091
 31
0.0
  0
LINE
  8
DETAIL
  6
CONTINUOUS
 62
     5
 10
54.899999999999643
 20
-36.900000000000091
 30
0.0
 11
54.899999999999643
 21
-44.100000000000023
 31
0.0
  0
LINE
  8
DETAIL
  6
CONTINUOUS
 62
     5
 10
71.100000000000364
 20
-0.900000000000091
 30
0.0
 11
63.899999999999643
 21
-0.900000000000091
 31
0.0
  0
LINE
  8
DETAIL
  6
CONTINUOUS
 62
     5
 10
62.100000000000357
 20
-36.900000000000091
 30
0.0
 11
54.899999999999643
 21
-36.900000000000091
 31
0.0
  0
LINE
  8
DETAIL
  6
CONTINUOUS
 62
     5
 10
80.100000000000364
 20
-0.900000000000091
 30
0.0
 11
72.899999999999636
 21
-0.900000000000091
 31
0.0
  0
LINE
  8
DETAIL
  6
CONTINUOUS
 62
     5
 10
62.100000000000357
 20
-36.900000000000091
 30
0.0
 11
62.100000000000357
 21
-44.100000000000023
 31
0.0
  0
LINE
  8
DETAIL
  6
CONTINUOUS
 62
     5
 10
0.8999999999996362
 20
-18.900000000000091
 30
0.0
 11
0.8999999999996362
 21
-26.100000000000019
 31
0.0
  0
LINE
  8
DETAIL
  6
CONTINUOUS
 62
     5
 10
71.100000000000364
 20
-44.100000000000023
 30
0.0
 11
63.899999999999643
 21
-44.100000000000023
 31
0.0
  0
LINE
  8
DETAIL
  6
CONTINUOUS
 62
     5
 10
0.8999999999996362
 20
-72.900000000000091
 30
0.0
 11
0.8999999999996362
 21
-80.100000000000023
 31
0.0
  0
LINE
  8
DETAIL
  6
CONTINUOUS
 62
     5
 10
63.899999999999643
 20
-36.900000000000091
 30
0.0
 11
63.899999999999643
 21
-44.100000000000023
 31
0.0
  0
LINE
  8
DETAIL
  6
CONTINUOUS
 62
     5
 10
0.8999999999996362
 20
-9.9000000000000909
 30
0.0
 11
0.8999999999996362
 21
-17.100000000000019
 31
0.0
  0
LINE
  8
DETAIL
  6
CONTINUOUS
 62
     5
 10
71.100000000000364
 20
-36.900000000000091
 30
0.0
 11
63.899999999999643
 21
-36.900000000000091
 31
0.0
  0
LINE
  8
DETAIL
  6
CONTINUOUS
 62
     5
 10
0.8999999999996362
 20
-0.900000000000091
 30
0.0
 11
0.8999999999996362
 21
-8.1000000000000227
 31
0.0
  0
LINE
  8
DETAIL
  6
CONTINUOUS
 62
     5
 10
71.100000000000364
 20
-36.900000000000091
 30
0.0
 11
71.100000000000364
 21
-44.100000000000023
 31
0.0
  0
LINE
  8
DETAIL
  6
CONTINUOUS
 62
     5
 10
0.8999999999996362
 20
-54.900000000000091
 30
0.0
 11
0.8999999999996362
 21
-62.100000000000023
 31
0.0
  0
LINE
  8
DETAIL
  6
CONTINUOUS
 62
     5
 10
80.100000000000364
 20
-44.100000000000023
 30
0.0
 11
72.899999999999636
 21
-44.100000000000023
 31
0.0
  0
LINE
  8
DETAIL
  6
CONTINUOUS
 62
     5
 10
0.8999999999996362
 20
-45.900000000000091
 30
0.0
 11
0.8999999999996362
 21
-53.100000000000023
 31
0.0
  0
LINE
  8
DETAIL
  6
CONTINUOUS
 62
     5
 10
72.899999999999636
 20
-36.900000000000091
 30
0.0
 11
72.899999999999636
 21
-44.100000000000023
 31
0.0
  0
LINE
  8
DETAIL
  6
CONTINUOUS
 62
     5
 10
0.8999999999996362
 20
-63.900000000000091
 30
0.0
 11
0.8999999999996362
 21
-71.100000000000023
 31
0.0
  0
LINE
  8
DETAIL
  6
CONTINUOUS
 62
     5
 10
80.100000000000364
 20
-36.900000000000091
 30
0.0
 11
72.899999999999636
 21
-36.900000000000091
 31
0.0
  0
LINE
  8
DETAIL
  6
CONTINUOUS
 62
     5
 10
0.8999999999996362
 20
-36.900000000000091
 30
0.0
 11
0.8999999999996362
 21
-44.100000000000023
 31
0.0
  0
LINE
  8
DETAIL
  6
CONTINUOUS
 62
     5
 10
80.100000000000364
 20
-36.900000000000091
 30
0.0
 11
80.100000000000364
 21
-44.100000000000023
 31
0.0
  0
LINE
  8
DETAIL
  6
CONTINUOUS
 62
     5
 10
0.8999999999996362
 20
-27.900000000000091
 30
0.0
 11
0.8999999999996362
 21
-35.100000000000023
 31
0.0
  0
LINE
  8
DETAIL
  6
CONTINUOUS
 62
     5
 10
35.100000000000357
 20
-53.100000000000023
 30
0.0
 11
27.89999999999964
 21
-53.100000000000023
 31
0.0
  0
LINE
  8
DETAIL
  6
CONTINUOUS
 62
     5
 10
35.100000000000357
 20
-45.900000000000091
 30
0.0
 11
27.89999999999964
 21
-45.900000000000091
 31
0.0
  0
LINE
  8
DETAIL
  6
CONTINUOUS
 62
     5
 10
35.100000000000357
 20
-45.900000000000091
 30
0.0
 11
35.100000000000357
 21
-53.100000000000023
 31
0.0
  0
LINE
  8
DETAIL
  6
CONTINUOUS
 62
     5
 10
44.100000000000357
 20
-53.100000000000023
 30
0.0
 11
36.899999999999643
 21
-53.100000000000023
 31
0.0
  0
LINE
  8
DETAIL
  6
CONTINUOUS
 62
     5
 10
36.899999999999643
 20
-45.900000000000091
 30
0.0
 11
36.899999999999643
 21
-53.100000000000023
 31
0.0
  0
LINE
  8
DETAIL
  6
CONTINUOUS
 62
     5
 10
44.100000000000357
 20
-45.900000000000091
 30
0.0
 11
36.899999999999643
 21
-45.900000000000091
 31
0.0
  0
LINE
  8
DETAIL
  6
CONTINUOUS
 62
     5
 10
44.100000000000357
 20
-45.900000000000091
 30
0.0
 11
44.100000000000357
 21
-53.100000000000023
 31
0.0
  0
LINE
  8
DETAIL
  6
CONTINUOUS
 62
     5
 10
53.100000000000357
 20
-53.100000000000023
 30
0.0
 11
45.899999999999643
 21
-53.100000000000023
 31
0.0
  0
LINE
  8
DETAIL
  6
CONTINUOUS
 62
     5
 10
45.899999999999643
 20
-45.900000000000091
 30
0.0
 11
45.899999999999643
 21
-53.100000000000023
 31
0.0
  0
LINE
  8
DETAIL
  6
CONTINUOUS
 62
     5
 10
53.100000000000357
 20
-45.900000000000091
 30
0.0
 11
45.899999999999643
 21
-45.900000000000091
 31
0.0
  0
LINE
  8
DETAIL
  6
CONTINUOUS
 62
     5
 10
53.100000000000357
 20
-45.900000000000091
 30
0.0
 11
53.100000000000357
 21
-53.100000000000023
 31
0.0
  0
LINE
  8
DETAIL
  6
CONTINUOUS
 62
     5
 10
62.100000000000357
 20
-53.100000000000023
 30
0.0
 11
54.899999999999643
 21
-53.100000000000023
 31
0.0
  0
LINE
  8
DETAIL
  6
CONTINUOUS
 62
     5
 10
54.899999999999643
 20
-45.900000000000091
 30
0.0
 11
54.899999999999643
 21
-53.100000000000023
 31
0.0
  0
LINE
  8
DETAIL
  6
CONTINUOUS
 62
     5
 10
62.100000000000357
 20
-45.900000000000091
 30
0.0
 11
54.899999999999643
 21
-45.900000000000091
 31
0.0
  0
LINE
  8
DETAIL
  6
CONTINUOUS
 62
     5
 10
62.100000000000357
 20
-45.900000000000091
 30
0.0
 11
62.100000000000357
 21
-53.100000000000023
 31
0.0
  0
LINE
  8
DETAIL
  6
CONTINUOUS
 62
     5
 10
71.100000000000364
 20
-53.100000000000023
 30
0.0
 11
63.899999999999643
 21
-53.100000000000023
 31
0.0
  0
LINE
  8
DETAIL
  6
CONTINUOUS
 62
     5
 10
63.899999999999643
 20
-45.900000000000091
 30
0.0
 11
63.899999999999643
 21
-53.100000000000023
 31
0.0
  0
LINE
  8
DETAIL
  6
CONTINUOUS
 62
     5
 10
71.100000000000364
 20
-45.900000000000091
 30
0.0
 11
63.899999999999643
 21
-45.900000000000091
 31
0.0
  0
LINE
  8
DETAIL
  6
CONTINUOUS
 62
     5
 10
71.100000000000364
 20
-45.900000000000091
 30
0.0
 11
71.100000000000364
 21
-53.100000000000023
 31
0.0
  0
LINE
  8
DETAIL
  6
CONTINUOUS
 62
     5
 10
80.100000000000364
 20
-53.100000000000023
 30
0.0
 11
72.899999999999636
 21
-53.100000000000023
 31
0.0
  0
LINE
  8
DETAIL
  6
CONTINUOUS
 62
     5
 10
72.899999999999636
 20
-45.900000000000091
 30
0.0
 11
72.899999999999636
 21
-53.100000000000023
 31
0.0
  0
LINE
  8
DETAIL
  6
CONTINUOUS
 62
     5
 10
80.100000000000364
 20
-45.900000000000091
 30
0.0
 11
72.899999999999636
 21
-45.900000000000091
 31
0.0
  0
LINE
  8
DETAIL
  6
CONTINUOUS
 62
     5
 10
80.100000000000364
 20
-45.900000000000091
 30
0.0
 11
80.100000000000364
 21
-53.100000000000023
 31
0.0
  0
LINE
  8
DETAIL
  6
CONTINUOUS
 62
     5
 10
35.100000000000357
 20
-62.100000000000023
 30
0.0
 11
27.89999999999964
 21
-62.100000000000023
 31
0.0
  0
LINE
  8
DETAIL
  6
CONTINUOUS
 62
     5
 10
35.100000000000357
 20
-54.900000000000091
 30
0.0
 11
27.89999999999964
 21
-54.900000000000091
 31
0.0
  0
LINE
  8
DETAIL
  6
CONTINUOUS
 62
     5
 10
35.100000000000357
 20
-54.900000000000091
 30
0.0
 11
35.100000000000357
 21
-62.100000000000023
 31
0.0
  0
LINE
  8
DETAIL
  6
CONTINUOUS
 62
     5
 10
44.100000000000357
 20
-62.100000000000023
 30
0.0
 11
36.899999999999643
 21
-62.100000000000023
 31
0.0
  0
LINE
  8
DETAIL
  6
CONTINUOUS
 62
     5
 10
36.899999999999643
 20
-54.900000000000091
 30
0.0
 11
36.899999999999643
 21
-62.100000000000023
 31
0.0
  0
LINE
  8
DETAIL
  6
CONTINUOUS
 62
     5
 10
44.100000000000357
 20
-54.900000000000091
 30
0.0
 11
36.899999999999643
 21
-54.900000000000091
 31
0.0
  0
LINE
  8
DETAIL
  6
CONTINUOUS
 62
     5
 10
44.100000000000357
 20
-54.900000000000091
 30
0.0
 11
44.100000000000357
 21
-62.100000000000023
 31
0.0
  0
LINE
  8
DETAIL
  6
CONTINUOUS
 62
     5
 10
53.100000000000357
 20
-62.100000000000023
 30
0.0
 11
45.899999999999643
 21
-62.100000000000023
 31
0.0
  0
LINE
  8
DETAIL
  6
CONTINUOUS
 62
     5
 10
45.899999999999643
 20
-54.900000000000091
 30
0.0
 11
45.899999999999643
 21
-62.100000000000023
 31
0.0
  0
LINE
  8
DETAIL
  6
CONTINUOUS
 62
     5
 10
53.100000000000357
 20
-54.900000000000091
 30
0.0
 11
45.899999999999643
 21
-54.900000000000091
 31
0.0
  0
LINE
  8
DETAIL
  6
CONTINUOUS
 62
     5
 10
53.100000000000357
 20
-54.900000000000091
 30
0.0
 11
53.100000000000357
 21
-62.100000000000023
 31
0.0
  0
LINE
  8
DETAIL
  6
CONTINUOUS
 62
     5
 10
62.100000000000357
 20
-62.100000000000023
 30
0.0
 11
54.899999999999643
 21
-62.100000000000023
 31
0.0
  0
LINE
  8
DETAIL
  6
CONTINUOUS
 62
     5
 10
54.899999999999643
 20
-54.900000000000091
 30
0.0
 11
54.899999999999643
 21
-62.100000000000023
 31
0.0
  0
LINE
  8
DETAIL
  6
CONTINUOUS
 62
     5
 10
62.100000000000357
 20
-54.900000000000091
 30
0.0
 11
54.899999999999643
 21
-54.900000000000091
 31
0.0
  0
LINE
  8
DETAIL
  6
CONTINUOUS
 62
     5
 10
62.100000000000357
 20
-54.900000000000091
 30
0.0
 11
62.100000000000357
 21
-62.100000000000023
 31
0.0
  0
LINE
  8
DETAIL
  6
CONTINUOUS
 62
     5
 10
71.100000000000364
 20
-62.100000000000023
 30
0.0
 11
63.899999999999643
 21
-62.100000000000023
 31
0.0
  0
LINE
  8
DETAIL
  6
CONTINUOUS
 62
     5
 10
63.899999999999643
 20
-54.900000000000091
 30
0.0
 11
63.899999999999643
 21
-62.100000000000023
 31
0.0
  0
LINE
  8
DETAIL
  6
CONTINUOUS
 62
     5
 10
71.100000000000364
 20
-54.900000000000091
 30
0.0
 11
63.899999999999643
 21
-54.900000000000091
 31
0.0
  0
LINE
  8
DETAIL
  6
CONTINUOUS
 62
     5
 10
71.100000000000364
 20
-54.900000000000091
 30
0.0
 11
71.100000000000364
 21
-62.100000000000023
 31
0.0
  0
LINE
  8
DETAIL
  6
CONTINUOUS
 62
     5
 10
80.100000000000364
 20
-62.100000000000023
 30
0.0
 11
72.899999999999636
 21
-62.100000000000023
 31
0.0
  0
LINE
  8
DETAIL
  6
CONTINUOUS
 62
     5
 10
72.899999999999636
 20
-54.900000000000091
 30
0.0
 11
72.899999999999636
 21
-62.100000000000023
 31
0.0
  0
LINE
  8
DETAIL
  6
CONTINUOUS
 62
     5
 10
80.100000000000364
 20
-54.900000000000091
 30
0.0
 11
72.899999999999636
 21
-54.900000000000091
 31
0.0
  0
LINE
  8
DETAIL
  6
CONTINUOUS
 62
     5
 10
80.100000000000364
 20
-54.900000000000091
 30
0.0
 11
80.100000000000364
 21
-62.100000000000023
 31
0.0
  0
LINE
  8
DETAIL
  6
CONTINUOUS
 62
     5
 10
35.100000000000357
 20
-71.100000000000023
 30
0.0
 11
27.89999999999964
 21
-71.100000000000023
 31
0.0
  0
LINE
  8
DETAIL
  6
CONTINUOUS
 62
     5
 10
35.100000000000357
 20
-63.900000000000091
 30
0.0
 11
27.89999999999964
 21
-63.900000000000091
 31
0.0
  0
LINE
  8
DETAIL
  6
CONTINUOUS
 62
     5
 10
35.100000000000357
 20
-63.900000000000091
 30
0.0
 11
35.100000000000357
 21
-71.100000000000023
 31
0.0
  0
LINE
  8
DETAIL
  6
CONTINUOUS
 62
     5
 10
44.100000000000357
 20
-71.100000000000023
 30
0.0
 11
36.899999999999643
 21
-71.100000000000023
 31
0.0
  0
LINE
  8
DETAIL
  6
CONTINUOUS
 62
     5
 10
36.899999999999643
 20
-63.900000000000091
 30
0.0
 11
36.899999999999643
 21
-71.100000000000023
 31
0.0
  0
LINE
  8
DETAIL
  6
CONTINUOUS
 62
     5
 10
44.100000000000357
 20
-63.900000000000091
 30
0.0
 11
36.899999999999643
 21
-63.900000000000091
 31
0.0
  0
LINE
  8
DETAIL
  6
CONTINUOUS
 62
     5
 10
44.100000000000357
 20
-63.900000000000091
 30
0.0
 11
44.100000000000357
 21
-71.100000000000023
 31
0.0
  0
LINE
  8
DETAIL
  6
CONTINUOUS
 62
     5
 10
53.100000000000357
 20
-71.100000000000023
 30
0.0
 11
45.899999999999643
 21
-71.100000000000023
 31
0.0
  0
LINE
  8
DETAIL
  6
CONTINUOUS
 62
     5
 10
45.899999999999643
 20
-63.900000000000091
 30
0.0
 11
45.899999999999643
 21
-71.100000000000023
 31
0.0
  0
LINE
  8
DETAIL
  6
CONTINUOUS
 62
     5
 10
53.100000000000357
 20
-63.900000000000091
 30
0.0
 11
45.899999999999643
 21
-63.900000000000091
 31
0.0
  0
LINE
  8
DETAIL
  6
CONTINUOUS
 62
     5
 10
53.100000000000357
 20
-63.900000000000091
 30
0.0
 11
53.100000000000357
 21
-71.100000000000023
 31
0.0
  0
LINE
  8
DETAIL
  6
CONTINUOUS
 62
     5
 10
62.100000000000357
 20
-71.100000000000023
 30
0.0
 11
54.899999999999643
 21
-71.100000000000023
 31
0.0
  0
LINE
  8
DETAIL
  6
CONTINUOUS
 62
     5
 10
54.899999999999643
 20
-63.900000000000091
 30
0.0
 11
54.899999999999643
 21
-71.100000000000023
 31
0.0
  0
LINE
  8
DETAIL
  6
CONTINUOUS
 62
     5
 10
62.100000000000357
 20
-63.900000000000091
 30
0.0
 11
54.899999999999643
 21
-63.900000000000091
 31
0.0
  0
LINE
  8
DETAIL
  6
CONTINUOUS
 62
     5
 10
26.10000000000036
 20
-27.900000000000091
 30
0.0
 11
18.89999999999964
 21
-27.900000000000091
 31
0.0
  0
LINE
  8
DETAIL
  6
CONTINUOUS
 62
     5
 10
26.10000000000036
 20
-27.900000000000091
 30
0.0
 11
26.10000000000036
 21
-35.100000000000023
 31
0.0
  0
LINE
  8
DETAIL
  6
CONTINUOUS
 62
     5
 10
27.89999999999964
 20
-27.900000000000091
 30
0.0
 11
27.89999999999964
 21
-35.100000000000023
 31
0.0
  0
LINE
  8
DETAIL
  6
CONTINUOUS
 62
     5
 10
35.100000000000357
 20
-27.900000000000091
 30
0.0
 11
27.89999999999964
 21
-27.900000000000091
 31
0.0
  0
LINE
  8
DETAIL
  6
CONTINUOUS
 62
     5
 10
8.1000000000003638
 20
-26.100000000000019
 30
0.0
 11
0.8999999999996362
 21
-26.100000000000019
 31
0.0
  0
LINE
  8
DETAIL
  6
CONTINUOUS
 62
     5
 10
8.1000000000003638
 20
-18.900000000000091
 30
0.0
 11
0.8999999999996362
 21
-18.900000000000091
 31
0.0
  0
LINE
  8
DETAIL
  6
CONTINUOUS
 62
     5
 10
8.1000000000003638
 20
-18.900000000000091
 30
0.0
 11
8.1000000000003638
 21
-26.100000000000019
 31
0.0
  0
LINE
  8
DETAIL
  6
CONTINUOUS
 62
     5
 10
8.1000000000003638
 20
-80.100000000000023
 30
0.0
 11
0.8999999999996362
 21
-80.100000000000023
 31
0.0
  0
LINE
  8
DETAIL
  6
CONTINUOUS
 62
     5
 10
17.10000000000036
 20
-26.100000000000019
 30
0.0
 11
9.8999999999996362
 21
-26.100000000000019
 31
0.0
  0
LINE
  8
DETAIL
  6
CONTINUOUS
 62
     5
 10
9.8999999999996362
 20
-18.900000000000091
 30
0.0
 11
9.8999999999996362
 21
-26.100000000000019
 31
0.0
  0
LINE
  8
DETAIL
  6
CONTINUOUS
 62
     5
 10
8.1000000000003638
 20
-72.900000000000091
 30
0.0
 11
0.8999999999996362
 21
-72.900000000000091
 31
0.0
  0
LINE
  8
DETAIL
  6
CONTINUOUS
 62
     5
 10
17.10000000000036
 20
-18.900000000000091
 30
0.0
 11
9.8999999999996362
 21
-18.900000000000091
 31
0.0
  0
LINE
  8
DETAIL
  6
CONTINUOUS
 62
     5
 10
8.1000000000003638
 20
-72.900000000000091
 30
0.0
 11
8.1000000000003638
 21
-80.100000000000023
 31
0.0
  0
LINE
  8
DETAIL
  6
CONTINUOUS
 62
     5
 10
17.10000000000036
 20
-18.900000000000091
 30
0.0
 11
17.10000000000036
 21
-26.100000000000019
 31
0.0
  0
LINE
  8
DETAIL
  6
CONTINUOUS
 62
     5
 10
17.10000000000036
 20
-80.100000000000023
 30
0.0
 11
9.8999999999996362
 21
-80.100000000000023
 31
0.0
  0
LINE
  8
DETAIL
  6
CONTINUOUS
 62
     5
 10
26.10000000000036
 20
-26.100000000000019
 30
0.0
 11
18.89999999999964
 21
-26.100000000000019
 31
0.0
  0
LINE
  8
DETAIL
  6
CONTINUOUS
 62
     5
 10
9.8999999999996362
 20
-72.900000000000091
 30
0.0
 11
9.8999999999996362
 21
-80.100000000000023
 31
0.0
  0
LINE
  8
DETAIL
  6
CONTINUOUS
 62
     5
 10
18.89999999999964
 20
-18.900000000000091
 30
0.0
 11
18.89999999999964
 21
-26.100000000000019
 31
0.0
  0
LINE
  8
DETAIL
  6
CONTINUOUS
 62
     5
 10
17.10000000000036
 20
-72.900000000000091
 30
0.0
 11
9.8999999999996362
 21
-72.900000000000091
 31
0.0
  0
LINE
  8
DETAIL
  6
CONTINUOUS
 62
     5
 10
26.10000000000036
 20
-18.900000000000091
 30
0.0
 11
18.89999999999964
 21
-18.900000000000091
 31
0.0
  0
LINE
  8
DETAIL
  6
CONTINUOUS
 62
     5
 10
17.10000000000036
 20
-72.900000000000091
 30
0.0
 11
17.10000000000036
 21
-80.100000000000023
 31
0.0
  0
LINE
  8
DETAIL
  6
CONTINUOUS
 62
     5
 10
26.10000000000036
 20
-18.900000000000091
 30
0.0
 11
26.10000000000036
 21
-26.100000000000019
 31
0.0
  0
LINE
  8
DETAIL
  6
CONTINUOUS
 62
     5
 10
26.10000000000036
 20
-80.100000000000023
 30
0.0
 11
18.89999999999964
 21
-80.100000000000023
 31
0.0
  0
LINE
  8
DETAIL
  6
CONTINUOUS
 62
     5
 10
35.100000000000357
 20
-26.100000000000019
 30
0.0
 11
27.89999999999964
 21
-26.100000000000019
 31
0.0
  0
LINE
  8
DETAIL
  6
CONTINUOUS
 62
     5
 10
18.89999999999964
 20
-72.900000000000091
 30
0.0
 11
18.89999999999964
 21
-80.100000000000023
 31
0.0
  0
LINE
  8
DETAIL
  6
CONTINUOUS
 62
     5
 10
27.89999999999964
 20
-18.900000000000091
 30
0.0
 11
27.89999999999964
 21
-26.100000000000019
 31
0.0
  0
LINE
  8
DETAIL
  6
CONTINUOUS
 62
     5
 10
26.10000000000036
 20
-72.900000000000091
 30
0.0
 11
18.89999999999964
 21
-72.900000000000091
 31
0.0
  0
LINE
  8
DETAIL
  6
CONTINUOUS
 62
     5
 10
35.100000000000357
 20
-18.900000000000091
 30
0.0
 11
27.89999999999964
 21
-18.900000000000091
 31
0.0
  0
LINE
  8
DETAIL
  6
CONTINUOUS
 62
     5
 10
26.10000000000036
 20
-72.900000000000091
 30
0.0
 11
26.10000000000036
 21
-80.100000000000023
 31
0.0
  0
LINE
  8
DETAIL
  6
CONTINUOUS
 62
     5
 10
35.100000000000357
 20
-18.900000000000091
 30
0.0
 11
35.100000000000357
 21
-26.100000000000019
 31
0.0
  0
LINE
  8
DETAIL
  6
CONTINUOUS
 62
     5
 10
44.100000000000357
 20
-26.100000000000019
 30
0.0
 11
36.899999999999643
 21
-26.100000000000019
 31
0.0
  0
LINE
  8
DETAIL
  6
CONTINUOUS
 62
     5
 10
27.89999999999964
 20
-72.900000000000091
 30
0.0
 11
27.89999999999964
 21
-80.100000000000023
 31
0.0
  0
LINE
  8
DETAIL
  6
CONTINUOUS
 62
     5
 10
36.899999999999643
 20
-18.900000000000091
 30
0.0
 11
36.899999999999643
 21
-26.100000000000019
 31
0.0
  0
LINE
  8
DETAIL
  6
CONTINUOUS
 62
     5
 10
118.20564899999999
 20
-117.20564899999999
 30
0.0
 11
118.20564899999999
 21
0.0
 31
0.0
  0
LINE
  8
DETAIL
  6
CONTINUOUS
 62
     5
 10
125.0
 20
-124.0
 30
0.0
 11
125.0
 21
0.0
 31
0.0
  0
LINE
  8
DETAIL
  6
CONTINUOUS
 62
     5
 10
86.0
 20
-82.5
 30
0.0
 11
86.0
 21
0.0
 31
0.0
  0
LINE
  8
DETAIL
  6
CONTINUOUS
 62
     5
 10
87.5
 20
-84.0
 30
0.0
 11
87.5
 21
0.0
 31
0.0
  0
LINE
  8
DETAIL
  6
CONTINUOUS
 62
     5
 10
117.20564899999999
 20
-118.20564899999999
 30
0.0
 11
0.0
 21
-118.20564899999999
 31
0.0
  0
LINE
  8
DETAIL
  6
CONTINUOUS
 62
     5
 10
0.0
 20
-125.0
 30
0.0
 11
124.0
 21
-125.0
 31
0.0
  0
LINE
  8
DETAIL
  6
CONTINUOUS
 62
     5
 10
0.0
 20
-87.5
 30
0.0
 11
84.0
 21
-87.5
 31
0.0
  0
LINE
  8
DETAIL
  6
CONTINUOUS
 62
     5
 10
0.0
 20
-86.0
 30
0.0
 11
82.5
 21
-86.0
 31
0.0
  0
LINE
  8
DETAIL
  6
CONTINUOUS
 62
     5
 10
44.100000000000357
 20
18.899999999999981
 30
0.0
 11
36.899999999999643
 21
18.899999999999981
 31
0.0
  0
LINE
  8
DETAIL
  6
CONTINUOUS
 62
     5
 10
44.100000000000357
 20
18.899999999999981
 30
0.0
 11
44.100000000000357
 21
26.099999999999909
 31
0.0
  0
LINE
  8
DETAIL
  6
CONTINUOUS
 62
     5
 10
8.1000000000003638
 20
17.099999999999909
 30
0.0
 11
0.8999999999996362
 21
17.099999999999909
 31
0.0
  0
LINE
  8
DETAIL
  6
CONTINUOUS
 62
     5
 10
8.1000000000003638
 20
9.8999999999999773
 30
0.0
 11
0.8999999999996362
 21
9.8999999999999773
 31
0.0
  0
LINE
  8
DETAIL
  6
CONTINUOUS
 62
     5
 10
8.1000000000003638
 20
9.8999999999999773
 30
0.0
 11
8.1000000000003638
 21
17.099999999999909
 31
0.0
  0
LINE
  8
DETAIL
  6
CONTINUOUS
 62
     5
 10
17.10000000000036
 20
17.099999999999909
 30
0.0
 11
9.8999999999996362
 21
17.099999999999909
 31
0.0
  0
LINE
  8
DETAIL
  6
CONTINUOUS
 62
     5
 10
9.8999999999996362
 20
9.8999999999999773
 30
0.0
 11
9.8999999999996362
 21
17.099999999999909
 31
0.0
  0
LINE
  8
DETAIL
  6
CONTINUOUS
 62
     5
 10
17.10000000000036
 20
9.8999999999999773
 30
0.0
 11
9.8999999999996362
 21
9.8999999999999773
 31
0.0
  0
LINE
  8
DETAIL
  6
CONTINUOUS
 62
     5
 10
17.10000000000036
 20
9.8999999999999773
 30
0.0
 11
17.10000000000036
 21
17.099999999999909
 31
0.0
  0
LINE
  8
DETAIL
  6
CONTINUOUS
 62
     5
 10
26.10000000000036
 20
17.099999999999909
 30
0.0
 11
18.89999999999964
 21
17.099999999999909
 31
0.0
  0
LINE
  8
DETAIL
  6
CONTINUOUS
 62
     5
 10
18.89999999999964
 20
9.8999999999999773
 30
0.0
 11
18.89999999999964
 21
17.099999999999909
 31
0.0
  0
LINE
  8
DETAIL
  6
CONTINUOUS
 62
     5
 10
26.10000000000036
 20
9.8999999999999773
 30
0.0
 11
18.89999999999964
 21
9.8999999999999773
 31
0.0
  0
LINE
  8
DETAIL
  6
CONTINUOUS
 62
     5
 10
26.10000000000036
 20
9.8999999999999773
 30
0.0
 11
26.10000000000036
 21
17.099999999999909
 31
0.0
  0
LINE
  8
DETAIL
  6
CONTINUOUS
 62
     5
 10
35.100000000000357
 20
17.099999999999909
 30
0.0
 11
27.89999999999964
 21
17.099999999999909
 31
0.0
  0
LINE
  8
DETAIL
  6
CONTINUOUS
 62
     5
 10
27.89999999999964
 20
9.8999999999999773
 30
0.0
 11
27.89999999999964
 21
17.099999999999909
 31
0.0
  0
LINE
  8
DETAIL
  6
CONTINUOUS
 62
     5
 10
35.100000000000357
 20
9.8999999999999773
 30
0.0
 11
27.89999999999964
 21
9.8999999999999773
 31
0.0
  0
LINE
  8
DETAIL
  6
CONTINUOUS
 62
     5
 10
35.100000000000357
 20
9.8999999999999773
 30
0.0
 11
35.100000000000357
 21
17.099999999999909
 31
0.0
  0
LINE
  8
DETAIL
  6
CONTINUOUS
 62
     5
 10
44.100000000000357
 20
17.099999999999909
 30
0.0
 11
36.899999999999643
 21
17.099999999999909
 31
0.0
  0
LINE
  8
DETAIL
  6
CONTINUOUS
 62
     5
 10
36.899999999999643
 20
9.8999999999999773
 30
0.0
 11
36.899999999999643
 21
17.099999999999909
 31
0.0
  0
LINE
  8
DETAIL
  6
CONTINUOUS
 62
     5
 10
44.100000000000357
 20
9.8999999999999773
 30
0.0
 11
36.899999999999643
 21
9.8999999999999773
 31
0.0
  0
LINE
  8
DETAIL
  6
CONTINUOUS
 62
     5
 10
44.100000000000357
 20
9.8999999999999773
 30
0.0
 11
44.100000000000357
 21
17.099999999999909
 31
0.0
  0
LINE
  8
DETAIL
  6
CONTINUOUS
 62
     5
 10
53.100000000000357
 20
17.099999999999909
 30
0.0
 11
45.899999999999643
 21
17.099999999999909
 31
0.0
  0
LINE
  8
DETAIL
  6
CONTINUOUS
 62
     5
 10
45.899999999999643
 20
9.8999999999999773
 30
0.0
 11
45.899999999999643
 21
17.099999999999909
 31
0.0
  0
LINE
  8
DETAIL
  6
CONTINUOUS
 62
     5
 10
53.100000000000357
 20
9.8999999999999773
 30
0.0
 11
45.899999999999643
 21
9.8999999999999773
 31
0.0
  0
LINE
  8
DETAIL
  6
CONTINUOUS
 62
     5
 10
53.100000000000357
 20
9.8999999999999773
 30
0.0
 11
53.100000000000357
 21
17.099999999999909
 31
0.0
  0
LINE
  8
DETAIL
  6
CONTINUOUS
 62
     5
 10
8.1000000000003638
 20
8.0999999999999091
 30
0.0
 11
0.8999999999996362
 21
8.0999999999999091
 31
0.0
  0
LINE
  8
DETAIL
  6
CONTINUOUS
 62
     5
 10
8.1000000000003638
 20
0.8999999999999773
 30
0.0
 11
8.1000000000003638
 21
8.0999999999999091
 31
0.0
  0
LINE
  8
DETAIL
  6
CONTINUOUS
 62
     5
 10
17.10000000000036
 20
8.0999999999999091
 30
0.0
 11
9.8999999999996362
 21
8.0999999999999091
 31
0.0
  0
LINE
  8
DETAIL
  6
CONTINUOUS
 62
     5
 10
9.8999999999996362
 20
0.8999999999999773
 30
0.0
 11
9.8999999999996362
 21
8.0999999999999091
 31
0.0
  0
LINE
  8
DETAIL
  6
CONTINUOUS
 62
     5
 10
17.10000000000036
 20
0.8999999999999773
 30
0.0
 11
17.10000000000036
 21
8.0999999999999091
 31
0.0
  0
LINE
  8
DETAIL
  6
CONTINUOUS
 62
     5
 10
26.10000000000036
 20
8.0999999999999091
 30
0.0
 11
18.89999999999964
 21
8.0999999999999091
 31
0.0
  0
LINE
  8
DETAIL
  6
CONTINUOUS
 62
     5
 10
18.89999999999964
 20
0.8999999999999773
 30
0.0
 11
18.89999999999964
 21
8.0999999999999091
 31
0.0
  0
LINE
  8
DETAIL
  6
CONTINUOUS
 62
     5
 10
26.10000000000036
 20
0.8999999999999773
 30
0.0
 11
26.10000000000036
 21
8.0999999999999091
 31
0.0
  0
LINE
  8
DETAIL
  6
CONTINUOUS
 62
     5
 10
35.100000000000357
 20
8.0999999999999091
 30
0.0
 11
27.89999999999964
 21
8.0999999999999091
 31
0.0
  0
LINE
  8
DETAIL
  6
CONTINUOUS
 62
     5
 10
27.89999999999964
 20
0.8999999999999773
 30
0.0
 11
27.89999999999964
 21
8.0999999999999091
 31
0.0
  0
LINE
  8
DETAIL
  6
CONTINUOUS
 62
     5
 10
35.100000000000357
 20
0.8999999999999773
 30
0.0
 11
35.100000000000357
 21
8.0999999999999091
 31
0.0
  0
LINE
  8
DETAIL
  6
CONTINUOUS
 62
     5
 10
44.100000000000357
 20
8.0999999999999091
 30
0.0
 11
36.899999999999643
 21
8.0999999999999091
 31
0.0
  0
LINE
  8
DETAIL
  6
CONTINUOUS
 62
     5
 10
36.899999999999643
 20
0.8999999999999773
 30
0.0
 11
36.899999999999643
 21
8.0999999999999091
 31
0.0
  0
LINE
  8
DETAIL
  6
CONTINUOUS
 62
     5
 10
44.100000000000357
 20
0.8999999999999773
 30
0.0
 11
44.100000000000357
 21
8.0999999999999091
 31
0.0
  0
LINE
  8
DETAIL
  6
CONTINUOUS
 62
     5
 10
53.100000000000357
 20
8.0999999999999091
 30
0.0
 11
45.899999999999643
 21
8.0999999999999091
 31
0.0
  0
LINE
  8
DETAIL
  6
CONTINUOUS
 62
     5
 10
45.899999999999643
 20
0.8999999999999773
 30
0.0
 11
45.899999999999643
 21
8.0999999999999091
 31
0.0
  0
LINE
  8
DETAIL
  6
CONTINUOUS
 62
     5
 10
53.100000000000357
 20
0.8999999999999773
 30
0.0
 11
53.100000000000357
 21
8.0999999999999091
 31
0.0
  0
LINE
  8
DETAIL
  6
CONTINUOUS
 62
     5
 10
62.100000000000357
 20
8.0999999999999091
 30
0.0
 11
54.899999999999643
 21
8.0999999999999091
 31
0.0
  0
LINE
  8
DETAIL
  6
CONTINUOUS
 62
     5
 10
54.899999999999643
 20
0.8999999999999773
 30
0.0
 11
54.899999999999643
 21
8.0999999999999091
 31
0.0
  0
LINE
  8
DETAIL
  6
CONTINUOUS
 62
     5
 10
62.100000000000357
 20
0.8999999999999773
 30
0.0
 11
62.100000000000357
 21
8.0999999999999091
 31
0.0
  0
LINE
  8
DETAIL
  6
CONTINUOUS
 62
     5
 10
71.100000000000364
 20
8.0999999999999091
 30
0.0
 11
63.899999999999643
 21
8.0999999999999091
 31
0.0
  0
LINE
  8
DETAIL
  6
CONTINUOUS
 62
     5
 10
63.899999999999643
 20
0.8999999999999773
 30
0.0
 11
63.899999999999643
 21
8.0999999999999091
 31
0.0
  0
LINE
  8
DETAIL
  6
CONTINUOUS
 62
     5
 10
71.100000000000364
 20
0.8999999999999773
 30
0.0
 11
71.100000000000364
 21
8.0999999999999091
 31
0.0
  0
LINE
  8
DETAIL
  6
CONTINUOUS
 62
     5
 10
80.100000000000364
 20
8.0999999999999091
 30
0.0
 11
72.899999999999636
 21
8.0999999999999091
 31
0.0
  0
LINE
  8
DETAIL
  6
CONTINUOUS
 62
     5
 10
72.899999999999636
 20
0.8999999999999773
 30
0.0
 11
72.899999999999636
 21
8.0999999999999091
 31
0.0
  0
LINE
  8
DETAIL
  6
CONTINUOUS
 62
     5
 10
80.100000000000364
 20
0.8999999999999773
 30
0.0
 11
80.100000000000364
 21
8.0999999999999091
 31
0.0
  0
LINE
  8
DETAIL
  6
CONTINUOUS
 62
     5
 10
62.100000000000357
 20
17.099999999999909
 30
0.0
 11
54.899999999999643
 21
17.099999999999909
 31
0.0
  0
LINE
  8
DETAIL
  6
CONTINUOUS
 62
     5
 10
54.899999999999643
 20
9.8999999999999773
 30
0.0
 11
54.899999999999643
 21
17.099999999999909
 31
0.0
  0
LINE
  8
DETAIL
  6
CONTINUOUS
 62
     5
 10
62.100000000000357
 20
9.8999999999999773
 30
0.0
 11
54.899999999999643
 21
9.8999999999999773
 31
0.0
  0
LINE
  8
DETAIL
  6
CONTINUOUS
 62
     5
 10
62.100000000000357
 20
9.8999999999999773
 30
0.0
 11
62.100000000000357
 21
17.099999999999909
 31
0.0
  0
LINE
  8
DETAIL
  6
CONTINUOUS
 62
     5
 10
71.100000000000364
 20
17.099999999999909
 30
0.0
 11
63.899999999999643
 21
17.099999999999909
 31
0.0
  0
LINE
  8
DETAIL
  6
CONTINUOUS
 62
     5
 10
63.899999999999643
 20
9.8999999999999773
 30
0.0
 11
63.899999999999643
 21
17.099999999999909
 31
0.0
  0
LINE
  8
DETAIL
  6
CONTINUOUS
 62
     5
 10
71.100000000000364
 20
9.8999999999999773
 30
0.0
 11
63.899999999999643
 21
9.8999999999999773
 31
0.0
  0
LINE
  8
DETAIL
  6
CONTINUOUS
 62
     5
 10
71.100000000000364
 20
9.8999999999999773
 30
0.0
 11
71.100000000000364
 21
17.099999999999909
 31
0.0
  0
LINE
  8
DETAIL
  6
CONTINUOUS
 62
     5
 10
80.100000000000364
 20
17.099999999999909
 30
0.0
 11
72.899999999999636
 21
17.099999999999909
 31
0.0
  0
LINE
  8
DETAIL
  6
CONTINUOUS
 62
     5
 10
72.899999999999636
 20
9.8999999999999773
 30
0.0
 11
72.899999999999636
 21
17.099999999999909
 31
0.0
  0
LINE
  8
DETAIL
  6
CONTINUOUS
 62
     5
 10
80.100000000000364
 20
9.8999999999999773
 30
0.0
 11
72.899999999999636
 21
9.8999999999999773
 31
0.0
  0
LINE
  8
DETAIL
  6
CONTINUOUS
 62
     5
 10
80.100000000000364
 20
9.8999999999999773
 30
0.0
 11
80.100000000000364
 21
17.099999999999909
 31
0.0
  0
LINE
  8
DETAIL
  6
CONTINUOUS
 62
     5
 10
53.100000000000357
 20
26.099999999999909
 30
0.0
 11
45.899999999999643
 21
26.099999999999909
 31
0.0
  0
LINE
  8
DETAIL
  6
CONTINUOUS
 62
     5
 10
45.899999999999643
 20
18.899999999999981
 30
0.0
 11
45.899999999999643
 21
26.099999999999909
 31
0.0
  0
LINE
  8
DETAIL
  6
CONTINUOUS
 62
     5
 10
53.100000000000357
 20
18.899999999999981
 30
0.0
 11
45.899999999999643
 21
18.899999999999981
 31
0.0
  0
LINE
  8
DETAIL
  6
CONTINUOUS
 62
     5
 10
53.100000000000357
 20
18.899999999999981
 30
0.0
 11
53.100000000000357
 21
26.099999999999909
 31
0.0
  0
LINE
  8
DETAIL
  6
CONTINUOUS
 62
     5
 10
62.100000000000357
 20
26.099999999999909
 30
0.0
 11
54.899999999999643
 21
26.099999999999909
 31
0.0
  0
LINE
  8
DETAIL
  6
CONTINUOUS
 62
     5
 10
54.899999999999643
 20
18.899999999999981
 30
0.0
 11
54.899999999999643
 21
26.099999999999909
 31
0.0
  0
LINE
  8
DETAIL
  6
CONTINUOUS
 62
     5
 10
62.100000000000357
 20
18.899999999999981
 30
0.0
 11
54.899999999999643
 21
18.899999999999981
 31
0.0
  0
LINE
  8
DETAIL
  6
CONTINUOUS
 62
     5
 10
62.100000000000357
 20
18.899999999999981
 30
0.0
 11
62.100000000000357
 21
26.099999999999909
 31
0.0
  0
LINE
  8
DETAIL
  6
CONTINUOUS
 62
     5
 10
71.100000000000364
 20
26.099999999999909
 30
0.0
 11
63.899999999999643
 21
26.099999999999909
 31
0.0
  0
LINE
  8
DETAIL
  6
CONTINUOUS
 62
     5
 10
63.899999999999643
 20
18.899999999999981
 30
0.0
 11
63.899999999999643
 21
26.099999999999909
 31
0.0
  0
LINE
  8
DETAIL
  6
CONTINUOUS
 62
     5
 10
71.100000000000364
 20
18.899999999999981
 30
0.0
 11
63.899999999999643
 21
18.899999999999981
 31
0.0
  0
LINE
  8
DETAIL
  6
CONTINUOUS
 62
     5
 10
71.100000000000364
 20
18.899999999999981
 30
0.0
 11
71.100000000000364
 21
26.099999999999909
 31
0.0
  0
LINE
  8
DETAIL
  6
CONTINUOUS
 62
     5
 10
80.100000000000364
 20
26.099999999999909
 30
0.0
 11
72.899999999999636
 21
26.099999999999909
 31
0.0
  0
LINE
  8
DETAIL
  6
CONTINUOUS
 62
     5
 10
72.899999999999636
 20
18.899999999999981
 30
0.0
 11
72.899999999999636
 21
26.099999999999909
 31
0.0
  0
LINE
  8
DETAIL
  6
CONTINUOUS
 62
     5
 10
80.100000000000364
 20
18.899999999999981
 30
0.0
 11
72.899999999999636
 21
18.899999999999981
 31
0.0
  0
LINE
  8
DETAIL
  6
CONTINUOUS
 62
     5
 10
80.100000000000364
 20
18.899999999999981
 30
0.0
 11
80.100000000000364
 21
26.099999999999909
 31
0.0
  0
LINE
  8
DETAIL
  6
CONTINUOUS
 62
     5
 10
44.100000000000357
 20
27.899999999999981
 30
0.0
 11
36.899999999999643
 21
27.899999999999981
 31
0.0
  0
LINE
  8
DETAIL
  6
CONTINUOUS
 62
     5
 10
53.100000000000357
 20
27.899999999999981
 30
0.0
 11
45.899999999999643
 21
27.899999999999981
 31
0.0
  0
LINE
  8
DETAIL
  6
CONTINUOUS
 62
     5
 10
62.100000000000357
 20
27.899999999999981
 30
0.0
 11
54.899999999999643
 21
27.899999999999981
 31
0.0
  0
LINE
  8
DETAIL
  6
CONTINUOUS
 62
     5
 10
71.100000000000364
 20
27.899999999999981
 30
0.0
 11
63.899999999999643
 21
27.899999999999981
 31
0.0
  0
LINE
  8
DETAIL
  6
CONTINUOUS
 62
     5
 10
80.100000000000364
 20
27.899999999999981
 30
0.0
 11
72.899999999999636
 21
27.899999999999981
 31
0.0
  0
LINE
  8
DETAIL
  6
CONTINUOUS
 62
     5
 10
27.89999999999964
 20
36.899999999999977
 30
0.0
 11
27.89999999999964
 21
44.099999999999909
 31
0.0
  0
LINE
  8
DETAIL
  6
CONTINUOUS
 62
     5
 10
26.10000000000036
 20
53.099999999999909
 30
0.0
 11
18.89999999999964
 21
53.099999999999909
 31
0.0
  0
LINE
  8
DETAIL
  6
CONTINUOUS
 62
     5
 10
18.89999999999964
 20
45.899999999999977
 30
0.0
 11
18.89999999999964
 21
53.099999999999909
 31
0.0
  0
LINE
  8
DETAIL
  6
CONTINUOUS
 62
     5
 10
26.10000000000036
 20
45.899999999999977
 30
0.0
 11
18.89999999999964
 21
45.899999999999977
 31
0.0
  0
LINE
  8
DETAIL
  6
CONTINUOUS
 62
     5
 10
26.10000000000036
 20
45.899999999999977
 30
0.0
 11
26.10000000000036
 21
53.099999999999909
 31
0.0
  0
LINE
  8
DETAIL
  6
CONTINUOUS
 62
     5
 10
62.100000000000357
 20
63.899999999999977
 30
0.0
 11
62.100000000000357
 21
71.099999999999909
 31
0.0
  0
LINE
  8
DETAIL
  6
CONTINUOUS
 62
     5
 10
27.89999999999964
 20
45.899999999999977
 30
0.0
 11
27.89999999999964
 21
53.099999999999909
 31
0.0
  0
LINE
  8
DETAIL
  6
CONTINUOUS
 62
     5
 10
71.100000000000364
 20
71.099999999999909
 30
0.0
 11
63.899999999999643
 21
71.099999999999909
 31
0.0
  0
LINE
  8
DETAIL
  6
CONTINUOUS
 62
     5
 10
17.10000000000036
 20
62.099999999999909
 30
0.0
 11
9.8999999999996362
 21
62.099999999999909
 31
0.0
  0
LINE
  8
DETAIL
  6
CONTINUOUS
 62
     5
 10
35.100000000000357
 20
35.099999999999909
 30
0.0
 11
27.89999999999964
 21
35.099999999999909
 31
0.0
  0
LINE
  8
DETAIL
  6
CONTINUOUS
 62
     5
 10
9.8999999999996362
 20
54.899999999999977
 30
0.0
 11
9.8999999999996362
 21
62.099999999999909
 31
0.0
  0
LINE
  8
DETAIL
  6
CONTINUOUS
 62
     5
 10
63.899999999999643
 20
63.899999999999977
 30
0.0
 11
63.899999999999643
 21
71.099999999999909
 31
0.0
  0
LINE
  8
DETAIL
  6
CONTINUOUS
 62
     5
 10
17.10000000000036
 20
54.899999999999977
 30
0.0
 11
9.8999999999996362
 21
54.899999999999977
 31
0.0
  0
LINE
  8
DETAIL
  6
CONTINUOUS
 62
     5
 10
71.100000000000364
 20
63.899999999999977
 30
0.0
 11
63.899999999999643
 21
63.899999999999977
 31
0.0
  0
LINE
  8
DETAIL
  6
CONTINUOUS
 62
     5
 10
17.10000000000036
 20
54.899999999999977
 30
0.0
 11
17.10000000000036
 21
62.099999999999909
 31
0.0
  0
LINE
  8
DETAIL
  6
CONTINUOUS
 62
     5
 10
71.100000000000364
 20
63.899999999999977
 30
0.0
 11
71.100000000000364
 21
71.099999999999909
 31
0.0
  0
LINE
  8
DETAIL
  6
CONTINUOUS
 62
     5
 10
26.10000000000036
 20
62.099999999999909
 30
0.0
 11
18.89999999999964
 21
62.099999999999909
 31
0.0
  0
LINE
  8
DETAIL
  6
CONTINUOUS
 62
     5
 10
35.100000000000357
 20
27.899999999999981
 30
0.0
 11
35.100000000000357
 21
35.099999999999909
 31
0.0
  0
LINE
  8
DETAIL
  6
CONTINUOUS
 62
     5
 10
18.89999999999964
 20
54.899999999999977
 30
0.0
 11
18.89999999999964
 21
62.099999999999909
 31
0.0
  0
LINE
  8
DETAIL
  6
CONTINUOUS
 62
     5
 10
80.100000000000364
 20
71.099999999999909
 30
0.0
 11
72.899999999999636
 21
71.099999999999909
 31
0.0
  0
LINE
  8
DETAIL
  6
CONTINUOUS
 62
     5
 10
26.10000000000036
 20
54.899999999999977
 30
0.0
 11
18.89999999999964
 21
54.899999999999977
 31
0.0
  0
LINE
  8
DETAIL
  6
CONTINUOUS
 62
     5
 10
72.899999999999636
 20
63.899999999999977
 30
0.0
 11
72.899999999999636
 21
71.099999999999909
 31
0.0
  0
LINE
  8
DETAIL
  6
CONTINUOUS
 62
     5
 10
26.10000000000036
 20
54.899999999999977
 30
0.0
 11
26.10000000000036
 21
62.099999999999909
 31
0.0
  0
LINE
  8
DETAIL
  6
CONTINUOUS
 62
     5
 10
80.100000000000364
 20
63.899999999999977
 30
0.0
 11
72.899999999999636
 21
63.899999999999977
 31
0.0
  0
LINE
  8
DETAIL
  6
CONTINUOUS
 62
     5
 10
27.89999999999964
 20
54.899999999999977
 30
0.0
 11
27.89999999999964
 21
62.099999999999909
 31
0.0
  0
LINE
  8
DETAIL
  6
CONTINUOUS
 62
     5
 10
80.100000000000364
 20
63.899999999999977
 30
0.0
 11
80.100000000000364
 21
71.099999999999909
 31
0.0
  0
LINE
  8
DETAIL
  6
CONTINUOUS
 62
     5
 10
8.1000000000003638
 20
62.099999999999909
 30
0.0
 11
0.8999999999996362
 21
62.099999999999909
 31
0.0
  0
LINE
  8
DETAIL
  6
CONTINUOUS
 62
     5
 10
35.100000000000357
 20
80.099999999999909
 30
0.0
 11
27.89999999999964
 21
80.099999999999909
 31
0.0
  0
LINE
  8
DETAIL
  6
CONTINUOUS
 62
     5
 10
8.1000000000003638
 20
54.899999999999977
 30
0.0
 11
0.8999999999996362
 21
54.899999999999977
 31
0.0
  0
LINE
  8
DETAIL
  6
CONTINUOUS
 62
     5
 10
35.100000000000357
 20
72.899999999999977
 30
0.0
 11
27.89999999999964
 21
72.899999999999977
 31
0.0
  0
LINE
  8
DETAIL
  6
CONTINUOUS
 62
     5
 10
8.1000000000003638
 20
54.899999999999977
 30
0.0
 11
8.1000000000003638
 21
62.099999999999909
 31
0.0
  0
LINE
  8
DETAIL
  6
CONTINUOUS
 62
     5
 10
35.100000000000357
 20
72.899999999999977
 30
0.0
 11
35.100000000000357
 21
80.099999999999909
 31
0.0
  0
LINE
  8
DETAIL
  6
CONTINUOUS
 62
     5
 10
8.1000000000003638
 20
53.099999999999909
 30
0.0
 11
0.8999999999996362
 21
53.099999999999909
 31
0.0
  0
LINE
  8
DETAIL
  6
CONTINUOUS
 62
     5
 10
44.100000000000357
 20
80.099999999999909
 30
0.0
 11
36.899999999999643
 21
80.099999999999909
 31
0.0
  0
LINE
  8
DETAIL
  6
CONTINUOUS
 62
     5
 10
8.1000000000003638
 20
45.899999999999977
 30
0.0
 11
0.8999999999996362
 21
45.899999999999977
 31
0.0
  0
LINE
  8
DETAIL
  6
CONTINUOUS
 62
     5
 10
36.899999999999643
 20
72.899999999999977
 30
0.0
 11
36.899999999999643
 21
80.099999999999909
 31
0.0
  0
LINE
  8
DETAIL
  6
CONTINUOUS
 62
     5
 10
8.1000000000003638
 20
45.899999999999977
 30
0.0
 11
8.1000000000003638
 21
53.099999999999909
 31
0.0
  0
LINE
  8
DETAIL
  6
CONTINUOUS
 62
     5
 10
44.100000000000357
 20
72.899999999999977
 30
0.0
 11
36.899999999999643
 21
72.899999999999977
 31
0.0
  0
LINE
  8
DETAIL
  6
CONTINUOUS
 62
     5
 10
8.1000000000003638
 20
71.099999999999909
 30
0.0
 11
0.8999999999996362
 21
71.099999999999909
 31
0.0
  0
LINE
  8
DETAIL
  6
CONTINUOUS
 62
     5
 10
44.100000000000357
 20
72.899999999999977
 30
0.0
 11
44.100000000000357
 21
80.099999999999909
 31
0.0
  0
LINE
  8
DETAIL
  6
CONTINUOUS
 62
     5
 10
17.10000000000036
 20
53.099999999999909
 30
0.0
 11
9.8999999999996362
 21
53.099999999999909
 31
0.0
  0
LINE
  8
DETAIL
  6
CONTINUOUS
 62
     5
 10
53.100000000000357
 20
80.099999999999909
 30
0.0
 11
45.899999999999643
 21
80.099999999999909
 31
0.0
  0
LINE
  8
DETAIL
  6
CONTINUOUS
 62
     5
 10
9.8999999999996362
 20
45.899999999999977
 30
0.0
 11
9.8999999999996362
 21
53.099999999999909
 31
0.0
  0
LINE
  8
DETAIL
  6
CONTINUOUS
 62
     5
 10
45.899999999999643
 20
72.899999999999977
 30
0.0
 11
45.899999999999643
 21
80.099999999999909
 31
0.0
  0
LINE
  8
DETAIL
  6
CONTINUOUS
 62
     5
 10
8.1000000000003638
 20
63.899999999999977
 30
0.0
 11
0.8999999999996362
 21
63.899999999999977
 31
0.0
  0
LINE
  8
DETAIL
  6
CONTINUOUS
 62
     5
 10
53.100000000000357
 20
72.899999999999977
 30
0.0
 11
45.899999999999643
 21
72.899999999999977
 31
0.0
  0
LINE
  8
DETAIL
  6
CONTINUOUS
 62
     5
 10
17.10000000000036
 20
45.899999999999977
 30
0.0
 11
9.8999999999996362
 21
45.899999999999977
 31
0.0
  0
LINE
  8
DETAIL
  6
CONTINUOUS
 62
     5
 10
53.100000000000357
 20
72.899999999999977
 30
0.0
 11
53.100000000000357
 21
80.099999999999909
 31
0.0
  0
LINE
  8
DETAIL
  6
CONTINUOUS
 62
     5
 10
8.1000000000003638
 20
63.899999999999977
 30
0.0
 11
8.1000000000003638
 21
71.099999999999909
 31
0.0
  0
LINE
  8
DETAIL
  6
CONTINUOUS
 62
     5
 10
62.100000000000357
 20
80.099999999999909
 30
0.0
 11
54.899999999999643
 21
80.099999999999909
 31
0.0
  0
LINE
  8
DETAIL
  6
CONTINUOUS
 62
     5
 10
17.10000000000036
 20
45.899999999999977
 30
0.0
 11
17.10000000000036
 21
53.099999999999909
 31
0.0
  0
LINE
  8
DETAIL
  6
CONTINUOUS
 62
     5
 10
54.899999999999643
 20
72.899999999999977
 30
0.0
 11
54.899999999999643
 21
80.099999999999909
 31
0.0
  0
LINE
  8
DETAIL
  6
CONTINUOUS
 62
     5
 10
17.10000000000036
 20
71.099999999999909
 30
0.0
 11
9.8999999999996362
 21
71.099999999999909
 31
0.0
  0
LINE
  8
DETAIL
  6
CONTINUOUS
 62
     5
 10
62.100000000000357
 20
72.899999999999977
 30
0.0
 11
54.899999999999643
 21
72.899999999999977
 31
0.0
  0
LINE
  8
DETAIL
  6
CONTINUOUS
 62
     5
 10
8.1000000000003638
 20
44.099999999999909
 30
0.0
 11
0.8999999999996362
 21
44.099999999999909
 31
0.0
  0
LINE
  8
DETAIL
  6
CONTINUOUS
 62
     5
 10
62.100000000000357
 20
72.899999999999977
 30
0.0
 11
62.100000000000357
 21
80.099999999999909
 31
0.0
  0
LINE
  8
DETAIL
  6
CONTINUOUS
 62
     5
 10
9.8999999999996362
 20
63.899999999999977
 30
0.0
 11
9.8999999999996362
 21
71.099999999999909
 31
0.0
  0
LINE
  8
DETAIL
  6
CONTINUOUS
 62
     5
 10
71.100000000000364
 20
80.099999999999909
 30
0.0
 11
63.899999999999643
 21
80.099999999999909
 31
0.0
  0
LINE
  8
DETAIL
  6
CONTINUOUS
 62
     5
 10
17.10000000000036
 20
63.899999999999977
 30
0.0
 11
9.8999999999996362
 21
63.899999999999977
 31
0.0
  0
LINE
  8
DETAIL
  6
CONTINUOUS
 62
     5
 10
63.899999999999643
 20
72.899999999999977
 30
0.0
 11
63.899999999999643
 21
80.099999999999909
 31
0.0
  0
LINE
  8
DETAIL
  6
CONTINUOUS
 62
     5
 10
8.1000000000003638
 20
36.899999999999977
 30
0.0
 11
0.8999999999996362
 21
36.899999999999977
 31
0.0
  0
LINE
  8
DETAIL
  6
CONTINUOUS
 62
     5
 10
71.100000000000364
 20
72.899999999999977
 30
0.0
 11
63.899999999999643
 21
72.899999999999977
 31
0.0
  0
LINE
  8
DETAIL
  6
CONTINUOUS
 62
     5
 10
17.10000000000036
 20
63.899999999999977
 30
0.0
 11
17.10000000000036
 21
71.099999999999909
 31
0.0
  0
LINE
  8
DETAIL
  6
CONTINUOUS
 62
     5
 10
71.100000000000364
 20
72.899999999999977
 30
0.0
 11
71.100000000000364
 21
80.099999999999909
 31
0.0
  0
LINE
  8
DETAIL
  6
CONTINUOUS
 62
     5
 10
8.1000000000003638
 20
36.899999999999977
 30
0.0
 11
8.1000000000003638
 21
44.099999999999909
 31
0.0
  0
LINE
  8
DETAIL
  6
CONTINUOUS
 62
     5
 10
80.100000000000364
 20
80.099999999999909
 30
0.0
 11
72.899999999999636
 21
80.099999999999909
 31
0.0
  0
LINE
  8
DETAIL
  6
CONTINUOUS
 62
     5
 10
26.10000000000036
 20
71.099999999999909
 30
0.0
 11
18.89999999999964
 21
71.099999999999909
 31
0.0
  0
LINE
  8
DETAIL
  6
CONTINUOUS
 62
     5
 10
72.899999999999636
 20
72.899999999999977
 30
0.0
 11
72.899999999999636
 21
80.099999999999909
 31
0.0
  0
LINE
  8
DETAIL
  6
CONTINUOUS
 62
     5
 10
17.10000000000036
 20
44.099999999999909
 30
0.0
 11
9.8999999999996362
 21
44.099999999999909
 31
0.0
  0
LINE
  8
DETAIL
  6
CONTINUOUS
 62
     5
 10
80.100000000000364
 20
72.899999999999977
 30
0.0
 11
72.899999999999636
 21
72.899999999999977
 31
0.0
  0
LINE
  8
DETAIL
  6
CONTINUOUS
 62
     5
 10
18.89999999999964
 20
63.899999999999977
 30
0.0
 11
18.89999999999964
 21
71.099999999999909
 31
0.0
  0
LINE
  8
DETAIL
  6
CONTINUOUS
 62
     5
 10
80.100000000000364
 20
72.899999999999977
 30
0.0
 11
80.100000000000364
 21
80.099999999999909
 31
0.0
  0
LINE
  8
DETAIL
  6
CONTINUOUS
 62
     5
 10
9.8999999999996362
 20
36.899999999999977
 30
0.0
 11
9.8999999999996362
 21
44.099999999999909
 31
0.0
  0
LINE
  8
DETAIL
  6
CONTINUOUS
 62
     5
 10
84.0
 20
87.5
 30
0.0
 11
82.5
 21
86.0
 31
0.0
  0
LINE
  8
DETAIL
  6
CONTINUOUS
 62
     5
 10
26.10000000000036
 20
63.899999999999977
 30
0.0
 11
18.89999999999964
 21
63.899999999999977
 31
0.0
  0
LINE
  8
DETAIL
  6
CONTINUOUS
 62
     5
 10
87.5
 20
84.0
 30
0.0
 11
86.0
 21
82.5
 31
0.0
  0
LINE
  8
DETAIL
  6
CONTINUOUS
 62
     5
 10
17.10000000000036
 20
36.899999999999977
 30
0.0
 11
9.8999999999996362
 21
36.899999999999977
 31
0.0
  0
LINE
  8
DETAIL
  6
CONTINUOUS
 62
     5
 10
44.100000000000357
 20
35.099999999999909
 30
0.0
 11
36.899999999999643
 21
35.099999999999909
 31
0.0
  0
LINE
  8
DETAIL
  6
CONTINUOUS
 62
     5
 10
26.10000000000036
 20
63.899999999999977
 30
0.0
 11
26.10000000000036
 21
71.099999999999909
 31
0.0
  0
LINE
  8
DETAIL
  6
CONTINUOUS
 62
     5
 10
36.899999999999643
 20
27.899999999999981
 30
0.0
 11
36.899999999999643
 21
35.099999999999909
 31
0.0
  0
LINE
  8
DETAIL
  6
CONTINUOUS
 62
     5
 10
17.10000000000036
 20
36.899999999999977
 30
0.0
 11
17.10000000000036
 21
44.099999999999909
 31
0.0
  0
LINE
  8
DETAIL
  6
CONTINUOUS
 62
     5
 10
44.100000000000357
 20
27.899999999999981
 30
0.0
 11
44.100000000000357
 21
35.099999999999909
 31
0.0
  0
LINE
  8
DETAIL
  6
CONTINUOUS
 62
     5
 10
26.10000000000036
 20
44.099999999999909
 30
0.0
 11
18.89999999999964
 21
44.099999999999909
 31
0.0
  0
LINE
  8
DETAIL
  6
CONTINUOUS
 62
     5
 10
53.100000000000357
 20
35.099999999999909
 30
0.0
 11
45.899999999999643
 21
35.099999999999909
 31
0.0
  0
LINE
  8
DETAIL
  6
CONTINUOUS
 62
     5
 10
27.89999999999964
 20
63.899999999999977
 30
0.0
 11
27.89999999999964
 21
71.099999999999909
 31
0.0
  0
LINE
  8
DETAIL
  6
CONTINUOUS
 62
     5
 10
45.899999999999643
 20
27.899999999999981
 30
0.0
 11
45.899999999999643
 21
35.099999999999909
 31
0.0
  0
LINE
  8
DETAIL
  6
CONTINUOUS
 62
     5
 10
18.89999999999964
 20
36.899999999999977
 30
0.0
 11
18.89999999999964
 21
44.099999999999909
 31
0.0
  0
LINE
  8
DETAIL
  6
CONTINUOUS
 62
     5
 10
53.100000000000357
 20
27.899999999999981
 30
0.0
 11
53.100000000000357
 21
35.099999999999909
 31
0.0
  0
LINE
  8
DETAIL
  6
CONTINUOUS
 62
     5
 10
26.10000000000036
 20
36.899999999999977
 30
0.0
 11
18.89999999999964
 21
36.899999999999977
 31
0.0
  0
LINE
  8
DETAIL
  6
CONTINUOUS
 62
     5
 10
62.100000000000357
 20
35.099999999999909
 30
0.0
 11
54.899999999999643
 21
35.099999999999909
 31
0.0
  0
LINE
  8
DETAIL
  6
CONTINUOUS
 62
     5
 10
26.10000000000036
 20
36.899999999999977
 30
0.0
 11
26.10000000000036
 21
44.099999999999909
 31
0.0
  0
LINE
  8
DETAIL
  6
CONTINUOUS
 62
     5
 10
54.899999999999643
 20
27.899999999999981
 30
0.0
 11
54.899999999999643
 21
35.099999999999909
 31
0.0
  0
LINE
  8
DETAIL
  6
CONTINUOUS
 62
     5
 10
8.1000000000003638
 20
35.099999999999909
 30
0.0
 11
0.8999999999996362
 21
35.099999999999909
 31
0.0
  0
LINE
  8
DETAIL
  6
CONTINUOUS
 62
     5
 10
62.100000000000357
 20
27.899999999999981
 30
0.0
 11
62.100000000000357
 21
35.099999999999909
 31
0.0
  0
LINE
  8
DETAIL
  6
CONTINUOUS
 62
     5
 10
8.1000000000003638
 20
27.899999999999981
 30
0.0
 11
0.8999999999996362
 21
27.899999999999981
 31
0.0
  0
LINE
  8
DETAIL
  6
CONTINUOUS
 62
     5
 10
71.100000000000364
 20
35.099999999999909
 30
0.0
 11
63.899999999999643
 21
35.099999999999909
 31
0.0
  0
LINE
  8
DETAIL
  6
CONTINUOUS
 62
     5
 10
8.1000000000003638
 20
27.899999999999981
 30
0.0
 11
8.1000000000003638
 21
35.099999999999909
 31
0.0
  0
LINE
  8
DETAIL
  6
CONTINUOUS
 62
     5
 10
63.899999999999643
 20
27.899999999999981
 30
0.0
 11
63.899999999999643
 21
35.099999999999909
 31
0.0
  0
LINE
  8
DETAIL
  6
CONTINUOUS
 62
     5
 10
17.10000000000036
 20
35.099999999999909
 30
0.0
 11
9.8999999999996362
 21
35.099999999999909
 31
0.0
  0
LINE
  8
DETAIL
  6
CONTINUOUS
 62
     5
 10
71.100000000000364
 20
27.899999999999981
 30
0.0
 11
71.100000000000364
 21
35.099999999999909
 31
0.0
  0
LINE
  8
DETAIL
  6
CONTINUOUS
 62
     5
 10
9.8999999999996362
 20
27.899999999999981
 30
0.0
 11
9.8999999999996362
 21
35.099999999999909
 31
0.0
  0
LINE
  8
DETAIL
  6
CONTINUOUS
 62
     5
 10
80.100000000000364
 20
35.099999999999909
 30
0.0
 11
72.899999999999636
 21
35.099999999999909
 31
0.0
  0
LINE
  8
DETAIL
  6
CONTINUOUS
 62
     5
 10
17.10000000000036
 20
27.899999999999981
 30
0.0
 11
9.8999999999996362
 21
27.899999999999981
 31
0.0
  0
LINE
  8
DETAIL
  6
CONTINUOUS
 62
     5
 10
72.899999999999636
 20
27.899999999999981
 30
0.0
 11
72.899999999999636
 21
35.099999999999909
 31
0.0
  0
LINE
  8
DETAIL
  6
CONTINUOUS
 62
     5
 10
17.10000000000036
 20
27.899999999999981
 30
0.0
 11
17.10000000000036
 21
35.099999999999909
 31
0.0
  0
LINE
  8
DETAIL
  6
CONTINUOUS
 62
     5
 10
80.100000000000364
 20
27.899999999999981
 30
0.0
 11
80.100000000000364
 21
35.099999999999909
 31
0.0
  0
LINE
  8
DETAIL
  6
CONTINUOUS
 62
     5
 10
26.10000000000036
 20
35.099999999999909
 30
0.0
 11
18.89999999999964
 21
35.099999999999909
 31
0.0
  0
LINE
  8
DETAIL
  6
CONTINUOUS
 62
     5
 10
35.100000000000357
 20
44.099999999999909
 30
0.0
 11
27.89999999999964
 21
44.099999999999909
 31
0.0
  0
LINE
  8
DETAIL
  6
CONTINUOUS
 62
     5
 10
18.89999999999964
 20
27.899999999999981
 30
0.0
 11
18.89999999999964
 21
35.099999999999909
 31
0.0
  0
LINE
  8
DETAIL
  6
CONTINUOUS
 62
     5
 10
35.100000000000357
 20
36.899999999999977
 30
0.0
 11
27.89999999999964
 21
36.899999999999977
 31
0.0
  0
LINE
  8
DETAIL
  6
CONTINUOUS
 62
     5
 10
35.100000000000357
 20
36.899999999999977
 30
0.0
 11
35.100000000000357
 21
44.099999999999909
 31
0.0
  0
LINE
  8
DETAIL
  6
CONTINUOUS
 62
     5
 10
44.100000000000357
 20
44.099999999999909
 30
0.0
 11
36.899999999999643
 21
44.099999999999909
 31
0.0
  0
ARC
  8
DETAIL
  6
CONTINUOUS
 62
     5
 10
117.20564899999999
 20
117.20564899999999
 30
0.0
 40
1.0
 50
0.0
 51
90.0
  0
LINE
  8
DETAIL
  6
CONTINUOUS
 62
     5
 10
36.899999999999643
 20
36.899999999999977
 30
0.0
 11
36.899999999999643
 21
44.099999999999909
 31
0.0
  0
ARC
  8
DETAIL
  6
CONTINUOUS
 62
     5
 10
124.0
 20
124.0
 30
0.0
 40
1.0
 50
0.0
 51
90.0
  0
LINE
  8
DETAIL
  6
CONTINUOUS
 62
     5
 10
44.100000000000357
 20
36.899999999999977
 30
0.0
 11
36.899999999999643
 21
36.899999999999977
 31
0.0
  0
LINE
  8
DETAIL
  6
CONTINUOUS
 62
     5
 10
8.1000000000003638
 20
0.8999999999999773
 30
0.0
 11
0.8999999999996362
 21
0.8999999999999773
 31
0.0
  0
LINE
  8
DETAIL
  6
CONTINUOUS
 62
     5
 10
44.100000000000357
 20
36.899999999999977
 30
0.0
 11
44.100000000000357
 21
44.099999999999909
 31
0.0
  0
LINE
  8
DETAIL
  6
CONTINUOUS
 62
     5
 10
17.10000000000036
 20
0.8999999999999773
 30
0.0
 11
9.8999999999996362
 21
0.8999999999999773
 31
0.0
  0
LINE
  8
DETAIL
  6
CONTINUOUS
 62
     5
 10
53.100000000000357
 20
44.099999999999909
 30
0.0
 11
45.899999999999643
 21
44.099999999999909
 31
0.0
  0
LINE
  8
DETAIL
  6
CONTINUOUS
 62
     5
 10
26.10000000000036
 20
0.8999999999999773
 30
0.0
 11
18.89999999999964
 21
0.8999999999999773
 31
0.0
  0
LINE
  8
DETAIL
  6
CONTINUOUS
 62
     5
 10
45.899999999999643
 20
36.899999999999977
 30
0.0
 11
45.899999999999643
 21
44.099999999999909
 31
0.0
  0
LINE
  8
DETAIL
  6
CONTINUOUS
 62
     5
 10
35.100000000000357
 20
0.8999999999999773
 30
0.0
 11
27.89999999999964
 21
0.8999999999999773
 31
0.0
  0
LINE
  8
DETAIL
  6
CONTINUOUS
 62
     5
 10
53.100000000000357
 20
36.899999999999977
 30
0.0
 11
45.899999999999643
 21
36.899999999999977
 31
0.0
  0
LINE
  8
DETAIL
  6
CONTINUOUS
 62
     5
 10
44.100000000000357
 20
0.8999999999999773
 30
0.0
 11
36.899999999999643
 21
0.8999999999999773
 31
0.0
  0
LINE
  8
DETAIL
  6
CONTINUOUS
 62
     5
 10
53.100000000000357
 20
36.899999999999977
 30
0.0
 11
53.100000000000357
 21
44.099999999999909
 31
0.0
  0
LINE
  8
DETAIL
  6
CONTINUOUS
 62
     5
 10
53.100000000000357
 20
0.8999999999999773
 30
0.0
 11
45.899999999999643
 21
0.8999999999999773
 31
0.0
  0
LINE
  8
DETAIL
  6
CONTINUOUS
 62
     5
 10
62.100000000000357
 20
44.099999999999909
 30
0.0
 11
54.899999999999643
 21
44.099999999999909
 31
0.0
  0
LINE
  8
DETAIL
  6
CONTINUOUS
 62
     5
 10
62.100000000000357
 20
0.8999999999999773
 30
0.0
 11
54.899999999999643
 21
0.8999999999999773
 31
0.0
  0
LINE
  8
DETAIL
  6
CONTINUOUS
 62
     5
 10
54.899999999999643
 20
36.899999999999977
 30
0.0
 11
54.899999999999643
 21
44.099999999999909
 31
0.0
  0
LINE
  8
DETAIL
  6
CONTINUOUS
 62
     5
 10
71.100000000000364
 20
0.8999999999999773
 30
0.0
 11
63.899999999999643
 21
0.8999999999999773
 31
0.0
  0
LINE
  8
DETAIL
  6
CONTINUOUS
 62
     5
 10
62.100000000000357
 20
36.899999999999977
 30
0.0
 11
54.899999999999643
 21
36.899999999999977
 31
0.0
  0
LINE
  8
DETAIL
  6
CONTINUOUS
 62
     5
 10
80.100000000000364
 20
0.8999999999999773
 30
0.0
 11
72.899999999999636
 21
0.8999999999999773
 31
0.0
  0
LINE
  8
DETAIL
  6
CONTINUOUS
 62
     5
 10
62.100000000000357
 20
36.899999999999977
 30
0.0
 11
62.100000000000357
 21
44.099999999999909
 31
0.0
  0
LINE
  8
DETAIL
  6
CONTINUOUS
 62
     5
 10
0.8999999999996362
 20
18.899999999999981
 30
0.0
 11
0.8999999999996362
 21
26.099999999999909
 31
0.0
  0
LINE
  8
DETAIL
  6
CONTINUOUS
 62
     5
 10
71.100000000000364
 20
44.099999999999909
 30
0.0
 11
63.899999999999643
 21
44.099999999999909
 31
0.0
  0
LINE
  8
DETAIL
  6
CONTINUOUS
 62
     5
 10
0.8999999999996362
 20
72.899999999999977
 30
0.0
 11
0.8999999999996362
 21
80.099999999999909
 31
0.0
  0
LINE
  8
DETAIL
  6
CONTINUOUS
 62
     5
 10
63.899999999999643
 20
36.899999999999977
 30
0.0
 11
63.899999999999643
 21
44.099999999999909
 31
0.0
  0
LINE
  8
DETAIL
  6
CONTINUOUS
 62
     5
 10
0.8999999999996362
 20
9.8999999999999773
 30
0.0
 11
0.8999999999996362
 21
17.099999999999909
 31
0.0
  0
LINE
  8
DETAIL
  6
CONTINUOUS
 62
     5
 10
71.100000000000364
 20
36.899999999999977
 30
0.0
 11
63.899999999999643
 21
36.899999999999977
 31
0.0
  0
LINE
  8
DETAIL
  6
CONTINUOUS
 62
     5
 10
0.8999999999996362
 20
0.8999999999999773
 30
0.0
 11
0.8999999999996362
 21
8.0999999999999091
 31
0.0
  0
LINE
  8
DETAIL
  6
CONTINUOUS
 62
     5
 10
71.100000000000364
 20
36.899999999999977
 30
0.0
 11
71.100000000000364
 21
44.099999999999909
 31
0.0
  0
LINE
  8
DETAIL
  6
CONTINUOUS
 62
     5
 10
0.8999999999996362
 20
54.899999999999977
 30
0.0
 11
0.8999999999996362
 21
62.099999999999909
 31
0.0
  0
LINE
  8
DETAIL
  6
CONTINUOUS
 62
     5
 10
80.100000000000364
 20
44.099999999999909
 30
0.0
 11
72.899999999999636
 21
44.099999999999909
 31
0.0
  0
LINE
  8
DETAIL
  6
CONTINUOUS
 62
     5
 10
0.8999999999996362
 20
45.899999999999977
 30
0.0
 11
0.8999999999996362
 21
53.099999999999909
 31
0.0
  0
LINE
  8
DETAIL
  6
CONTINUOUS
 62
     5
 10
72.899999999999636
 20
36.899999999999977
 30
0.0
 11
72.899999999999636
 21
44.099999999999909
 31
0.0
  0
LINE
  8
DETAIL
  6
CONTINUOUS
 62
     5
 10
0.8999999999996362
 20
63.899999999999977
 30
0.0
 11
0.8999999999996362
 21
71.099999999999909
 31
0.0
  0
LINE
  8
DETAIL
  6
CONTINUOUS
 62
     5
 10
80.100000000000364
 20
36.899999999999977
 30
0.0
 11
72.899999999999636
 21
36.899999999999977
 31
0.0
  0
LINE
  8
DETAIL
  6
CONTINUOUS
 62
     5
 10
0.8999999999996362
 20
36.899999999999977
 30
0.0
 11
0.8999999999996362
 21
44.099999999999909
 31
0.0
  0
LINE
  8
DETAIL
  6
CONTINUOUS
 62
     5
 10
80.100000000000364
 20
36.899999999999977
 30
0.0
 11
80.100000000000364
 21
44.099999999999909
 31
0.0
  0
LINE
  8
DETAIL
  6
CONTINUOUS
 62
     5
 10
0.8999999999996362
 20
27.899999999999981
 30
0.0
 11
0.8999999999996362
 21
35.099999999999909
 31
0.0
  0
LINE
  8
DETAIL
  6
CONTINUOUS
 62
     5
 10
35.100000000000357
 20
53.099999999999909
 30
0.0
 11
27.89999999999964
 21
53.099999999999909
 31
0.0
  0
LINE
  8
DETAIL
  6
CONTINUOUS
 62
     5
 10
35.100000000000357
 20
45.899999999999977
 30
0.0
 11
27.89999999999964
 21
45.899999999999977
 31
0.0
  0
LINE
  8
DETAIL
  6
CONTINUOUS
 62
     5
 10
35.100000000000357
 20
45.899999999999977
 30
0.0
 11
35.100000000000357
 21
53.099999999999909
 31
0.0
  0
LINE
  8
DETAIL
  6
CONTINUOUS
 62
     5
 10
44.100000000000357
 20
53.099999999999909
 30
0.0
 11
36.899999999999643
 21
53.099999999999909
 31
0.0
  0
LINE
  8
DETAIL
  6
CONTINUOUS
 62
     5
 10
36.899999999999643
 20
45.899999999999977
 30
0.0
 11
36.899999999999643
 21
53.099999999999909
 31
0.0
  0
LINE
  8
DETAIL
  6
CONTINUOUS
 62
     5
 10
44.100000000000357
 20
45.899999999999977
 30
0.0
 11
36.899999999999643
 21
45.899999999999977
 31
0.0
  0
LINE
  8
DETAIL
  6
CONTINUOUS
 62
     5
 10
44.100000000000357
 20
45.899999999999977
 30
0.0
 11
44.100000000000357
 21
53.099999999999909
 31
0.0
  0
LINE
  8
DETAIL
  6
CONTINUOUS
 62
     5
 10
53.100000000000357
 20
53.099999999999909
 30
0.0
 11
45.899999999999643
 21
53.099999999999909
 31
0.0
  0
LINE
  8
DETAIL
  6
CONTINUOUS
 62
     5
 10
45.899999999999643
 20
45.899999999999977
 30
0.0
 11
45.899999999999643
 21
53.099999999999909
 31
0.0
  0
LINE
  8
DETAIL
  6
CONTINUOUS
 62
     5
 10
53.100000000000357
 20
45.899999999999977
 30
0.0
 11
45.899999999999643
 21
45.899999999999977
 31
0.0
  0
LINE
  8
DETAIL
  6
CONTINUOUS
 62
     5
 10
53.100000000000357
 20
45.899999999999977
 30
0.0
 11
53.100000000000357
 21
53.099999999999909
 31
0.0
  0
LINE
  8
DETAIL
  6
CONTINUOUS
 62
     5
 10
62.100000000000357
 20
53.099999999999909
 30
0.0
 11
54.899999999999643
 21
53.099999999999909
 31
0.0
  0
LINE
  8
DETAIL
  6
CONTINUOUS
 62
     5
 10
54.899999999999643
 20
45.899999999999977
 30
0.0
 11
54.899999999999643
 21
53.099999999999909
 31
0.0
  0
LINE
  8
DETAIL
  6
CONTINUOUS
 62
     5
 10
62.100000000000357
 20
45.899999999999977
 30
0.0
 11
54.899999999999643
 21
45.899999999999977
 31
0.0
  0
LINE
  8
DETAIL
  6
CONTINUOUS
 62
     5
 10
62.100000000000357
 20
45.899999999999977
 30
0.0
 11
62.100000000000357
 21
53.099999999999909
 31
0.0
  0
LINE
  8
DETAIL
  6
CONTINUOUS
 62
     5
 10
71.100000000000364
 20
53.099999999999909
 30
0.0
 11
63.899999999999643
 21
53.099999999999909
 31
0.0
  0
LINE
  8
DETAIL
  6
CONTINUOUS
 62
     5
 10
63.899999999999643
 20
45.899999999999977
 30
0.0
 11
63.899999999999643
 21
53.099999999999909
 31
0.0
  0
LINE
  8
DETAIL
  6
CONTINUOUS
 62
     5
 10
71.100000000000364
 20
45.899999999999977
 30
0.0
 11
63.899999999999643
 21
45.899999999999977
 31
0.0
  0
LINE
  8
DETAIL
  6
CONTINUOUS
 62
     5
 10
71.100000000000364
 20
45.899999999999977
 30
0.0
 11
71.100000000000364
 21
53.099999999999909
 31
0.0
  0
LINE
  8
DETAIL
  6
CONTINUOUS
 62
     5
 10
80.100000000000364
 20
53.099999999999909
 30
0.0
 11
72.899999999999636
 21
53.099999999999909
 31
0.0
  0
LINE
  8
DETAIL
  6
CONTINUOUS
 62
     5
 10
72.899999999999636
 20
45.899999999999977
 30
0.0
 11
72.899999999999636
 21
53.099999999999909
 31
0.0
  0
LINE
  8
DETAIL
  6
CONTINUOUS
 62
     5
 10
80.100000000000364
 20
45.899999999999977
 30
0.0
 11
72.899999999999636
 21
45.899999999999977
 31
0.0
  0
LINE
  8
DETAIL
  6
CONTINUOUS
 62
     5
 10
80.100000000000364
 20
45.899999999999977
 30
0.0
 11
80.100000000000364
 21
53.099999999999909
 31
0.0
  0
LINE
  8
DETAIL
  6
CONTINUOUS
 62
     5
 10
35.100000000000357
 20
62.099999999999909
 30
0.0
 11
27.89999999999964
 21
62.099999999999909
 31
0.0
  0
LINE
  8
DETAIL
  6
CONTINUOUS
 62
     5
 10
35.100000000000357
 20
54.899999999999977
 30
0.0
 11
27.89999999999964
 21
54.899999999999977
 31
0.0
  0
LINE
  8
DETAIL
  6
CONTINUOUS
 62
     5
 10
35.100000000000357
 20
54.899999999999977
 30
0.0
 11
35.100000000000357
 21
62.099999999999909
 31
0.0
  0
LINE
  8
DETAIL
  6
CONTINUOUS
 62
     5
 10
44.100000000000357
 20
62.099999999999909
 30
0.0
 11
36.899999999999643
 21
62.099999999999909
 31
0.0
  0
LINE
  8
DETAIL
  6
CONTINUOUS
 62
     5
 10
36.899999999999643
 20
54.899999999999977
 30
0.0
 11
36.899999999999643
 21
62.099999999999909
 31
0.0
  0
LINE
  8
DETAIL
  6
CONTINUOUS
 62
     5
 10
44.100000000000357
 20
54.899999999999977
 30
0.0
 11
36.899999999999643
 21
54.899999999999977
 31
0.0
  0
LINE
  8
DETAIL
  6
CONTINUOUS
 62
     5
 10
44.100000000000357
 20
54.899999999999977
 30
0.0
 11
44.100000000000357
 21
62.099999999999909
 31
0.0
  0
LINE
  8
DETAIL
  6
CONTINUOUS
 62
     5
 10
53.100000000000357
 20
62.099999999999909
 30
0.0
 11
45.899999999999643
 21
62.099999999999909
 31
0.0
  0
LINE
  8
DETAIL
  6
CONTINUOUS
 62
     5
 10
45.899999999999643
 20
54.899999999999977
 30
0.0
 11
45.899999999999643
 21
62.099999999999909
 31
0.0
  0
LINE
  8
DETAIL
  6
CONTINUOUS
 62
     5
 10
53.100000000000357
 20
54.899999999999977
 30
0.0
 11
45.899999999999643
 21
54.899999999999977
 31
0.0
  0
LINE
  8
DETAIL
  6
CONTINUOUS
 62
     5
 10
53.100000000000357
 20
54.899999999999977
 30
0.0
 11
53.100000000000357
 21
62.099999999999909
 31
0.0
  0
LINE
  8
DETAIL
  6
CONTINUOUS
 62
     5
 10
62.100000000000357
 20
62.099999999999909
 30
0.0
 11
54.899999999999643
 21
62.099999999999909
 31
0.0
  0
LINE
  8
DETAIL
  6
CONTINUOUS
 62
     5
 10
54.899999999999643
 20
54.899999999999977
 30
0.0
 11
54.899999999999643
 21
62.099999999999909
 31
0.0
  0
LINE
  8
DETAIL
  6
CONTINUOUS
 62
     5
 10
62.100000000000357
 20
54.899999999999977
 30
0.0
 11
54.899999999999643
 21
54.899999999999977
 31
0.0
  0
LINE
  8
DETAIL
  6
CONTINUOUS
 62
     5
 10
62.100000000000357
 20
54.899999999999977
 30
0.0
 11
62.100000000000357
 21
62.099999999999909
 31
0.0
  0
LINE
  8
DETAIL
  6
CONTINUOUS
 62
     5
 10
71.100000000000364
 20
62.099999999999909
 30
0.0
 11
63.899999999999643
 21
62.099999999999909
 31
0.0
  0
LINE
  8
DETAIL
  6
CONTINUOUS
 62
     5
 10
63.899999999999643
 20
54.899999999999977
 30
0.0
 11
63.899999999999643
 21
62.099999999999909
 31
0.0
  0
LINE
  8
DETAIL
  6
CONTINUOUS
 62
     5
 10
71.100000000000364
 20
54.899999999999977
 30
0.0
 11
63.899999999999643
 21
54.899999999999977
 31
0.0
  0
LINE
  8
DETAIL
  6
CONTINUOUS
 62
     5
 10
71.100000000000364
 20
54.899999999999977
 30
0.0
 11
71.100000000000364
 21
62.099999999999909
 31
0.0
  0
LINE
  8
DETAIL
  6
CONTINUOUS
 62
     5
 10
80.100000000000364
 20
62.099999999999909
 30
0.0
 11
72.899999999999636
 21
62.099999999999909
 31
0.0
  0
LINE
  8
DETAIL
  6
CONTINUOUS
 62
     5
 10
72.899999999999636
 20
54.899999999999977
 30
0.0
 11
72.899999999999636
 21
62.099999999999909
 31
0.0
  0
LINE
  8
DETAIL
  6
CONTINUOUS
 62
     5
 10
80.100000000000364
 20
54.899999999999977
 30
0.0
 11
72.899999999999636
 21
54.899999999999977
 31
0.0
  0
LINE
  8
DETAIL
  6
CONTINUOUS
 62
     5
 10
80.100000000000364
 20
54.899999999999977
 30
0.0
 11
80.100000000000364
 21
62.099999999999909
 31
0.0
  0
LINE
  8
DETAIL
  6
CONTINUOUS
 62
     5
 10
35.100000000000357
 20
71.099999999999909
 30
0.0
 11
27.89999999999964
 21
71.099999999999909
 31
0.0
  0
LINE
  8
DETAIL
  6
CONTINUOUS
 62
     5
 10
35.100000000000357
 20
63.899999999999977
 30
0.0
 11
27.89999999999964
 21
63.899999999999977
 31
0.0
  0
LINE
  8
DETAIL
  6
CONTINUOUS
 62
     5
 10
35.100000000000357
 20
63.899999999999977
 30
0.0
 11
35.100000000000357
 21
71.099999999999909
 31
0.0
  0
LINE
  8
DETAIL
  6
CONTINUOUS
 62
     5
 10
44.100000000000357
 20
71.099999999999909
 30
0.0
 11
36.899999999999643
 21
71.099999999999909
 31
0.0
  0
LINE
  8
DETAIL
  6
CONTINUOUS
 62
     5
 10
36.899999999999643
 20
63.899999999999977
 30
0.0
 11
36.899999999999643
 21
71.099999999999909
 31
0.0
  0
LINE
  8
DETAIL
  6
CONTINUOUS
 62
     5
 10
44.100000000000357
 20
63.899999999999977
 30
0.0
 11
36.899999999999643
 21
63.899999999999977
 31
0.0
  0
LINE
  8
DETAIL
  6
CONTINUOUS
 62
     5
 10
44.100000000000357
 20
63.899999999999977
 30
0.0
 11
44.100000000000357
 21
71.099999999999909
 31
0.0
  0
LINE
  8
DETAIL
  6
CONTINUOUS
 62
     5
 10
53.100000000000357
 20
71.099999999999909
 30
0.0
 11
45.899999999999643
 21
71.099999999999909
 31
0.0
  0
LINE
  8
DETAIL
  6
CONTINUOUS
 62
     5
 10
45.899999999999643
 20
63.899999999999977
 30
0.0
 11
45.899999999999643
 21
71.099999999999909
 31
0.0
  0
LINE
  8
DETAIL
  6
CONTINUOUS
 62
     5
 10
53.100000000000357
 20
63.899999999999977
 30
0.0
 11
45.899999999999643
 21
63.899999999999977
 31
0.0
  0
LINE
  8
DETAIL
  6
CONTINUOUS
 62
     5
 10
53.100000000000357
 20
63.899999999999977
 30
0.0
 11
53.100000000000357
 21
71.099999999999909
 31
0.0
  0
LINE
  8
DETAIL
  6
CONTINUOUS
 62
     5
 10
62.100000000000357
 20
71.099999999999909
 30
0.0
 11
54.899999999999643
 21
71.099999999999909
 31
0.0
  0
LINE
  8
DETAIL
  6
CONTINUOUS
 62
     5
 10
54.899999999999643
 20
63.899999999999977
 30
0.0
 11
54.899999999999643
 21
71.099999999999909
 31
0.0
  0
LINE
  8
DETAIL
  6
CONTINUOUS
 62
     5
 10
62.100000000000357
 20
63.899999999999977
 30
0.0
 11
54.899999999999643
 21
63.899999999999977
 31
0.0
  0
LINE
  8
DETAIL
  6
CONTINUOUS
 62
     5
 10
26.10000000000036
 20
27.899999999999981
 30
0.0
 11
18.89999999999964
 21
27.899999999999981
 31
0.0
  0
LINE
  8
DETAIL
  6
CONTINUOUS
 62
     5
 10
26.10000000000036
 20
27.899999999999981
 30
0.0
 11
26.10000000000036
 21
35.099999999999909
 31
0.0
  0
LINE
  8
DETAIL
  6
CONTINUOUS
 62
     5
 10
27.89999999999964
 20
27.899999999999981
 30
0.0
 11
27.89999999999964
 21
35.099999999999909
 31
0.0
  0
LINE
  8
DETAIL
  6
CONTINUOUS
 62
     5
 10
35.100000000000357
 20
27.899999999999981
 30
0.0
 11
27.89999999999964
 21
27.899999999999981
 31
0.0
  0
LINE
  8
DETAIL
  6
CONTINUOUS
 62
     5
 10
8.1000000000003638
 20
26.099999999999909
 30
0.0
 11
0.8999999999996362
 21
26.099999999999909
 31
0.0
  0
LINE
  8
DETAIL
  6
CONTINUOUS
 62
     5
 10
8.1000000000003638
 20
18.899999999999981
 30
0.0
 11
0.8999999999996362
 21
18.899999999999981
 31
0.0
  0
LINE
  8
DETAIL
  6
CONTINUOUS
 62
     5
 10
8.1000000000003638
 20
18.899999999999981
 30
0.0
 11
8.1000000000003638
 21
26.099999999999909
 31
0.0
  0
LINE
  8
DETAIL
  6
CONTINUOUS
 62
     5
 10
8.1000000000003638
 20
80.099999999999909
 30
0.0
 11
0.8999999999996362
 21
80.099999999999909
 31
0.0
  0
LINE
  8
DETAIL
  6
CONTINUOUS
 62
     5
 10
17.10000000000036
 20
26.099999999999909
 30
0.0
 11
9.8999999999996362
 21
26.099999999999909
 31
0.0
  0
LINE
  8
DETAIL
  6
CONTINUOUS
 62
     5
 10
9.8999999999996362
 20
18.899999999999981
 30
0.0
 11
9.8999999999996362
 21
26.099999999999909
 31
0.0
  0
LINE
  8
DETAIL
  6
CONTINUOUS
 62
     5
 10
8.1000000000003638
 20
72.899999999999977
 30
0.0
 11
0.8999999999996362
 21
72.899999999999977
 31
0.0
  0
LINE
  8
DETAIL
  6
CONTINUOUS
 62
     5
 10
17.10000000000036
 20
18.899999999999981
 30
0.0
 11
9.8999999999996362
 21
18.899999999999981
 31
0.0
  0
LINE
  8
DETAIL
  6
CONTINUOUS
 62
     5
 10
8.1000000000003638
 20
72.899999999999977
 30
0.0
 11
8.1000000000003638
 21
80.099999999999909
 31
0.0
  0
LINE
  8
DETAIL
  6
CONTINUOUS
 62
     5
 10
17.10000000000036
 20
18.899999999999981
 30
0.0
 11
17.10000000000036
 21
26.099999999999909
 31
0.0
  0
LINE
  8
DETAIL
  6
CONTINUOUS
 62
     5
 10
17.10000000000036
 20
80.099999999999909
 30
0.0
 11
9.8999999999996362
 21
80.099999999999909
 31
0.0
  0
LINE
  8
DETAIL
  6
CONTINUOUS
 62
     5
 10
26.10000000000036
 20
26.099999999999909
 30
0.0
 11
18.89999999999964
 21
26.099999999999909
 31
0.0
  0
LINE
  8
DETAIL
  6
CONTINUOUS
 62
     5
 10
9.8999999999996362
 20
72.899999999999977
 30
0.0
 11
9.8999999999996362
 21
80.099999999999909
 31
0.0
  0
LINE
  8
DETAIL
  6
CONTINUOUS
 62
     5
 10
18.89999999999964
 20
18.899999999999981
 30
0.0
 11
18.89999999999964
 21
26.099999999999909
 31
0.0
  0
LINE
  8
DETAIL
  6
CONTINUOUS
 62
     5
 10
17.10000000000036
 20
72.899999999999977
 30
0.0
 11
9.8999999999996362
 21
72.899999999999977
 31
0.0
  0
LINE
  8
DETAIL
  6
CONTINUOUS
 62
     5
 10
26.10000000000036
 20
18.899999999999981
 30
0.0
 11
18.89999999999964
 21
18.899999999999981
 31
0.0
  0
LINE
  8
DETAIL
  6
CONTINUOUS
 62
     5
 10
17.10000000000036
 20
72.899999999999977
 30
0.0
 11
17.10000000000036
 21
80.099999999999909
 31
0.0
  0
LINE
  8
DETAIL
  6
CONTINUOUS
 62
     5
 10
26.10000000000036
 20
18.899999999999981
 30
0.0
 11
26.10000000000036
 21
26.099999999999909
 31
0.0
  0
LINE
  8
DETAIL
  6
CONTINUOUS
 62
     5
 10
26.10000000000036
 20
80.099999999999909
 30
0.0
 11
18.89999999999964
 21
80.099999999999909
 31
0.0
  0
LINE
  8
DETAIL
  6
CONTINUOUS
 62
     5
 10
35.100000000000357
 20
26.099999999999909
 30
0.0
 11
27.89999999999964
 21
26.099999999999909
 31
0.0
  0
LINE
  8
DETAIL
  6
CONTINUOUS
 62
     5
 10
18.89999999999964
 20
72.899999999999977
 30
0.0
 11
18.89999999999964
 21
80.099999999999909
 31
0.0
  0
LINE
  8
DETAIL
  6
CONTINUOUS
 62
     5
 10
27.89999999999964
 20
18.899999999999981
 30
0.0
 11
27.89999999999964
 21
26.099999999999909
 31
0.0
  0
LINE
  8
DETAIL
  6
CONTINUOUS
 62
     5
 10
26.10000000000036
 20
72.899999999999977
 30
0.0
 11
18.89999999999964
 21
72.899999999999977
 31
0.0
  0
LINE
  8
DETAIL
  6
CONTINUOUS
 62
     5
 10
35.100000000000357
 20
18.899999999999981
 30
0.0
 11
27.89999999999964
 21
18.899999999999981
 31
0.0
  0
LINE
  8
DETAIL
  6
CONTINUOUS
 62
     5
 10
26.10000000000036
 20
72.899999999999977
 30
0.0
 11
26.10000000000036
 21
80.099999999999909
 31
0.0
  0
LINE
  8
DETAIL
  6
CONTINUOUS
 62
     5
 10
35.100000000000357
 20
18.899999999999981
 30
0.0
 11
35.100000000000357
 21
26.099999999999909
 31
0.0
  0
LINE
  8
DETAIL
  6
CONTINUOUS
 62
     5
 10
44.100000000000357
 20
26.099999999999909
 30
0.0
 11
36.899999999999643
 21
26.099999999999909
 31
0.0
  0
LINE
  8
DETAIL
  6
CONTINUOUS
 62
     5
 10
27.89999999999964
 20
72.899999999999977
 30
0.0
 11
27.89999999999964
 21
80.099999999999909
 31
0.0
  0
LINE
  8
DETAIL
  6
CONTINUOUS
 62
     5
 10
36.899999999999643
 20
18.899999999999981
 30
0.0
 11
36.899999999999643
 21
26.099999999999909
 31
0.0
  0
LINE
  8
DETAIL
  6
CONTINUOUS
 62
     5
 10
118.20564899999999
 20
117.20564899999999
 30
0.0
 11
118.20564899999999
 21
0.0
 31
0.0
  0
LINE
  8
DETAIL
  6
CONTINUOUS
 62
     5
 10
125.0
 20
124.0
 30
0.0
 11
125.0
 21
0.0
 31
0.0
  0
LINE
  8
DETAIL
  6
CONTINUOUS
 62
     5
 10
86.0
 20
82.5
 30
0.0
 11
86.0
 21
0.0
 31
0.0
  0
LINE
  8
DETAIL
  6
CONTINUOUS
 62
     5
 10
87.5
 20
84.0
 30
0.0
 11
87.5
 21
0.0
 31
0.0
  0
LINE
  8
DETAIL
  6
CONTINUOUS
 62
     5
 10
117.20564899999999
 20
118.20564899999999
 30
0.0
 11
0.0
 21
118.20564899999999
 31
0.0
  0
LINE
  8
DETAIL
  6
CONTINUOUS
 62
     5
 10
0.0
 20
125.0
 30
0.0
 11
124.0
 21
125.0
 31
0.0
  0
LINE
  8
DETAIL
  6
CONTINUOUS
 62
     5
 10
0.0
 20
87.5
 30
0.0
 11
84.0
 21
87.5
 31
0.0
  0
LINE
  8
DETAIL
  6
CONTINUOUS
 62
     5
 10
0.0
 20
86.0
 30
0.0
 11
82.5
 21
86.0
 31
0.0
  0
LINE
  8
DETAIL
  6
CONTINUOUS
 62
     5
 10
-52.895292999999583
 20
-127.159127
 30
0.0
 11
52.863583999999719
 21
-127.159127
 31
0.0
  0
ARC
  8
DETAIL
  6
CONTINUOUS
 62
     5
 10
67.643025999999736
 20
-129.54495900000009
 30
0.0
 40
14.970775
 50
162.84334799999911
 51
178.99999999999821
  0
LINE
  8
DETAIL
  6
CONTINUOUS
 62
     5
 10
53.338424000000032
 20
-125.1288010000001
 30
0.0
 11
53.378187000000253
 21
-125.0
 31
0.0
  0
LINE
  8
DETAIL
  6
CONTINUOUS
 62
     5
 10
-53.338424000000032
 20
-125.1288010000001
 30
0.0
 11
-53.378187000000253
 21
-125.0
 31
0.0
  0
ARC
  8
DETAIL
  6
CONTINUOUS
 62
     5
 10
-67.643025999999736
 20
-129.54495900000009
 30
0.0
 40
14.970775
 50
0.9999999999952632
 51
17.156652000000911
  0
TEXT
  8
NOTE
  6
CONTINUOUS
 62
     4
 10
-44.726985934042197
 20
-287.11926013663259
 30
0.0
 40
64.0
  1
EA
 41
0.9
  0
CIRCLE
  8
ARRANGE
  6
CONTINUOUS
 62
     1
 10
0.0
 20
0.0
 30
0.0
 40
40.0
  0
POINT
  8
ARRANGE
  6
CONTINUOUS
 62
     1
 10
0.0
 20
0.0
 30
0.0
 50
90.0
  0
ARC
  8
OUTLINE
  6
CONTINUOUS
 62
     3
 10
-67.643026000000191
 20
-129.54495900000009
 30
0.0
 40
14.970775
 50
0.9999999999952632
 51
17.156652000000911
  0
LINE
  8
OUTLINE
  6
CONTINUOUS
 62
     3
 10
-53.338424000000032
 20
-125.1288010000001
 30
0.0
 11
-53.378188000000137
 21
-125.0
 31
0.0
  0
LINE
  8
OUTLINE
  6
CONTINUOUS
 62
     3
 10
53.338422999999693
 20
-125.1288010000001
 30
0.0
 11
53.378186999999798
 21
-125.0
 31
0.0
  0
ARC
  8
OUTLINE
  6
CONTINUOUS
 62
     3
 10
67.643025999999736
 20
-129.54495900000009
 30
0.0
 40
14.970775
 50
162.84334799999911
 51
178.99999999999821
  0
LINE
  8
OUTLINE
  6
CONTINUOUS
 62
     3
 10
0.0
 20
125.0
 30
0.0
 11
124.0
 21
125.0
 31
0.0
  0
LINE
  8
OUTLINE
  6
CONTINUOUS
 62
     3
 10
125.0
 20
124.0
 30
0.0
 11
125.0
 21
0.0
 31
0.0
  0
ARC
  8
OUTLINE
  6
CONTINUOUS
 62
     3
 10
124.0
 20
124.0
 30
0.0
 40
1.0
 50
0.0
 51
90.0
  0
LINE
  8
OUTLINE
  6
CONTINUOUS
 62
     3
 10
125.0
 20
-124.0
 30
0.0
 11
125.0
 21
0.0
 31
0.0
  0
ARC
  8
OUTLINE
  6
CONTINUOUS
 62
     3
 10
124.0
 20
-124.0
 30
0.0
 40
1.0
 50
270.0
 51
0.0
  0
LINE
  8
OUTLINE
  6
CONTINUOUS
 62
     3
 10
-125.0
 20
-124.0
 30
0.0
 11
-125.0
 21
0.0
 31
0.0
  0
ARC
  8
OUTLINE
  6
CONTINUOUS
 62
     3
 10
-124.0
 20
-124.0
 30
0.0
 40
1.0
 50
180.0
 51
270.0
  0
LINE
  8
OUTLINE
  6
CONTINUOUS
 62
     3
 10
0.0
 20
125.0
 30
0.0
 11
-124.0
 21
125.0
 31
0.0
  0
LINE
  8
OUTLINE
  6
CONTINUOUS
 62
     3
 10
-125.0
 20
124.0
 30
0.0
 11
-125.0
 21
0.0
 31
0.0
  0
ARC
  8
OUTLINE
  6
CONTINUOUS
 62
     3
 10
-124.0
 20
124.0
 30
0.0
 40
1.0
 50
90.0
 51
180.0
  0
ARC
  8
OUTLINE
  6
CONTINUOUS
 62
     3
 10
-48.310035999999847
 20
-195.52579900000001
 30
0.0
 40
0.499026
 50
180.50000000000449
 51
270.0
  0
LINE
  8
OUTLINE
  6
CONTINUOUS
 62
     3
 10
48.310035999999847
 20
-196.02482499999999
 30
0.0
 11
-48.310035999999847
 21
-196.02482499999999
 31
0.0
  0
ARC
  8
OUTLINE
  6
CONTINUOUS
 62
     3
 10
48.310035999999847
 20
-195.52579900000001
 30
0.0
 40
0.499026
 50
270.0
 51
359.4999999999954
  0
LINE
  8
OUTLINE
  6
CONTINUOUS
 62
     3
 10
48.809041999999863
 20
-195.53015400000001
 30
0.0
 11
49.168418000000202
 21
-154.34983099999999
 31
0.0
  0
ARC
  8
OUTLINE
  6
CONTINUOUS
 62
     3
 10
51.164444999999887
 20
-154.36725000000001
 30
0.0
 40
1.996103
 50
160.00000000000341
 51
179.4999999999954
  0
LINE
  8
OUTLINE
  6
CONTINUOUS
 62
     3
 10
49.288720999999903
 20
-153.68454199999999
 30
0.0
 11
52.283464999999978
 21
-145.45655099999999
 31
0.0
  0
ARC
  8
OUTLINE
  6
CONTINUOUS
 62
     3
 10
50.407741999999871
 20
-144.77384299999991
 30
0.0
 40
1.996103
 50
340.00000000000341
 51
358.99999999999818
  0
LINE
  8
OUTLINE
  6
CONTINUOUS
 62
     3
 10
52.403541000000132
 20
-144.80868000000001
 30
0.0
 11
52.674530999999661
 21
-129.283682
 31
0.0
  0
LINE
  8
OUTLINE
  6
CONTINUOUS
 62
     3
 10
-52.403542000000023
 20
-144.80868000000001
 30
0.0
 11
-52.674531999999999
 21
-129.283682
 31
0.0
  0
ARC
  8
OUTLINE
  6
CONTINUOUS
 62
     3
 10
-50.40774300000021
 20
-144.77384299999991
 30
0.0
 40
1.996103
 50
180.99999999999531
 51
199.99999999999659
  0
LINE
  8
OUTLINE
  6
CONTINUOUS
 62
     3
 10
-49.288722000000227
 20
-153.68454199999999
 30
0.0
 11
-52.283465999999862
 21
-145.45655099999999
 31
0.0
  0
ARC
  8
OUTLINE
  6
CONTINUOUS
 62
     3
 10
-51.164446000000233
 20
-154.36725000000001
 30
0.0
 40
1.996103
 50
0.5000000000045772
 51
19.999999999996621
  0
LINE
  8
OUTLINE
  6
CONTINUOUS
 62
     3
 10
-48.809043000000202
 20
-195.53015400000001
 30
0.0
 11
-49.168418000000202
 21
-154.34983099999999
 31
0.0
  0
LINE
  8
OUTLINE
  6
CONTINUOUS
 62
     3
 10
53.378823999999902
 20
-125.0
 30
0.0
 11
124.0
 21
-125.0
 31
0.0
  0
LINE
  8
OUTLINE
  6
CONTINUOUS
 62
     3
 10
-53.378188000000137
 20
-125.0
 30
0.0
 11
-124.0
 21
-125.0
 31
0.0
  0
LINE
  8
BASIS
  6
DASHDOT
 62
     6
 10
-140.68038700000031
 20
0.0
 30
0.0
 11
131.94946399999981
 21
0.0
 31
0.0
  0
LINE
  8
BASIS
  6
DASHDOT
 62
     6
 10
0.0
 20
-208.1727470000001
 30
0.0
 11
0.0
 21
136.680791
 31
0.0
  0
LINE
  8
SIZE
  6
CONTINUOUS
 62
    30
 10
144.0
 20
-125.0
 30
0.0
 11
305.19915541664523
 21
-125.0000000000001
 31
0.0
  0
LINE
  8
SIZE
  6
CONTINUOUS
 62
    30
 10
144.0
 20
125.0
 30
0.0
 11
305.19915541664523
 21
124.9999999999999
 31
0.0
  0
LINE
  8
SIZE
  6
CONTINUOUS
 62
    30
 10
285.19915541664523
 20
-113.0
 30
0.0
 11
285.19915541664523
 21
113.0
 31
0.0
  0
CIRCLE
  8
SIZE
  6
CONTINUOUS
 62
    30
 10
285.19915541664523
 20
-125.0
 30
0.0
 40
6.0
  0
LINE
  8
SIZE
  6
CONTINUOUS
 62
    30
 10
285.19915541664523
 20
-125.0
 30
0.0
 11
285.19915541664523
 21
-113.0
 31
0.0
  0
CIRCLE
  8
SIZE
  6
CONTINUOUS
 62
    30
 10
285.19915541664523
 20
125.0
 30
0.0
 40
6.0
  0
LINE
  8
SIZE
  6
CONTINUOUS
 62
    30
 10
285.19915541664523
 20
125.0
 30
0.0
 11
285.19915541664523
 21
113.0
 31
0.0
  0
TEXT
  8
SIZE
  6
CONTINUOUS
 62
    30
 10
260.19915541664523
 20
-110.5371428571429
 30
0.0
 40
64.0
  1
□250
 50
90.0
 41
0.9
 72
     1
 11
260.19915541664523
 21
0.0
 31
0.0
  0
POINT
  8
DEFPOINTS
  6
CONTINUOUS
 62
    30
 10
124.0
 20
-125.0
 30
0.0
  0
POINT
  8
DEFPOINTS
  6
CONTINUOUS
 62
    30
 10
124.0
 20
125.0
 30
0.0
  0
POINT
  8
DEFPOINTS
  6
CONTINUOUS
 62
    30
 10
285.19915541664523
 20
125.0
 30
0.0
  0
LINE
  8
SIZE
  6
CONTINUOUS
 62
    30
 10
68.310035999999855
 20
-196.02482500000011
 30
0.0
 11
384.62452476712002
 21
-196.02482500000019
 31
0.0
  0
LINE
  8
SIZE
  6
CONTINUOUS
 62
    30
 10
69.201146999999764
 20
-154.0068500000001
 30
0.0
 11
384.62452476712002
 21
-154.00685000000021
 31
0.0
  0
LINE
  8
SIZE
  6
CONTINUOUS
 62
    30
 10
364.62452476712002
 20
-142.00685000000021
 30
0.0
 11
364.62452476712002
 21
-130.00685000000021
 31
0.0
  0
LINE
  8
SIZE
  6
CONTINUOUS
 62
    30
 10
364.62452476712002
 20
-208.02482500000019
 30
0.0
 11
364.62452476712002
 21
-363.281967857143
 31
0.0
  0
LINE
  8
SIZE
  6
CONTINUOUS
 62
    30
 10
364.62452476712002
 20
-154.00685000000021
 30
0.0
 11
364.62452476712002
 21
-196.02482500000019
 31
0.0
  0
CIRCLE
  8
SIZE
  6
CONTINUOUS
 62
    30
 10
364.62452476712002
 20
-154.00685000000021
 30
0.0
 40
6.0
  0
LINE
  8
SIZE
  6
CONTINUOUS
 62
    30
 10
364.62452476712002
 20
-154.00685000000021
 30
0.0
 11
364.62452476712002
 21
-142.00685000000021
 31
0.0
  0
CIRCLE
  8
SIZE
  6
CONTINUOUS
 62
    30
 10
364.62452476712002
 20
-196.02482500000019
 30
0.0
 40
6.0
  0
LINE
  8
SIZE
  6
CONTINUOUS
 62
    30
 10
364.62452476712002
 20
-196.02482500000019
 30
0.0
 11
364.62452476712002
 21
-208.02482500000019
 31
0.0
  0
TEXT
  8
SIZE
  6
CONTINUOUS
 62
    30
 10
339.62452476712002
 20
-338.28196785714312
 30
0.0
 40
64.0
  1
42
 50
90.0
 41
0.9
 72
     1
 11
339.62452476712002
 21
-291.65339642857163
 31
0.0
  0
POINT
  8
DEFPOINTS
  6
CONTINUOUS
 62
    30
 10
48.310035999999847
 20
-196.02482500000011
 30
0.0
  0
POINT
  8
DEFPOINTS
  6
CONTINUOUS
 62
    30
 10
49.201146999999757
 20
-154.0068500000001
 30
0.0
  0
POINT
  8
DEFPOINTS
  6
CONTINUOUS
 62
    30
 10
364.62452476712002
 20
-154.00685000000021
 30
0.0
  0
LINE
  8
SIZE
  6
CONTINUOUS
 62
    30
 10
68.310035999999855
 20
-196.02482500000011
 30
0.0
 11
486.73494146075109
 21
-196.02482500000019
 31
0.0
  0
LINE
  8
SIZE
  6
CONTINUOUS
 62
    30
 10
72.863583999999719
 20
-127.159126
 30
0.0
 11
486.73494146075109
 21
-127.1591260000001
 31
0.0
  0
LINE
  8
SIZE
  6
CONTINUOUS
 62
    30
 10
466.73494146075109
 20
-115.1591260000001
 30
0.0
 11
466.73494146075109
 21
-103.1591260000001
 31
0.0
  0
LINE
  8
SIZE
  6
CONTINUOUS
 62
    30
 10
466.73494146075109
 20
-208.02482500000019
 30
0.0
 11
466.73494146075109
 21
-360.53911071428598
 31
0.0
  0
LINE
  8
SIZE
  6
CONTINUOUS
 62
    30
 10
466.73494146075109
 20
-127.1591260000001
 30
0.0
 11
466.73494146075109
 21
-196.02482500000019
 31
0.0
  0
CIRCLE
  8
SIZE
  6
CONTINUOUS
 62
    30
 10
466.73494146075109
 20
-127.1591260000001
 30
0.0
 40
6.0
  0
LINE
  8
SIZE
  6
CONTINUOUS
 62
    30
 10
466.73494146075109
 20
-127.1591260000001
 30
0.0
 11
466.73494146075109
 21
-115.1591260000001
 31
0.0
  0
CIRCLE
  8
SIZE
  6
CONTINUOUS
 62
    30
 10
466.73494146075109
 20
-196.02482500000019
 30
0.0
 40
6.0
  0
LINE
  8
SIZE
  6
CONTINUOUS
 62
    30
 10
466.73494146075109
 20
-196.02482500000019
 30
0.0
 11
466.73494146075109
 21
-208.02482500000019
 31
0.0
  0
TEXT
  8
SIZE
  6
CONTINUOUS
 62
    30
 10
441.73494146075109
 20
-335.53911071428581
 30
0.0
 40
64.0
  1
69
 50
90.0
 41
0.9
 72
     1
 11
441.73494146075109
 21
-290.28196785714289
 31
0.0
  0
POINT
  8
DEFPOINTS
  6
CONTINUOUS
 62
    30
 10
48.310035999999847
 20
-196.02482500000011
 30
0.0
  0
POINT
  8
DEFPOINTS
  6
CONTINUOUS
 62
    30
 10
52.863583999999719
 20
-127.159126
 30
0.0
  0
POINT
  8
DEFPOINTS
  6
CONTINUOUS
 62
    30
 10
466.73494146075109
 20
-127.1591260000001
 30
0.0
  0
LINE
  8
SIZE
  6
CONTINUOUS
 62
    30
 10
-48.809042998619127
 20
-215.5301537681037
 30
0.0
 11
-48.809042998619127
 21
-367.84958174326482
 31
0.0
  0
LINE
  8
SIZE
  6
CONTINUOUS
 62
    30
 10
48.809042998618679
 20
-215.5301537681037
 30
0.0
 11
48.809042998618679
 21
-367.84958174326482
 31
0.0
  0
LINE
  8
SIZE
  6
CONTINUOUS
 62
    30
 10
36.809042998618679
 20
-347.84958174326482
 30
0.0
 11
-36.809042998619127
 21
-347.84958174326482
 31
0.0
  0
LINE
  8
SIZE
  6
CONTINUOUS
 62
    30
 10
-48.809042998619127
 20
-347.84958174326482
 30
0.0
 11
-322.82451021986918
 21
-347.84958174326482
 31
0.0
  0
CIRCLE
  8
SIZE
  6
CONTINUOUS
 62
    30
 10
48.809042998618679
 20
-347.84958174326482
 30
0.0
 40
6.0
  0
LINE
  8
SIZE
  6
CONTINUOUS
 62
    30
 10
48.809042998618679
 20
-347.84958174326482
 30
0.0
 11
36.809042998618679
 21
-347.84958174326482
 31
0.0
  0
CIRCLE
  8
SIZE
  6
CONTINUOUS
 62
    30
 10
-48.809042998619127
 20
-347.84958174326482
 30
0.0
 40
6.0
  0
LINE
  8
SIZE
  6
CONTINUOUS
 62
    30
 10
-48.809042998619127
 20
-347.84958174326482
 30
0.0
 11
-36.809042998619127
 21
-347.84958174326482
 31
0.0
  0
TEXT
  8
SIZE
  6
CONTINUOUS
 62
    30
 10
-307.97308164844071
 20
-312.18291507659808
 30
0.0
 40
64.0
  1
φ98
 41
0.9
 72
     1
 11
-221.0245102198692
 21
-312.18291507659808
 31
0.0
  0
POINT
  8
DEFPOINTS
  6
CONTINUOUS
 62
    30
 10
-48.809042998619127
 20
-195.5301537681037
 30
0.0
  0
POINT
  8
DEFPOINTS
  6
CONTINUOUS
 62
    30
 10
48.809042998618679
 20
-195.5301537681037
 30
0.0
  0
POINT
  8
DEFPOINTS
  6
CONTINUOUS
 62
    30
 10
48.809042998618679
 20
-347.84958174326482
 30
0.0
  0
LINE
  8
SIZE
  6
CONTINUOUS
 62
    30
 10
-52.403541983844661
 20
-164.80867980084639
 30
0.0
 11
-52.403541983844661
 21
-500.9697643722227
 31
0.0
  0
LINE
  8
SIZE
  6
CONTINUOUS
 62
    30
 10
52.403540983844323
 20
-164.8086798008467
 30
0.0
 11
52.403540983844323
 21
-500.9697643722227
 31
0.0
  0
LINE
  8
SIZE
  6
CONTINUOUS
 62
    30
 10
40.403540983844323
 20
-480.9697643722227
 30
0.0
 11
-40.403541983844661
 21
-480.9697643722227
 31
0.0
  0
LINE
  8
SIZE
  6
CONTINUOUS
 62
    30
 10
-52.403541983844661
 20
-480.9697643722227
 30
0.0
 11
-378.79667928675133
 21
-480.9697643722227
 31
0.0
  0
CIRCLE
  8
SIZE
  6
CONTINUOUS
 62
    30
 10
52.403540983844323
 20
-480.9697643722227
 30
0.0
 40
6.0
  0
LINE
  8
SIZE
  6
CONTINUOUS
 62
    30
 10
52.403540983844323
 20
-480.9697643722227
 30
0.0
 11
40.403540983844323
 21
-480.9697643722227
 31
0.0
  0
CIRCLE
  8
SIZE
  6
CONTINUOUS
 62
    30
 10
-52.403541983844661
 20
-480.9697643722227
 30
0.0
 40
6.0
  0
LINE
  8
SIZE
  6
CONTINUOUS
 62
    30
 10
-52.403541983844661
 20
-480.9697643722227
 30
0.0
 11
-40.403541983844661
 21
-480.9697643722227
 31
0.0
  0
TEXT
  8
SIZE
  6
CONTINUOUS
 62
    30
 10
-363.94525071532269
 20
-445.30309770555601
 30
0.0
 40
64.0
  1
φ105
 41
0.9
 72
     1
 11
-255.05382214389419
 21
-445.30309770555601
 31
0.0
  0
POINT
  8
DEFPOINTS
  6
CONTINUOUS
 62
    30
 10
-52.403541983844661
 20
-144.80867980084639
 30
0.0
  0
POINT
  8
DEFPOINTS
  6
CONTINUOUS
 62
    30
 10
52.403540983844323
 20
-144.8086798008467
 30
0.0
  0
POINT
  8
DEFPOINTS
  6
CONTINUOUS
 62
    30
 10
52.403540983844323
 20
-480.9697643722227
 30
0.0
  0
ENDSEC
  0
EOF
