  0
SECTION
  2
HEADER
  9
$ACADVER
  1
AC1009
  9
$DWGCODEPAGE
  3
dos932
  9
$INSBASE
 10
0.0
 20
0.0
 30
0.0
  9
$EXTMIN
 10
-814.82847487184881
 20
-481.61314751675133
 30
-0.0015258207003583
  9
$EXTMAX
 10
1251.2466548956529
 20
768.72254240876282
 30
0.0000000349246037
  9
$LIMMIN
 10
-2970.0
 20
-2100.0
  9
$LIMMAX
 10
2970.0
 20
2100.0
  9
$ORTHOMODE
 70
     1
  9
$REGENMODE
 70
     1
  9
$FILLMODE
 70
     1
  9
$QTEXTMODE
 70
     0
  9
$MIRRTEXT
 70
     0
  9
$LTSCALE
 40
20.0
  9
$ATTMODE
 70
     1
  9
$TEXTSIZE
 40
64.0
  9
$TRACEWID
 40
0.05
  9
$TEXTSTYLE
  7
STANDARD
  9
$CLAYER
  8
SIZE
  9
$CELTYPE
  6
CONTINUOUS
  9
$CECOLOR
 62
     7
  9
$DIMSCALE
 40
1.0
  9
$DIMASZ
 40
12.0
  9
$DIMEXO
 40
20.0
  9
$DIMDLI
 40
200.0
  9
$DIMRND
 40
0.0
  9
$DIMDLE
 40
0.0
  9
$DIMEXE
 40
20.0
  9
$DIMTP
 40
0.0
  9
$DIMTM
 40
0.0
  9
$DIMTXT
 40
64.0
  9
$DIMCEN
 40
0.09
  9
$DIMTSZ
 40
0.0
  9
$DIMTOL
 70
     0
  9
$DIMLIM
 70
     0
  9
$DIMTIH
 70
     0
  9
$DIMTOH
 70
     0
  9
$DIMSE1
 70
     0
  9
$DIMSE2
 70
     0
  9
$DIMTAD
 70
     1
  9
$DIMZIN
 70
     8
  9
$DIMBLK
  1

  9
$DIMASO
 70
     1
  9
$DIMSHO
 70
     0
  9
$DIMPOST
  1

  9
$DIMAPOST
  1

  9
$DIMALT
 70
     0
  9
$DIMALTD
 70
     2
  9
$DIMALTF
 40
25.399999999999999
  9
$DIMLFAC
 40
1.0
  9
$DIMTOFL
 70
     1
  9
$DIMTVP
 40
0.0
  9
$DIMTIX
 70
     1
  9
$DIMSOXD
 70
     0
  9
$DIMSAH
 70
     0
  9
$DIMBLK1
  1

  9
$DIMBLK2
  1

  9
$DIMSTYLE
  2
STANDARD
  9
$DIMCLRD
 70
     7
  9
$DIMCLRE
 70
     7
  9
$DIMCLRT
 70
     7
  9
$DIMTFAC
 40
1.0
  9
$DIMGAP
 40
25.0
  9
$LUNITS
 70
     2
  9
$LUPREC
 70
     4
  9
$SKETCHINC
 40
0.1
  9
$FILLETRAD
 40
3.0
  9
$AUNITS
 70
     1
  9
$AUPREC
 70
     3
  9
$MENU
  1
ACAD
  9
$ELEVATION
 40
0.0
  9
$PELEVATION
 40
0.0
  9
$THICKNESS
 40
0.0
  9
$LIMCHECK
 70
     0
  9
$CHAMFERA
 40
0.0
  9
$CHAMFERB
 40
0.0
  9
$SKPOLY
 70
     0
  9
$TDCREATE
 40
2453019.62301037
  9
$TDUPDATE
 40
2459025.489106192
  9
$TDINDWG
 40
1.7138585764
  9
$TDUSRTIMER
 40
1.7138585764
  9
$USRTIMER
 70
     1
  9
$ANGBASE
 50
0.0
  9
$ANGDIR
 70
     0
  9
$PDMODE
 70
     3
  9
$PDSIZE
 40
-2.0
  9
$PLINEWID
 40
0.0
  9
$SPLFRAME
 70
     0
  9
$SPLINETYPE
 70
     6
  9
$SPLINESEGS
 70
     8
  9
$SURFTAB1
 70
     6
  9
$SURFTAB2
 70
     6
  9
$SURFTYPE
 70
     6
  9
$SURFU
 70
     6
  9
$SURFV
 70
     6
  9
$UCSNAME
  2

  9
$UCSORG
 10
0.0
 20
0.0
 30
0.0
  9
$UCSXDIR
 10
1.0
 20
0.0
 30
0.0
  9
$UCSYDIR
 10
0.0
 20
1.0
 30
0.0
  9
$PUCSNAME
  2

  9
$PUCSORG
 10
0.0
 20
0.0
 30
0.0
  9
$PUCSXDIR
 10
1.0
 20
0.0
 30
0.0
  9
$PUCSYDIR
 10
0.0
 20
1.0
 30
0.0
  9
$USERI1
 70
     0
  9
$USERI2
 70
     0
  9
$USERI3
 70
     0
  9
$USERI4
 70
     0
  9
$USERI5
 70
     0
  9
$USERR1
 40
20.0
  9
$USERR2
 40
0.0
  9
$USERR3
 40
0.0
  9
$USERR4
 40
0.0
  9
$USERR5
 40
0.0
  9
$WORLDVIEW
 70
     1
  9
$SHADEDGE
 70
     3
  9
$SHADEDIF
 70
    70
  9
$TILEMODE
 70
     1
  9
$MAXACTVP
 70
    48
  9
$PINSBASE
 10
0.0
 20
0.0
 30
0.0
  9
$PLIMCHECK
 70
     0
  9
$PEXTMIN
 10
-100000000000000000000.0
 20
-100000000000000000000.0
 30
-100000000000000000000.0
  9
$PEXTMAX
 10
100000000000000000000.0
 20
100000000000000000000.0
 30
100000000000000000000.0
  9
$PLIMMIN
 10
0.0
 20
0.0
  9
$PLIMMAX
 10
12.0
 20
9.0
  9
$UNITMODE
 70
     0
  9
$VISRETAIN
 70
     0
  9
$PLINEGEN
 70
     0
  9
$PSLTSCALE
 70
     0
  9
$TREEDEPTH
 70
  3020
  9
$ATTDIA
 70
     0
  9
$ATTREQ
 70
     1
  9
$BLIPMODE
 70
     1
  9
$COORDS
 70
     1
  9
$DRAGMODE
 70
     2
  9
$OSMODE
 70
     0
  9
$HANDLING
 70
     0
  9
$HANDSEED
  5
FD6C
  0
ENDSEC
  0
SECTION
  2
TABLES
  0
TABLE
  2
LTYPE
 70
     4
  0
LTYPE
  2
CONTINUOUS
 70
     0
  3
実線
 72
    65
 73
     0
 40
0.0
  0
LTYPE
  2
DASHDOT
 70
     0
  3
____ _ ____ _ ____ _ ____ _ ____ _ ____ _ ____
 72
    65
 73
     4
 40
5.5
 49
4.0
 49
-0.6
 49
0.3
 49
-0.6
  0
LTYPE
  2
DASHED
 70
     0
  3
-- -- -- -- -- -- -- -- -- -- -- -- -- -- --
 72
    65
 73
     2
 40
0.75
 49
0.5
 49
-0.25
  0
LTYPE
  2
CENTER
 70
     0
  3
Center ____ _ ____ _ ____ _ ____ _ ____ _ ____
 72
    65
 73
     4
 40
1.0
 49
0.5
 49
-0.25
 49
0.0
 49
-0.25
  0
ENDTAB
  0
TABLE
  2
LAYER
 70
    12
  0
LAYER
  2
0
 70
     0
 62
     7
  6
CONTINUOUS
  0
LAYER
  2
BASIS
 70
     0
 62
     6
  6
DASHDOT
  0
LAYER
  2
OUTLINE
 70
     0
 62
     3
  6
CONTINUOUS
  0
LAYER
  2
DETAIL
 70
     0
 62
     5
  6
CONTINUOUS
  0
LAYER
  2
SIZE
 70
     0
 62
    30
  6
CONTINUOUS
  0
LAYER
  2
ARRANGE
 70
     0
 62
     1
  6
CONTINUOUS
  0
LAYER
  2
DEFPOINTS
 70
     0
 62
     7
  6
CONTINUOUS
  0
LAYER
  2
ETC
 70
     0
 62
    61
  6
CONTINUOUS
  0
LAYER
  2
FIX
 70
     0
 62
    11
  6
CONTINUOUS
  0
LAYER
  2
NOTE
 70
     0
 62
     4
  6
CONTINUOUS
  0
LAYER
  2
SERVICESPACE
 70
    64
 62
     2
  6
DASHDOT
  0
LAYER
  2
SYMBOLLINE
 70
    64
 62
    15
  6
CONTINUOUS
  0
ENDTAB
  0
TABLE
  2
STYLE
 70
     1
  0
STYLE
  2
STANDARD
 70
     0
 40
64.0
 41
0.9
 50
0.0
 71
     0
 42
64.0
  3
SIMPLEX.shx
  4
BIGFONT.shx
  0
ENDTAB
  0
TABLE
  2
APPID
 70
    19
  0
APPID
  2
ACAD
 70
     0
  0
APPID
  2
AUTOCAD_POSTSCRIPT_FIGURE
 70
     0
  0
APPID
  2
ACAD_EXEMPT_FROM_CAD_STANDARDS
 70
     0
  0
APPID
  2
ACAD_PSEXT
 70
     0
  0
APPID
  2
ACAUTHENVIRON
 70
     0
  0
APPID
  2
GENIUS_GENOENT_13
 70
     0
  0
APPID
  2
GENIUS_GENCFG_13
 70
     0
  0
APPID
  2
GENIUS_GENCFG0_13
 70
     0
  0
APPID
  2
GENIUS_GENCFG1_13
 70
     0
  0
APPID
  2
GENIUS_GENCFG2_13
 70
     0
  0
APPID
  2
GENIUS_GENCFG3_13
 70
     0
  0
APPID
  2
GENIUS_GENCFG4_13
 70
     0
  0
APPID
  2
GENIUS_GEVCFG0_13
 70
     0
  0
APPID
  2
CONTENTBLOCKICON
 70
     0
  0
APPID
  2
CONTENTBLOCKDESCRIPTION
 70
     0
  0
APPID
  2
ACAD_NAV_VCDISPLAY
 70
     0
  0
APPID
  2
ACAD_MLEADERVER
 70
     0
  0
APPID
  2
ACDBDYNAMICBLOCKTRUENAME
 70
     0
  0
APPID
  2
ACDBDYNAMICBLOCKGUID
 70
     0
  0
ENDTAB
  0
TABLE
  2
DIMSTYLE
 70
     1
  0
DIMSTYLE
  2
STANDARD
 70
     0
  3

  4

  5
_ORIGIN
  6

  7

 40
1.0
 41
12.0
 42
20.0
 43
200.0
 44
20.0
 45
0.0
 46
0.0
 47
0.0
 48
0.0
140
64.0
141
0.09
142
0.0
143
25.399999999999999
144
1.0
145
0.0
146
1.0
147
25.0
 71
     0
 72
     0
 73
     0
 74
     0
 75
     0
 76
     0
 77
     1
 78
     8
170
     0
171
     2
172
     1
173
     0
174
     1
175
     0
176
     7
177
     7
178
     7
  0
ENDTAB
  0
TABLE
  2
VIEW
 70
     1
  0
VIEW
  2
ALL
 70
     0
 40
4282.6198079999986
 10
0.0
 20
41.309904000000003
 41
5940.0
 11
0.0
 21
0.0
 31
1.0
 12
0.0
 22
0.0
 32
0.0
 42
50.0
 43
0.0
 44
0.0
 50
0.0
 71
     0
  0
ENDTAB
  0
TABLE
  2
UCS
 70
     0
  0
ENDTAB
  0
TABLE
  2
VPORT
 70
     1
  0
VPORT
  2
*ACTIVE
 70
     0
 10
0.0
 20
0.0
 11
1.0
 21
1.0
 12
218.20909001190199
 22
143.5546974460058
 13
0.0
 23
0.0
 14
1.0
 24
1.0
 15
0.0
 25
0.0
 16
0.0
 26
0.0
 36
1.0
 17
0.0
 27
0.0
 37
0.0
 40
1258.6252083117611
 41
1.747787610619469
 42
50.0
 43
0.0
 44
0.0
 50
0.0
 51
0.0
 71
     0
 72
  1000
 73
     1
 74
     3
 75
     0
 76
     0
 77
     0
 78
     0
  0
ENDTAB
  0
ENDSEC
  0
SECTION
  2
BLOCKS
  0
BLOCK
  8
0
  2
_ORIGIN
 70
     0
 10
0.0
 20
0.0
 30
0.0
  3
_ORIGIN
  1
_ORIGIN
  0
CIRCLE
  8
0
  6
CONTINUOUS
 62
     7
 10
0.0
 20
0.0
 30
0.0
 40
0.5
  0
LINE
  8
0
  6
CONTINUOUS
 62
     7
 10
0.0
 20
0.0
 30
0.0
 11
-1.0
 21
0.0
 31
0.0
  0
ENDBLK
  8
0
  0
ENDSEC
  0
SECTION
  2
ENTITIES
  0
TEXT
  8
ETC
  6
CONTINUOUS
 62
    61
 10
419.80442908725013
 20
704.44961370410329
 30
0.0
 40
64.0
  1
VD-10ZLCU13-S_5
 41
0.9
  0
TEXT
  8
ETC
  6
CONTINUOUS
 62
    61
 10
417.59601808725029
 20
603.8085677041031
 30
0.0
 40
64.0
  1
換気扇
 41
0.9
  0
TEXT
  8
ETC
  6
CONTINUOUS
 62
    61
 10
557.84029324448852
 20
518.26460443960605
 30
0.0
 40
50.0
  1
VD-10ZLCU13-S
 41
0.9
  0
CIRCLE
  8
ARRANGE
  6
CONTINUOUS
 62
     1
 10
0.0
 20
0.0
 30
0.0
 40
40.0
  0
TEXT
  8
NOTE
  6
CONTINUOUS
 62
     4
 10
-795.20369270933111
 20
291.66065064723819
 30
0.0
 40
63.999999999999993
  1
8-φ5×8.5
 50
0.1492621982627984
 41
0.9
  0
LINE
  8
BASIS
  6
DASHDOT
 62
     6
 10
0.0
 20
185.8927580000001
 30
0.0
 11
0.0
 21
-66.494227614724196
 31
0.0
  0
LINE
  8
NOTE
  6
CENTER
 62
     4
 10
98.5
 20
13.96660531273085
 30
0.0
 11
98.5
 21
-13.966605312730911
 31
0.0
  0
LINE
  8
NOTE
  6
CENTER
 62
     4
 10
46.5
 20
144.74042800000009
 30
0.0
 11
46.5
 21
131.31763699999999
 31
0.0
  0
CIRCLE
  8
FIX
  6
CONTINUOUS
 62
    11
 10
98.5
 20
0.0
 30
0.0
 40
10.0
  0
CIRCLE
  8
FIX
  6
CONTINUOUS
 62
    11
 10
65.0
 20
0.0
 30
0.0
 40
10.0
  0
CIRCLE
  8
FIX
  6
CONTINUOUS
 62
    11
 10
-65.0
 20
0.0
 30
0.0
 40
10.0
  0
CIRCLE
  8
FIX
  6
CONTINUOUS
 62
    11
 10
-98.5
 20
0.0
 30
0.0
 40
10.0
  0
LINE
  8
NOTE
  6
CONTINUOUS
 62
     4
 10
-814.72749920934803
 20
263.93358550121229
 30
0.0
 11
-333.69634198458652
 21
264.8116364789787
 31
0.0
  0
LINE
  8
NOTE
  6
CONTINUOUS
 62
     4
 10
-98.412773999999899
 20
0.0
 30
0.0
 11
-333.69634198458652
 21
264.8116364789787
 31
0.0
  0
LINE
  8
NOTE
  6
CONTINUOUS
 62
     4
 10
-98.412773999999899
 20
0.0
 30
0.0
 11
-129.72551934757891
 21
22.683422418883421
 31
0.0
  0
LINE
  8
NOTE
  6
CONTINUOUS
 62
     4
 10
-117.40804869402341
 20
35.19929633376114
 30
0.0
 11
-98.412773999999899
 21
0.0
 31
0.0
  0
TEXT
  8
NOTE
  6
CONTINUOUS
 62
     4
 10
-206.58200537300351
 20
275.29493509341341
 30
0.0
 40
64.0
  1
EL
 41
0.9
  0
LINE
  8
NOTE
  6
CONTINUOUS
 62
     4
 10
-222.66695438239
 20
258.23855294854678
 30
0.0
 11
-105.3789115983966
 21
258.23855294852018
 31
0.0
  0
LINE
  8
NOTE
  6
CONTINUOUS
 62
     4
 10
46.5
 20
138.98768200000009
 30
0.0
 11
-105.3789115983966
 21
258.23855294852018
 31
0.0
  0
LINE
  8
NOTE
  6
CONTINUOUS
 62
     4
 10
46.5
 20
138.98768200000009
 30
0.0
 11
10.1481949797261
 21
152.2752939108012
 31
0.0
  0
LINE
  8
NOTE
  6
CONTINUOUS
 62
     4
 10
24.192467637992539
 20
172.10710053345721
 30
0.0
 11
46.5
 21
138.98768200000009
 31
0.0
  0
POINT
  8
ARRANGE
  6
CONTINUOUS
 62
     1
 10
0.0
 20
0.0
 30
0.0
 50
90.000000000000014
  0
LINE
  8
SIZE
  6
CONTINUOUS
 62
    30
 10
65.0
 20
-26.299110999999929
 30
0.0
 11
65.0
 21
-218.1946618983857
 31
0.0
  0
LINE
  8
SIZE
  6
CONTINUOUS
 62
    30
 10
-65.0
 20
-26.299110999999929
 30
0.0
 11
-65.0
 21
-218.1946618983857
 31
0.0
  0
LINE
  8
SIZE
  6
CONTINUOUS
 62
    30
 10
65.0
 20
-198.1946618983857
 30
0.0
 11
-313.04502799472209
 21
-198.1946618983857
 31
0.0
  0
CIRCLE
  8
SIZE
  6
CONTINUOUS
 62
    30
 10
65.0
 20
-198.1946618983857
 30
0.0
 40
6.0
  0
LINE
  8
SIZE
  6
CONTINUOUS
 62
    30
 10
65.0
 20
-198.1946618983857
 30
0.0
 11
77.0
 21
-198.1946618983857
 31
0.0
  0
CIRCLE
  8
SIZE
  6
CONTINUOUS
 62
    30
 10
-65.0
 20
-198.1946618983857
 30
0.0
 40
6.0
  0
LINE
  8
SIZE
  6
CONTINUOUS
 62
    30
 10
-65.0
 20
-198.1946618983857
 30
0.0
 11
-77.0
 21
-198.1946618983857
 31
0.0
  0
TEXT
  8
SIZE
  6
CONTINUOUS
 62
    30
 10
-290.74059153621113
 20
-173.19466189838579
 30
0.0
 40
64.0
  1
130
 41
0.9
 72
     1
 11
-222.1691629647826
 21
-173.19466189838579
 31
0.0
  0
POINT
  8
DEFPOINTS
  6
CONTINUOUS
 62
    30
 10
65.0
 20
-6.2991109999999253
 30
0.0
 50
180.0
  0
POINT
  8
DEFPOINTS
  6
CONTINUOUS
 62
    30
 10
-65.0
 20
-6.2991109999999253
 30
0.0
 50
180.0
  0
POINT
  8
DEFPOINTS
  6
CONTINUOUS
 62
    30
 10
-65.0
 20
-198.1946618983857
 30
0.0
 50
180.0
  0
LINE
  8
SIZE
  6
CONTINUOUS
 62
    30
 10
98.5
 20
-26.299110999999929
 30
0.0
 11
98.5
 21
-348.44676725421448
 31
0.0
  0
LINE
  8
SIZE
  6
CONTINUOUS
 62
    30
 10
-98.5
 20
-26.299110999999929
 30
0.0
 11
-98.5
 21
-348.44676725421448
 31
0.0
  0
LINE
  8
SIZE
  6
CONTINUOUS
 62
    30
 10
86.5
 20
-328.44676725421448
 30
0.0
 11
-86.5
 21
-328.44676725421448
 31
0.0
  0
CIRCLE
  8
SIZE
  6
CONTINUOUS
 62
    30
 10
98.5
 20
-328.44676725421448
 30
0.0
 40
6.0
  0
LINE
  8
SIZE
  6
CONTINUOUS
 62
    30
 10
98.5
 20
-328.44676725421448
 30
0.0
 11
86.5
 21
-328.44676725421448
 31
0.0
  0
CIRCLE
  8
SIZE
  6
CONTINUOUS
 62
    30
 10
-98.5
 20
-328.44676725421448
 30
0.0
 40
6.0
  0
LINE
  8
SIZE
  6
CONTINUOUS
 62
    30
 10
-98.5
 20
-328.44676725421448
 30
0.0
 11
-86.5
 21
-328.44676725421448
 31
0.0
  0
TEXT
  8
SIZE
  6
CONTINUOUS
 62
    30
 10
-68.571428571428569
 20
-303.44676725421448
 30
0.0
 40
64.0
  1
197
 41
0.9
 72
     1
 11
0.0
 21
-303.44676725421448
 31
0.0
  0
POINT
  8
DEFPOINTS
  6
CONTINUOUS
 62
    30
 10
98.5
 20
-6.2991109999999253
 30
0.0
 50
180.0
  0
POINT
  8
DEFPOINTS
  6
CONTINUOUS
 62
    30
 10
-98.5
 20
-6.2991109999999253
 30
0.0
 50
180.0
  0
POINT
  8
DEFPOINTS
  6
CONTINUOUS
 62
    30
 10
-98.5
 20
-328.44676725421448
 30
0.0
 50
180.0
  0
LINE
  8
SIZE
  6
CONTINUOUS
 62
    30
 10
124.9724249999999
 20
-20.526167999999981
 30
0.0
 11
124.9724249999999
 21
-481.4796188480542
 31
0.0
  0
LINE
  8
SIZE
  6
CONTINUOUS
 62
    30
 10
-124.9724245000002
 20
-20.526167999999981
 30
0.0
 11
-124.9724245000002
 21
-481.4796188480542
 31
0.0
  0
LINE
  8
SIZE
  6
CONTINUOUS
 62
    30
 10
136.9724249999999
 20
-461.4796188480542
 30
0.0
 11
148.9724249999999
 21
-461.4796188480542
 31
0.0
  0
LINE
  8
SIZE
  6
CONTINUOUS
 62
    30
 10
-136.97242450000019
 20
-461.4796188480542
 30
0.0
 11
-148.97242450000019
 21
-461.4796188480542
 31
0.0
  0
LINE
  8
SIZE
  6
CONTINUOUS
 62
    30
 10
124.9724249999999
 20
-461.4796188480542
 30
0.0
 11
-124.9724245000002
 21
-461.4796188480542
 31
0.0
  0
CIRCLE
  8
SIZE
  6
CONTINUOUS
 62
    30
 10
124.9724249999999
 20
-461.4796188480542
 30
0.0
 40
6.0
  0
LINE
  8
SIZE
  6
CONTINUOUS
 62
    30
 10
124.9724249999999
 20
-461.4796188480542
 30
0.0
 11
136.9724249999999
 21
-461.4796188480542
 31
0.0
  0
CIRCLE
  8
SIZE
  6
CONTINUOUS
 62
    30
 10
-124.9724245000002
 20
-461.4796188480542
 30
0.0
 40
6.0
  0
LINE
  8
SIZE
  6
CONTINUOUS
 62
    30
 10
-124.9724245000002
 20
-461.4796188480542
 30
0.0
 11
-136.97242450000019
 21
-461.4796188480542
 31
0.0
  0
TEXT
  8
SIZE
  6
CONTINUOUS
 62
    30
 10
-110.537142607143
 20
-436.4796188480542
 30
0.0
 40
64.0
  1
□250
 41
0.9
 72
     1
 11
0.0000002499998573
 21
-436.4796188480542
 31
0.0
  0
POINT
  8
DEFPOINTS
  6
CONTINUOUS
 62
    30
 10
124.9724249999999
 20
-0.5261679999999842
 30
0.0
 50
180.0
  0
POINT
  8
DEFPOINTS
  6
CONTINUOUS
 62
    30
 10
-124.9724245000002
 20
-0.5261679999999842
 30
0.0
 50
180.0
  0
POINT
  8
DEFPOINTS
  6
CONTINUOUS
 62
    30
 10
-124.9724245000002
 20
-461.4796188480542
 30
0.0
 50
180.0
  0
LINE
  8
SIZE
  6
CONTINUOUS
 62
    30
 10
86.989865000000009
 20
20.0
 30
0.0
 11
86.989865000000009
 21
473.22518257001298
 31
0.0
  0
LINE
  8
SIZE
  6
CONTINUOUS
 62
    30
 10
-86.989560999999867
 20
20.0
 30
0.0
 11
-86.989560999999867
 21
473.22518257001298
 31
0.0
  0
LINE
  8
SIZE
  6
CONTINUOUS
 62
    30
 10
74.989865000000009
 20
453.22518257001298
 30
0.0
 11
-74.989560999999867
 21
453.22518257001298
 31
0.0
  0
LINE
  8
SIZE
  6
CONTINUOUS
 62
    30
 10
-86.989560999999867
 20
453.22518257001298
 30
0.0
 11
-354.1552752857142
 21
453.22518257001298
 31
0.0
  0
CIRCLE
  8
SIZE
  6
CONTINUOUS
 62
    30
 10
86.989865000000009
 20
453.22518257001298
 30
0.0
 40
6.0
  0
LINE
  8
SIZE
  6
CONTINUOUS
 62
    30
 10
86.989865000000009
 20
453.22518257001298
 30
0.0
 11
74.989865000000009
 21
453.22518257001298
 31
0.0
  0
CIRCLE
  8
SIZE
  6
CONTINUOUS
 62
    30
 10
-86.989560999999867
 20
453.22518257001298
 30
0.0
 40
6.0
  0
LINE
  8
SIZE
  6
CONTINUOUS
 62
    30
 10
-86.989560999999867
 20
453.22518257001298
 30
0.0
 11
-74.989560999999867
 21
453.22518257001298
 31
0.0
  0
TEXT
  8
SIZE
  6
CONTINUOUS
 62
    30
 10
-332.99527528571417
 20
478.22518257001298
 30
0.0
 40
64.0
  1
□174
 41
0.9
 72
     1
 11
-226.572418142857
 21
478.22518257001298
 31
0.0
  0
POINT
  8
DEFPOINTS
  6
CONTINUOUS
 62
    30
 10
86.989865000000009
 20
0.0
 30
0.0
 50
180.0
  0
POINT
  8
DEFPOINTS
  6
CONTINUOUS
 62
    30
 10
-86.989560999999867
 20
0.0
 30
0.0
 50
180.0
  0
POINT
  8
DEFPOINTS
  6
CONTINUOUS
 62
    30
 10
-86.989560999999867
 20
453.22518257001298
 30
0.0
 50
180.0
  0
LINE
  8
SIZE
  6
CONTINUOUS
 62
    30
 10
-72.849139500000092
 20
183.97792000000001
 30
0.0
 11
-471.46250830027992
 21
183.9779199999999
 31
0.0
  0
LINE
  8
SIZE
  6
CONTINUOUS
 62
    30
 10
-144.47310899999999
 20
0.0
 30
0.0
 11
-471.46250830027992
 21
-0.0000000000000568
 31
0.0
  0
LINE
  8
SIZE
  6
CONTINUOUS
 62
    30
 10
-342.65949121432823
 20
195.97792000000001
 30
0.0
 11
-342.65949121432823
 21
207.97792000000001
 31
0.0
  0
LINE
  8
SIZE
  6
CONTINUOUS
 62
    30
 10
-342.65949121432823
 20
-12.00000000000006
 30
0.0
 11
-342.65949121432823
 21
-24.00000000000006
 31
0.0
  0
LINE
  8
SIZE
  6
CONTINUOUS
 62
    30
 10
-342.65949121432823
 20
183.97792000000001
 30
0.0
 11
-342.65949121432823
 21
-0.0000000000000568
 31
0.0
  0
CIRCLE
  8
SIZE
  6
CONTINUOUS
 62
    30
 10
-342.65949121432823
 20
183.97792000000001
 30
0.0
 40
6.0
  0
LINE
  8
SIZE
  6
CONTINUOUS
 62
    30
 10
-342.65949121432823
 20
183.97792000000001
 30
0.0
 11
-342.65949121432823
 21
195.97792000000001
 31
0.0
  0
CIRCLE
  8
SIZE
  6
CONTINUOUS
 62
    30
 10
-342.65949121432823
 20
-0.0000000000000568
 30
0.0
 40
6.0
  0
LINE
  8
SIZE
  6
CONTINUOUS
 62
    30
 10
-342.65949121432823
 20
-0.0000000000000568
 30
0.0
 11
-342.65949121432823
 21
-12.00000000000006
 31
0.0
  0
TEXT
  8
SIZE
  6
CONTINUOUS
 62
    30
 10
-362.46250830027992
 20
22.046102857142898
 30
0.0
 40
64.0
  1
184
 50
90.000000000000014
 41
0.9
 72
     1
 11
-362.46250830027992
 21
91.98896000000002
 31
0.0
  0
POINT
  8
DEFPOINTS
  6
CONTINUOUS
 62
    30
 10
-52.849139500000092
 20
183.97792000000001
 30
0.0
 50
180.0
  0
POINT
  8
DEFPOINTS
  6
CONTINUOUS
 62
    30
 10
-124.47310899999999
 20
0.0
 30
0.0
 50
180.0
  0
POINT
  8
DEFPOINTS
  6
CONTINUOUS
 62
    30
 10
-342.65949121432823
 20
-0.0000000000000568
 30
0.0
 50
180.0
  0
LINE
  8
SIZE
  6
CONTINUOUS
 62
    30
 10
-143.6305250502601
 20
0.0
 30
0.0
 11
-471.46250830027992
 21
-0.0000000000000568
 31
0.0
  0
LINE
  8
SIZE
  6
CONTINUOUS
 62
    30
 10
-137.80668900000001
 20
-15.0
 30
0.0
 11
-471.46250830027992
 21
-15.00000000000006
 31
0.0
  0
LINE
  8
SIZE
  6
CONTINUOUS
 62
    30
 10
-342.65949121432823
 20
11.99999999999994
 30
0.0
 11
-342.65949121432823
 21
23.99999999999994
 31
0.0
  0
LINE
  8
SIZE
  6
CONTINUOUS
 62
    30
 10
-342.65949121432823
 20
-27.00000000000006
 30
0.0
 11
-342.65949121432823
 21
-171.28571428571431
 31
0.0
  0
LINE
  8
SIZE
  6
CONTINUOUS
 62
    30
 10
-342.65949121432823
 20
-0.0000000000000568
 30
0.0
 11
-342.65949121432823
 21
-15.00000000000006
 31
0.0
  0
CIRCLE
  8
SIZE
  6
CONTINUOUS
 62
    30
 10
-342.65949121432823
 20
-0.0000000000000568
 30
0.0
 40
6.0
  0
LINE
  8
SIZE
  6
CONTINUOUS
 62
    30
 10
-342.65949121432823
 20
-0.0000000000000568
 30
0.0
 11
-342.65949121432823
 21
11.99999999999994
 31
0.0
  0
CIRCLE
  8
SIZE
  6
CONTINUOUS
 62
    30
 10
-342.65949121432823
 20
-15.00000000000006
 30
0.0
 40
6.0
  0
LINE
  8
SIZE
  6
CONTINUOUS
 62
    30
 10
-342.65949121432823
 20
-15.00000000000006
 30
0.0
 11
-342.65949121432823
 21
-27.00000000000006
 31
0.0
  0
TEXT
  8
SIZE
  6
CONTINUOUS
 62
    30
 10
-362.46250830027992
 20
-146.28571428571419
 30
0.0
 40
64.0
  1
15
 50
90.000000000000014
 41
0.9
 72
     1
 11
-362.46250830027992
 21
-105.1428571428571
 31
0.0
  0
POINT
  8
DEFPOINTS
  6
CONTINUOUS
 62
    30
 10
-123.6305250502601
 20
0.0
 30
0.0
 50
180.0
  0
POINT
  8
DEFPOINTS
  6
CONTINUOUS
 62
    30
 10
-117.80668900000001
 20
-15.0
 30
0.0
 50
180.0
  0
POINT
  8
DEFPOINTS
  6
CONTINUOUS
 62
    30
 10
-342.65949121432823
 20
-15.00000000000006
 30
0.0
 50
180.0
  0
TEXT
  8
NOTE
  6
CONTINUOUS
 62
     4
 10
264.80447118478918
 20
79.515784916058578
 30
0.0
 40
64.0
  1
EA
 41
0.9
  0
LINE
  8
OUTLINE
  6
CONTINUOUS
 62
     3
 10
26.446824499999821
 20
138.98768200000009
 30
0.0
 11
58.684651499999752
 21
138.98768200000009
 31
0.0
  0
LINE
  8
OUTLINE
  6
CONTINUOUS
 62
     3
 10
75.222701499999857
 20
177.72866999999999
 30
0.0
 11
80.513647499999934
 21
177.72866999999999
 31
0.0
  0
LINE
  8
OUTLINE
  6
CONTINUOUS
 62
     3
 10
-86.989561500000036
 20
0.0
 30
0.0
 11
-124.47310950000021
 21
0.0
 31
0.0
  0
LINE
  8
OUTLINE
  6
CONTINUOUS
 62
     3
 10
124.47310950000001
 20
0.0
 30
0.0
 11
86.98986449999984
 21
0.0
 31
0.0
  0
LINE
  8
OUTLINE
  6
CONTINUOUS
 62
     3
 10
117.80668949999991
 20
-15.0
 30
0.0
 11
-117.8066895000002
 21
-15.0
 31
0.0
  0
LINE
  8
OUTLINE
  6
CONTINUOUS
 62
     3
 10
61.89257049999992
 20
160.48074
 30
0.0
 11
58.684651499999752
 21
138.98768200000009
 31
0.0
  0
LINE
  8
OUTLINE
  6
CONTINUOUS
 62
     3
 10
-83.977224500000148
 20
59.992799999999988
 30
0.0
 11
-81.472921500000211
 21
59.992799999999988
 31
0.0
  0
LINE
  8
OUTLINE
  6
CONTINUOUS
 62
     3
 10
54.973400500000032
 20
177.72866999999999
 30
0.0
 11
62.133612499999799
 21
177.72866999999999
 31
0.0
  0
ARC
  8
OUTLINE
  6
CONTINUOUS
 62
     3
 10
54.973400500000032
 20
176.8487749999999
 30
0.0
 40
0.8798940000000001
 50
90.0
 51
180.0
  0
LINE
  8
OUTLINE
  6
CONTINUOUS
 62
     3
 10
54.093506499999883
 20
170.72951
 30
0.0
 11
54.093506499999883
 21
176.8487749999999
 31
0.0
  0
LINE
  8
OUTLINE
  6
CONTINUOUS
 62
     3
 10
80.513647499999934
 20
177.72866999999999
 30
0.0
 11
80.513647499999934
 21
172.72927000000001
 31
0.0
  0
LINE
  8
OUTLINE
  6
CONTINUOUS
 62
     3
 10
54.106900499999938
 20
169.9796
 30
0.0
 11
54.106900499999938
 21
170.72951
 31
0.0
  0
LINE
  8
OUTLINE
  6
CONTINUOUS
 62
     3
 10
80.513647499999934
 20
172.70918000000009
 30
0.0
 11
82.012867499999857
 21
172.70918000000009
 31
0.0
  0
LINE
  8
OUTLINE
  6
CONTINUOUS
 62
     3
 10
82.510070499999983
 20
172.66557599999999
 30
0.0
 11
82.500229499999932
 21
172.66781900000001
 31
0.0
  0
LINE
  8
OUTLINE
  6
CONTINUOUS
 62
     3
 10
82.500229499999932
 20
172.66781900000001
 30
0.0
 11
82.483239499999854
 21
172.67092600000001
 31
0.0
  0
LINE
  8
OUTLINE
  6
CONTINUOUS
 62
     3
 10
82.483239499999854
 20
172.67092600000001
 30
0.0
 11
82.459155499999952
 21
172.67502400000001
 31
0.0
  0
LINE
  8
OUTLINE
  6
CONTINUOUS
 62
     3
 10
82.459155499999952
 20
172.67502400000001
 30
0.0
 11
82.428393499999856
 21
172.6797369999999
 31
0.0
  0
LINE
  8
OUTLINE
  6
CONTINUOUS
 62
     3
 10
82.428393499999856
 20
172.6797369999999
 30
0.0
 11
82.391726500000004
 21
172.68481800000001
 31
0.0
  0
LINE
  8
OUTLINE
  6
CONTINUOUS
 62
     3
 10
82.391726500000004
 20
172.68481800000001
 30
0.0
 11
82.34946049999985
 21
172.69000399999999
 31
0.0
  0
LINE
  8
OUTLINE
  6
CONTINUOUS
 62
     3
 10
82.34946049999985
 20
172.69000399999999
 30
0.0
 11
82.301985500000001
 21
172.69503399999999
 31
0.0
  0
LINE
  8
OUTLINE
  6
CONTINUOUS
 62
     3
 10
82.301985500000001
 20
172.69503399999999
 30
0.0
 11
82.24985149999975
 21
172.69964999999999
 31
0.0
  0
LINE
  8
OUTLINE
  6
CONTINUOUS
 62
     3
 10
82.24985149999975
 20
172.69964999999999
 30
0.0
 11
82.193311499999936
 21
172.70357000000001
 31
0.0
  0
LINE
  8
OUTLINE
  6
CONTINUOUS
 62
     3
 10
82.193311499999936
 20
172.70357000000001
 30
0.0
 11
82.133979499999896
 21
172.706605
 31
0.0
  0
LINE
  8
OUTLINE
  6
CONTINUOUS
 62
     3
 10
82.133979499999896
 20
172.706605
 30
0.0
 11
82.073601499999768
 21
172.708437
 31
0.0
  0
LINE
  8
OUTLINE
  6
CONTINUOUS
 62
     3
 10
82.073601499999768
 20
172.708437
 30
0.0
 11
82.012867499999857
 21
172.70917299999999
 31
0.0
  0
ARC
  8
OUTLINE
  6
CONTINUOUS
 62
     3
 10
82.009398499999861
 20
170.72951
 30
0.0
 40
1.99976
 50
1.0000000000017619
 51
75.016060999994608
  0
LINE
  8
OUTLINE
  6
CONTINUOUS
 62
     3
 10
61.89257049999992
 20
169.9796
 30
0.0
 11
54.106900499999938
 21
169.9796
 31
0.0
  0
ARC
  8
OUTLINE
  6
CONTINUOUS
 62
     3
 10
-30.945627500000231
 20
174.5
 30
0.0
 40
5.5
 50
90.0
 51
180.0
  0
ARC
  8
OUTLINE
  6
CONTINUOUS
 62
     3
 10
20.946824499999821
 20
174.5
 30
0.0
 40
5.5
 50
0.0
 51
90.0
  0
LINE
  8
OUTLINE
  6
CONTINUOUS
 62
     3
 10
20.946824499999821
 20
180.0
 30
0.0
 11
-30.945627500000231
 21
180.0
 31
0.0
  0
LINE
  8
OUTLINE
  6
CONTINUOUS
 62
     3
 10
-36.445627500000228
 20
174.5
 30
0.0
 11
-36.445627500000228
 21
138.98768200000009
 31
0.0
  0
LINE
  8
OUTLINE
  6
CONTINUOUS
 62
     3
 10
26.446824499999821
 20
174.5
 30
0.0
 11
26.446824499999821
 21
138.98768200000009
 31
0.0
  0
ARC
  8
OUTLINE
  6
CONTINUOUS
 62
     3
 10
-117.8066895000002
 20
-14.0
 30
0.0
 40
1.0
 50
226.49999999999119
 51
270.0
  0
LINE
  8
OUTLINE
  6
CONTINUOUS
 62
     3
 10
-124.2389345000001
 20
-9.274626000000012
 30
0.0
 11
-118.4950445000002
 21
-14.725374999999991
 31
0.0
  0
ARC
  8
OUTLINE
  6
CONTINUOUS
 62
     3
 10
-123.5505805
 20
-8.5492519999999104
 30
0.0
 40
1.0
 50
182.99999999999909
 51
226.49999999999119
  0
LINE
  8
OUTLINE
  6
CONTINUOUS
 62
     3
 10
-124.5492095
 20
-8.6015879999999925
 30
0.0
 11
-124.9724245000002
 21
-0.5261679999999842
 31
0.0
  0
ARC
  8
OUTLINE
  6
CONTINUOUS
 62
     3
 10
-124.47310950000021
 20
-0.5
 30
0.0
 40
0.5
 50
90.0
 51
182.99999999999909
  0
LINE
  8
OUTLINE
  6
CONTINUOUS
 62
     3
 10
-122.5001805000002
 20
0.0
 30
0.0
 11
-122.49311250000009
 21
0.0
 31
0.0
  0
ARC
  8
OUTLINE
  6
CONTINUOUS
 62
     3
 10
117.80668949999991
 20
-14.0
 30
0.0
 40
1.0
 50
270.0
 51
313.50000000000881
  0
LINE
  8
OUTLINE
  6
CONTINUOUS
 62
     3
 10
124.2389344999999
 20
-9.274626000000012
 30
0.0
 11
118.49504449999991
 21
-14.725374999999991
 31
0.0
  0
ARC
  8
OUTLINE
  6
CONTINUOUS
 62
     3
 10
123.5505804999998
 20
-8.5492519999999104
 30
0.0
 40
1.0
 50
313.50000000000881
 51
357.00000000000091
  0
LINE
  8
OUTLINE
  6
CONTINUOUS
 62
     3
 10
124.5492095
 20
-8.6015879999999925
 30
0.0
 11
124.9724244999998
 21
-0.5261679999999842
 31
0.0
  0
ARC
  8
OUTLINE
  6
CONTINUOUS
 62
     3
 10
124.47310950000001
 20
-0.5
 30
0.0
 40
0.5
 50
357.00000000000091
 51
90.0
  0
LINE
  8
OUTLINE
  6
CONTINUOUS
 62
     3
 10
-86.989561500000036
 20
0.0
 30
0.0
 11
-85.976680500000157
 21
58.027940000000058
 31
0.0
  0
ARC
  8
OUTLINE
  6
CONTINUOUS
 62
     3
 10
-83.977223500000036
 20
57.993039999999951
 30
0.0
 40
1.99976
 50
90.000038000001226
 51
179.00000099999559
  0
ARC
  8
OUTLINE
  6
CONTINUOUS
 62
     3
 10
-81.472921500000211
 20
60.99267999999995
 30
0.0
 40
0.99988
 50
270.0
 51
359.00000000000477
  0
LINE
  8
OUTLINE
  6
CONTINUOUS
 62
     3
 10
61.89257049999992
 20
169.9796
 30
0.0
 11
61.89257049999992
 21
160.48074
 31
0.0
  0
LINE
  8
OUTLINE
  6
CONTINUOUS
 62
     3
 10
63.696216499999991
 20
182.590104
 30
0.0
 11
62.133612499999799
 21
177.72866999999999
 31
0.0
  0
LINE
  8
OUTLINE
  6
CONTINUOUS
 62
     3
 10
74.428186499999811
 20
182.31920199999999
 30
0.0
 11
75.222701499999857
 21
177.72866999999999
 31
0.0
  0
LINE
  8
OUTLINE
  6
CONTINUOUS
 62
     3
 10
65.600045499999851
 20
183.97792000000001
 30
0.0
 11
72.457721499999934
 21
183.97792000000001
 31
0.0
  0
ARC
  8
OUTLINE
  6
CONTINUOUS
 62
     3
 10
65.600045499999851
 20
181.97816
 30
0.0
 40
1.99976
 50
90.0
 51
162.18111099999629
  0
ARC
  8
OUTLINE
  6
CONTINUOUS
 62
     3
 10
72.457721499999934
 20
181.97816
 30
0.0
 40
1.99976
 50
9.8193009999985428
 51
90.0
  0
LINE
  8
OUTLINE
  6
CONTINUOUS
 62
     3
 10
-42.123504500000081
 20
138.98768200000009
 30
0.0
 11
-36.445627500000228
 21
138.98768200000009
 31
0.0
  0
LINE
  8
OUTLINE
  6
CONTINUOUS
 62
     3
 10
-80.473193499999979
 20
60.975229000000013
 30
0.0
 11
-79.251040500000045
 21
130.99235100000001
 31
0.0
  0
LINE
  8
OUTLINE
  6
CONTINUOUS
 62
     3
 10
-55.006932499999948
 20
183.97792000000001
 30
0.0
 11
-50.691346500000243
 21
183.97792000000001
 31
0.0
  0
ARC
  8
OUTLINE
  6
CONTINUOUS
 62
     3
 10
-55.006932499999948
 20
183.47798
 30
0.0
 40
0.4999399999999999
 50
90.0
 51
155.56941600000411
  0
LINE
  8
OUTLINE
  6
CONTINUOUS
 62
     3
 10
-55.460943500000212
 20
183.68731700000001
 30
0.0
 11
-79.128617500000018
 21
131.58616200000009
 31
0.0
  0
LINE
  8
OUTLINE
  6
CONTINUOUS
 62
     3
 10
-48.962448500000157
 20
180.038488
 30
0.0
 11
-48.983718500000123
 21
180.2735230000001
 31
0.0
  0
LINE
  8
OUTLINE
  6
CONTINUOUS
 62
     3
 10
-48.983718500000123
 20
180.2735230000001
 30
0.0
 11
-49.020960500000001
 21
180.606301
 31
0.0
  0
LINE
  8
OUTLINE
  6
CONTINUOUS
 62
     3
 10
-49.020960500000001
 20
180.606301
 30
0.0
 11
-49.064725500000122
 21
180.92410199999989
 31
0.0
  0
LINE
  8
OUTLINE
  6
CONTINUOUS
 62
     3
 10
-49.064725500000122
 20
180.92410199999989
 30
0.0
 11
-49.114219500000218
 21
181.225911
 31
0.0
  0
LINE
  8
OUTLINE
  6
CONTINUOUS
 62
     3
 10
-49.114219500000218
 20
181.225911
 30
0.0
 11
-49.168665500000088
 21
181.51096400000009
 31
0.0
  0
LINE
  8
OUTLINE
  6
CONTINUOUS
 62
     3
 10
-49.168665500000088
 20
181.51096400000009
 30
0.0
 11
-49.227290499999981
 21
181.77864
 31
0.0
  0
LINE
  8
OUTLINE
  6
CONTINUOUS
 62
     3
 10
-49.227290499999981
 20
181.77864
 30
0.0
 11
-49.289369500000248
 21
182.02857200000011
 31
0.0
  0
LINE
  8
OUTLINE
  6
CONTINUOUS
 62
     3
 10
-49.289369500000248
 20
182.02857200000011
 30
0.0
 11
-49.35423650000007
 21
182.26066399999999
 31
0.0
  0
LINE
  8
OUTLINE
  6
CONTINUOUS
 62
     3
 10
-49.35423650000007
 20
182.26066399999999
 30
0.0
 11
-49.421282499999961
 21
182.47496100000001
 31
0.0
  0
LINE
  8
OUTLINE
  6
CONTINUOUS
 62
     3
 10
-49.421282499999961
 20
182.47496100000001
 30
0.0
 11
-49.490046500000062
 21
182.671922
 31
0.0
  0
LINE
  8
OUTLINE
  6
CONTINUOUS
 62
     3
 10
-49.490046500000062
 20
182.671922
 30
0.0
 11
-49.560132500000243
 21
182.85200900000009
 31
0.0
  0
LINE
  8
OUTLINE
  6
CONTINUOUS
 62
     3
 10
-49.560132500000243
 20
182.85200900000009
 30
0.0
 11
-49.631363500000127
 21
183.01610500000001
 31
0.0
  0
LINE
  8
OUTLINE
  6
CONTINUOUS
 62
     3
 10
-49.631363500000127
 20
183.01610500000001
 30
0.0
 11
-49.703634500000128
 21
183.16497699999999
 31
0.0
  0
LINE
  8
OUTLINE
  6
CONTINUOUS
 62
     3
 10
-49.703634500000128
 20
183.16497699999999
 30
0.0
 11
-49.777171500000122
 21
183.29979599999999
 31
0.0
  0
LINE
  8
OUTLINE
  6
CONTINUOUS
 62
     3
 10
-49.777171500000122
 20
183.29979599999999
 30
0.0
 11
-49.852281500000117
 21
183.42149300000011
 31
0.0
  0
LINE
  8
OUTLINE
  6
CONTINUOUS
 62
     3
 10
-49.852281500000117
 20
183.42149300000011
 30
0.0
 11
-49.929786500000091
 21
183.53134299999999
 31
0.0
  0
LINE
  8
OUTLINE
  6
CONTINUOUS
 62
     3
 10
-49.929786500000091
 20
183.53134299999999
 30
0.0
 11
-50.01071950000005
 21
183.6302870000001
 31
0.0
  0
LINE
  8
OUTLINE
  6
CONTINUOUS
 62
     3
 10
-50.01071950000005
 20
183.6302870000001
 30
0.0
 11
-50.096477500000219
 21
183.71895200000009
 31
0.0
  0
LINE
  8
OUTLINE
  6
CONTINUOUS
 62
     3
 10
-50.096477500000219
 20
183.71895200000009
 30
0.0
 11
-50.188930499999969
 21
183.79754399999999
 31
0.0
  0
LINE
  8
OUTLINE
  6
CONTINUOUS
 62
     3
 10
-50.188930499999969
 20
183.79754399999999
 30
0.0
 11
-50.289481500000193
 21
183.86496700000001
 31
0.0
  0
LINE
  8
OUTLINE
  6
CONTINUOUS
 62
     3
 10
-50.289481500000193
 20
183.86496700000001
 30
0.0
 11
-50.400414500000117
 21
183.919746
 31
0.0
  0
LINE
  8
OUTLINE
  6
CONTINUOUS
 62
     3
 10
-50.400414500000117
 20
183.919746
 30
0.0
 11
-50.519828500000131
 21
183.95791899999989
 31
0.0
  0
LINE
  8
OUTLINE
  6
CONTINUOUS
 62
     3
 10
-50.519828500000131
 20
183.95791899999989
 30
0.0
 11
-50.644634500000173
 21
183.97643400000001
 31
0.0
  0
LINE
  8
OUTLINE
  6
CONTINUOUS
 62
     3
 10
-50.644634500000173
 20
183.97643400000001
 30
0.0
 11
-50.689422500000092
 21
183.97791200000009
 31
0.0
  0
LINE
  8
OUTLINE
  6
CONTINUOUS
 62
     3
 10
-47.857081500000277
 20
167.52901199999999
 30
0.0
 11
-48.436634500000082
 21
173.85838799999999
 31
0.0
  0
LINE
  8
OUTLINE
  6
CONTINUOUS
 62
     3
 10
-48.436634500000082
 20
173.85838799999999
 30
0.0
 11
-48.962451500000043
 21
180.03849199999999
 31
0.0
  0
LINE
  8
OUTLINE
  6
CONTINUOUS
 62
     3
 10
-50.691353500000098
 20
183.97792000000001
 30
0.0
 11
-50.603756500000152
 21
183.96648200000001
 31
0.0
  0
LINE
  8
OUTLINE
  6
CONTINUOUS
 62
     3
 10
-79.128617500000018
 20
131.58616200000009
 30
0.0
 11
-79.251040500000045
 21
130.99235100000001
 31
0.0
  0
LINE
  8
OUTLINE
  6
CONTINUOUS
 62
     3
 10
-46.514494500000183
 20
154.30793299999999
 30
0.0
 11
-46.540086500000143
 21
154.55175399999999
 31
0.0
  0
LINE
  8
OUTLINE
  6
CONTINUOUS
 62
     3
 10
-47.833188500000233
 20
167.277377
 30
0.0
 11
-47.844589499999977
 21
167.401625
 31
0.0
  0
LINE
  8
OUTLINE
  6
CONTINUOUS
 62
     3
 10
-45.105103500000041
 20
141.655922
 30
0.0
 11
-46.567663499999981
 21
154.800252
 31
0.0
  0
LINE
  8
OUTLINE
  6
CONTINUOUS
 62
     3
 10
-46.567663499999981
 20
154.800252
 30
0.0
 11
-47.234119500000133
 21
161.176199
 31
0.0
  0
LINE
  8
OUTLINE
  6
CONTINUOUS
 62
     3
 10
-47.234119500000133
 20
161.176199
 30
0.0
 11
-47.857081500000277
 21
167.52901199999999
 31
0.0
  0
ARC
  8
OUTLINE
  6
CONTINUOUS
 62
     3
 10
-42.123504500000081
 20
141.98768200000009
 30
0.0
 40
3.0
 50
186.34914399999909
 51
270.0
  0
ARC
  8
DETAIL
  6
CONTINUOUS
 62
     5
 10
-42.123504500000081
 20
141.98768200000009
 30
0.0
 40
3.0
 50
186.34914399999909
 51
270.0
  0
LINE
  8
DETAIL
  6
CONTINUOUS
 62
     5
 10
-47.234119500000133
 20
161.17619900000011
 30
0.0
 11
-47.857081500000277
 21
167.52901200000019
 31
0.0
  0
LINE
  8
DETAIL
  6
CONTINUOUS
 62
     5
 10
-46.567663499999981
 20
154.800252
 30
0.0
 11
-47.234119500000133
 21
161.17619900000011
 31
0.0
  0
LINE
  8
DETAIL
  6
CONTINUOUS
 62
     5
 10
-45.105103500000041
 20
141.655922
 30
0.0
 11
-46.567663499999981
 21
154.800252
 31
0.0
  0
LINE
  8
DETAIL
  6
CONTINUOUS
 62
     5
 10
-47.833188500000233
 20
167.277377
 30
0.0
 11
-47.844589499999977
 21
167.40162500000019
 31
0.0
  0
LINE
  8
DETAIL
  6
CONTINUOUS
 62
     5
 10
-46.514494500000183
 20
154.30793299999999
 30
0.0
 11
-46.540086500000143
 21
154.55175399999999
 31
0.0
  0
LINE
  8
DETAIL
  6
CONTINUOUS
 62
     5
 10
-79.128617500000018
 20
131.5861619999998
 30
0.0
 11
-79.251040500000045
 21
130.99235100000001
 31
0.0
  0
LINE
  8
DETAIL
  6
CONTINUOUS
 62
     5
 10
-50.691353500000098
 20
183.97792000000001
 30
0.0
 11
-50.603756500000152
 21
183.9664819999999
 31
0.0
  0
LINE
  8
DETAIL
  6
CONTINUOUS
 62
     5
 10
-48.436634500000082
 20
173.85838799999999
 30
0.0
 11
-48.962451500000043
 21
180.03849199999999
 31
0.0
  0
LINE
  8
DETAIL
  6
CONTINUOUS
 62
     5
 10
-47.857081500000277
 20
167.52901200000019
 30
0.0
 11
-48.436634500000082
 21
173.85838799999999
 31
0.0
  0
LINE
  8
DETAIL
  6
CONTINUOUS
 62
     5
 10
-50.644634500000173
 20
183.97643400000001
 30
0.0
 11
-50.689422500000092
 21
183.9779119999998
 31
0.0
  0
LINE
  8
DETAIL
  6
CONTINUOUS
 62
     5
 10
-50.519828500000131
 20
183.95791900000009
 30
0.0
 11
-50.644634500000173
 21
183.97643400000001
 31
0.0
  0
LINE
  8
DETAIL
  6
CONTINUOUS
 62
     5
 10
-50.400414500000117
 20
183.919746
 30
0.0
 11
-50.519828500000131
 21
183.95791900000009
 31
0.0
  0
LINE
  8
DETAIL
  6
CONTINUOUS
 62
     5
 10
-50.289481500000193
 20
183.86496700000009
 30
0.0
 11
-50.400414500000117
 21
183.919746
 31
0.0
  0
LINE
  8
DETAIL
  6
CONTINUOUS
 62
     5
 10
-50.188930499999969
 20
183.79754399999999
 30
0.0
 11
-50.289481500000193
 21
183.86496700000009
 31
0.0
  0
LINE
  8
DETAIL
  6
CONTINUOUS
 62
     5
 10
-50.096477500000219
 20
183.71895200000009
 30
0.0
 11
-50.188930499999969
 21
183.79754399999999
 31
0.0
  0
LINE
  8
DETAIL
  6
CONTINUOUS
 62
     5
 10
-50.01071950000005
 20
183.6302870000001
 30
0.0
 11
-50.096477500000219
 21
183.71895200000009
 31
0.0
  0
LINE
  8
DETAIL
  6
CONTINUOUS
 62
     5
 10
-49.929786500000091
 20
183.53134299999999
 30
0.0
 11
-50.01071950000005
 21
183.6302870000001
 31
0.0
  0
LINE
  8
DETAIL
  6
CONTINUOUS
 62
     5
 10
-49.852281500000117
 20
183.42149300000011
 30
0.0
 11
-49.929786500000091
 21
183.53134299999999
 31
0.0
  0
LINE
  8
DETAIL
  6
CONTINUOUS
 62
     5
 10
-49.777171500000122
 20
183.29979599999999
 30
0.0
 11
-49.852281500000117
 21
183.42149300000011
 31
0.0
  0
LINE
  8
DETAIL
  6
CONTINUOUS
 62
     5
 10
-49.703634500000128
 20
183.16497699999999
 30
0.0
 11
-49.777171500000122
 21
183.29979599999999
 31
0.0
  0
LINE
  8
DETAIL
  6
CONTINUOUS
 62
     5
 10
-49.631363500000127
 20
183.01610500000001
 30
0.0
 11
-49.703634500000128
 21
183.16497699999999
 31
0.0
  0
LINE
  8
DETAIL
  6
CONTINUOUS
 62
     5
 10
-49.560132500000243
 20
182.85200900000009
 30
0.0
 11
-49.631363500000127
 21
183.01610500000001
 31
0.0
  0
LINE
  8
DETAIL
  6
CONTINUOUS
 62
     5
 10
-49.490046500000062
 20
182.67192200000011
 30
0.0
 11
-49.560132500000243
 21
182.85200900000009
 31
0.0
  0
LINE
  8
DETAIL
  6
CONTINUOUS
 62
     5
 10
-49.421282499999961
 20
182.47496100000001
 30
0.0
 11
-49.490046500000062
 21
182.67192200000011
 31
0.0
  0
LINE
  8
DETAIL
  6
CONTINUOUS
 62
     5
 10
-49.35423650000007
 20
182.26066399999999
 30
0.0
 11
-49.421282499999961
 21
182.47496100000001
 31
0.0
  0
LINE
  8
DETAIL
  6
CONTINUOUS
 62
     5
 10
-49.289369500000248
 20
182.02857200000011
 30
0.0
 11
-49.35423650000007
 21
182.26066399999999
 31
0.0
  0
LINE
  8
DETAIL
  6
CONTINUOUS
 62
     5
 10
-49.227290499999981
 20
181.77864
 30
0.0
 11
-49.289369500000248
 21
182.02857200000011
 31
0.0
  0
LINE
  8
DETAIL
  6
CONTINUOUS
 62
     5
 10
-49.168665500000088
 20
181.5109639999998
 30
0.0
 11
-49.227290499999981
 21
181.77864
 31
0.0
  0
LINE
  8
DETAIL
  6
CONTINUOUS
 62
     5
 10
-49.114219500000218
 20
181.225911
 30
0.0
 11
-49.168665500000088
 21
181.5109639999998
 31
0.0
  0
LINE
  8
DETAIL
  6
CONTINUOUS
 62
     5
 10
-49.064725500000122
 20
180.92410200000009
 30
0.0
 11
-49.114219500000218
 21
181.225911
 31
0.0
  0
LINE
  8
DETAIL
  6
CONTINUOUS
 62
     5
 10
-49.020960500000001
 20
180.606301
 30
0.0
 11
-49.064725500000122
 21
180.92410200000009
 31
0.0
  0
LINE
  8
DETAIL
  6
CONTINUOUS
 62
     5
 10
-48.983718500000123
 20
180.2735230000001
 30
0.0
 11
-49.020960500000001
 21
180.606301
 31
0.0
  0
LINE
  8
DETAIL
  6
CONTINUOUS
 62
     5
 10
-48.962448500000157
 20
180.038488
 30
0.0
 11
-48.983718500000123
 21
180.2735230000001
 31
0.0
  0
LINE
  8
DETAIL
  6
CONTINUOUS
 62
     5
 10
-55.460943500000212
 20
183.68731700000001
 30
0.0
 11
-79.128617500000018
 21
131.5861619999998
 31
0.0
  0
ARC
  8
DETAIL
  6
CONTINUOUS
 62
     5
 10
-55.006932499999948
 20
183.47798
 30
0.0
 40
0.4999399999999999
 50
90.0
 51
155.56941600000411
  0
LINE
  8
DETAIL
  6
CONTINUOUS
 62
     5
 10
-55.006932499999948
 20
183.97792000000001
 30
0.0
 11
-50.691346500000243
 21
183.97792000000001
 31
0.0
  0
LINE
  8
DETAIL
  6
CONTINUOUS
 62
     5
 10
-80.473193499999979
 20
60.975229000000013
 30
0.0
 11
-79.251040500000045
 21
130.99235100000001
 31
0.0
  0
LINE
  8
DETAIL
  6
CONTINUOUS
 62
     5
 10
-42.123504500000081
 20
138.98768200000009
 30
0.0
 11
58.684651499999752
 21
138.98768200000009
 31
0.0
  0
ARC
  8
DETAIL
  6
CONTINUOUS
 62
     5
 10
72.457721499999934
 20
181.97816
 30
0.0
 40
1.99976
 50
9.8193009999985428
 51
90.0
  0
ARC
  8
DETAIL
  6
CONTINUOUS
 62
     5
 10
65.600045499999851
 20
181.97816
 30
0.0
 40
1.99976
 50
90.0
 51
162.18111099999629
  0
LINE
  8
DETAIL
  6
CONTINUOUS
 62
     5
 10
65.600045499999851
 20
183.97792000000001
 30
0.0
 11
72.457721499999934
 21
183.97792000000001
 31
0.0
  0
LINE
  8
DETAIL
  6
CONTINUOUS
 62
     5
 10
74.428186499999811
 20
182.31920199999999
 30
0.0
 11
75.222701499999857
 21
177.72867000000011
 31
0.0
  0
LINE
  8
DETAIL
  6
CONTINUOUS
 62
     5
 10
63.696216499999991
 20
182.590104
 30
0.0
 11
62.133612499999799
 21
177.72867000000011
 31
0.0
  0
LINE
  8
DETAIL
  6
CONTINUOUS
 62
     5
 10
61.89257049999992
 20
169.9796
 30
0.0
 11
61.89257049999992
 21
160.4807400000002
 31
0.0
  0
ARC
  8
DETAIL
  6
CONTINUOUS
 62
     5
 10
-81.472921500000211
 20
60.99267999999995
 30
0.0
 40
0.99988
 50
270.0
 51
359.00000000000477
  0
ARC
  8
DETAIL
  6
CONTINUOUS
 62
     5
 10
-83.977223500000036
 20
57.993039999999951
 30
0.0
 40
1.99976
 50
90.000038000001226
 51
179.00000099999559
  0
LINE
  8
DETAIL
  6
CONTINUOUS
 62
     5
 10
-86.989561500000036
 20
0.0
 30
0.0
 11
-85.976680500000157
 21
58.027940000000058
 31
0.0
  0
ARC
  8
DETAIL
  6
CONTINUOUS
 62
     5
 10
124.47310950000001
 20
-0.5
 30
0.0
 40
0.5
 50
357.00000000000091
 51
90.0
  0
LINE
  8
DETAIL
  6
CONTINUOUS
 62
     5
 10
124.5492095
 20
-8.6015879999999925
 30
0.0
 11
124.9724244999998
 21
-0.5261679999999842
 31
0.0
  0
ARC
  8
DETAIL
  6
CONTINUOUS
 62
     5
 10
123.5505804999998
 20
-8.5492520000000241
 30
0.0
 40
1.0
 50
313.50000000000881
 51
357.00000000000091
  0
LINE
  8
DETAIL
  6
CONTINUOUS
 62
     5
 10
124.2389344999999
 20
-9.274626000000012
 30
0.0
 11
118.49504449999991
 21
-14.725374999999991
 31
0.0
  0
ARC
  8
DETAIL
  6
CONTINUOUS
 62
     5
 10
117.80668949999991
 20
-14.0
 30
0.0
 40
1.0
 50
270.0
 51
313.50000000000881
  0
LINE
  8
DETAIL
  6
CONTINUOUS
 62
     5
 10
-122.5001805000002
 20
0.0
 30
0.0
 11
-122.49311250000009
 21
0.0
 31
0.0
  0
ARC
  8
DETAIL
  6
CONTINUOUS
 62
     5
 10
-124.47310950000021
 20
-0.5
 30
0.0
 40
0.5
 50
90.0
 51
182.99999999999909
  0
LINE
  8
DETAIL
  6
CONTINUOUS
 62
     5
 10
-124.5492095
 20
-8.6015879999999925
 30
0.0
 11
-124.9724245000002
 21
-0.5261679999999842
 31
0.0
  0
ARC
  8
DETAIL
  6
CONTINUOUS
 62
     5
 10
-123.5505805
 20
-8.5492520000000241
 30
0.0
 40
1.0
 50
182.99999999999909
 51
226.49999999999119
  0
LINE
  8
DETAIL
  6
CONTINUOUS
 62
     5
 10
-124.2389345000001
 20
-9.274626000000012
 30
0.0
 11
-118.4950445000002
 21
-14.725374999999991
 31
0.0
  0
ARC
  8
DETAIL
  6
CONTINUOUS
 62
     5
 10
-117.8066895000002
 20
-14.0
 30
0.0
 40
1.0
 50
226.49999999999119
 51
270.0
  0
LINE
  8
DETAIL
  6
CONTINUOUS
 62
     5
 10
26.446824499999821
 20
174.5
 30
0.0
 11
26.446824499999821
 21
138.98768200000009
 31
0.0
  0
LINE
  8
DETAIL
  6
CONTINUOUS
 62
     5
 10
-36.445627500000228
 20
174.5
 30
0.0
 11
-36.445627500000228
 21
138.98768200000009
 31
0.0
  0
LINE
  8
DETAIL
  6
CONTINUOUS
 62
     5
 10
20.946824499999821
 20
180.0
 30
0.0
 11
-30.945627500000231
 21
180.0
 31
0.0
  0
ARC
  8
DETAIL
  6
CONTINUOUS
 62
     5
 10
20.946824499999821
 20
174.5
 30
0.0
 40
5.5
 50
0.0
 51
90.0
  0
ARC
  8
DETAIL
  6
CONTINUOUS
 62
     5
 10
-30.945627500000231
 20
174.5
 30
0.0
 40
5.5
 50
90.0
 51
180.0
  0
LINE
  8
DETAIL
  6
CONTINUOUS
 62
     5
 10
73.731479499999978
 20
169.97763100000009
 30
0.0
 11
73.772587499999872
 21
169.97610900000009
 31
0.0
  0
LINE
  8
DETAIL
  6
CONTINUOUS
 62
     5
 10
73.690199499999835
 20
169.9787200000001
 30
0.0
 11
73.731479499999978
 21
169.97763100000009
 31
0.0
  0
LINE
  8
DETAIL
  6
CONTINUOUS
 62
     5
 10
73.648749499999894
 20
169.97937600000009
 30
0.0
 11
73.690199499999835
 21
169.9787200000001
 31
0.0
  0
LINE
  8
DETAIL
  6
CONTINUOUS
 62
     5
 10
73.607128499999817
 20
169.9796
 30
0.0
 11
73.648749499999894
 21
169.97937600000009
 31
0.0
  0
LINE
  8
DETAIL
  6
CONTINUOUS
 62
     5
 10
73.607128499999817
 20
169.9796
 30
0.0
 11
54.106900499999938
 21
169.9796
 31
0.0
  0
LINE
  8
DETAIL
  6
CONTINUOUS
 62
     5
 10
55.345231499999947
 20
172.72927000000001
 30
0.0
 11
75.516384499999958
 21
172.72927000000001
 31
0.0
  0
ARC
  8
DETAIL
  6
CONTINUOUS
 62
     5
 10
74.741711499999838
 20
171.72939000000019
 30
0.0
 40
0.99988
 50
90.0
 51
135.6134830000058
  0
ARC
  8
DETAIL
  6
CONTINUOUS
 62
     5
 10
82.009398499999861
 20
170.72951
 30
0.0
 40
1.99976
 50
1.0000000000017619
 51
75.016060999994608
  0
ARC
  8
DETAIL
  6
CONTINUOUS
 62
     5
 10
55.093386499999951
 20
171.72939000000019
 30
0.0
 40
0.99988
 50
132.4971630000054
 51
180.0
  0
LINE
  8
DETAIL
  6
CONTINUOUS
 62
     5
 10
82.073601499999768
 20
172.708437
 30
0.0
 11
82.012867499999857
 21
172.70917300000011
 31
0.0
  0
LINE
  8
DETAIL
  6
CONTINUOUS
 62
     5
 10
82.133979499999896
 20
172.706605
 30
0.0
 11
82.073601499999768
 21
172.708437
 31
0.0
  0
LINE
  8
DETAIL
  6
CONTINUOUS
 62
     5
 10
82.193311499999936
 20
172.70357000000001
 30
0.0
 11
82.133979499999896
 21
172.706605
 31
0.0
  0
LINE
  8
DETAIL
  6
CONTINUOUS
 62
     5
 10
82.24985149999975
 20
172.69964999999999
 30
0.0
 11
82.193311499999936
 21
172.70357000000001
 31
0.0
  0
LINE
  8
DETAIL
  6
CONTINUOUS
 62
     5
 10
82.301985500000001
 20
172.69503399999999
 30
0.0
 11
82.24985149999975
 21
172.69964999999999
 31
0.0
  0
LINE
  8
DETAIL
  6
CONTINUOUS
 62
     5
 10
82.34946049999985
 20
172.69000399999999
 30
0.0
 11
82.301985500000001
 21
172.69503399999999
 31
0.0
  0
LINE
  8
DETAIL
  6
CONTINUOUS
 62
     5
 10
82.391726500000004
 20
172.68481800000009
 30
0.0
 11
82.34946049999985
 21
172.69000399999999
 31
0.0
  0
LINE
  8
DETAIL
  6
CONTINUOUS
 62
     5
 10
82.428393499999856
 20
172.6797369999999
 30
0.0
 11
82.391726500000004
 21
172.68481800000009
 31
0.0
  0
LINE
  8
DETAIL
  6
CONTINUOUS
 62
     5
 10
82.459155499999952
 20
172.67502400000001
 30
0.0
 11
82.428393499999856
 21
172.6797369999999
 31
0.0
  0
LINE
  8
DETAIL
  6
CONTINUOUS
 62
     5
 10
82.483239499999854
 20
172.67092600000001
 30
0.0
 11
82.459155499999952
 21
172.67502400000001
 31
0.0
  0
LINE
  8
DETAIL
  6
CONTINUOUS
 62
     5
 10
82.500229499999932
 20
172.66781900000001
 30
0.0
 11
82.483239499999854
 21
172.67092600000001
 31
0.0
  0
LINE
  8
DETAIL
  6
CONTINUOUS
 62
     5
 10
82.510070499999983
 20
172.66557599999999
 30
0.0
 11
82.500229499999932
 21
172.66781900000001
 31
0.0
  0
LINE
  8
DETAIL
  6
CONTINUOUS
 62
     5
 10
75.526286499999969
 20
172.72887399999999
 30
0.0
 11
75.516384499999958
 21
172.72927000000001
 31
0.0
  0
LINE
  8
DETAIL
  6
CONTINUOUS
 62
     5
 10
75.543422499999906
 20
172.72788399999999
 30
0.0
 11
75.526286499999969
 21
172.72887399999999
 31
0.0
  0
LINE
  8
DETAIL
  6
CONTINUOUS
 62
     5
 10
75.635786499999995
 20
172.72168900000011
 30
0.0
 11
75.543422499999906
 21
172.72788399999999
 31
0.0
  0
LINE
  8
DETAIL
  6
CONTINUOUS
 62
     5
 10
75.678209499999866
 20
172.71911299999999
 30
0.0
 11
75.635786499999995
 21
172.72168900000011
 31
0.0
  0
LINE
  8
DETAIL
  6
CONTINUOUS
 62
     5
 10
75.725690499999928
 20
172.71654599999999
 30
0.0
 11
75.678209499999866
 21
172.71911299999999
 31
0.0
  0
LINE
  8
DETAIL
  6
CONTINUOUS
 62
     5
 10
75.7777044999998
 20
172.714147
 30
0.0
 11
75.725690499999928
 21
172.71654599999999
 31
0.0
  0
LINE
  8
DETAIL
  6
CONTINUOUS
 62
     5
 10
75.834046499999886
 20
172.71208799999999
 30
0.0
 11
75.7777044999998
 21
172.714147
 31
0.0
  0
LINE
  8
DETAIL
  6
CONTINUOUS
 62
     5
 10
75.893109499999809
 20
172.71048600000009
 30
0.0
 11
75.834046499999886
 21
172.71208799999999
 31
0.0
  0
LINE
  8
DETAIL
  6
CONTINUOUS
 62
     5
 10
75.953184499999907
 20
172.70953999999981
 30
0.0
 11
75.893109499999809
 21
172.71048600000009
 31
0.0
  0
LINE
  8
DETAIL
  6
CONTINUOUS
 62
     5
 10
76.013587499999858
 20
172.70918300000019
 30
0.0
 11
75.953184499999907
 21
172.70953999999981
 31
0.0
  0
LINE
  8
DETAIL
  6
CONTINUOUS
 62
     5
 10
76.013587499999858
 20
172.70918300000019
 30
0.0
 11
82.012867499999857
 21
172.7091799999998
 31
0.0
  0
LINE
  8
DETAIL
  6
CONTINUOUS
 62
     5
 10
73.742020499999853
 20
171.70983699999999
 30
0.0
 11
73.741870500000005
 21
171.72939000000019
 31
0.0
  0
LINE
  8
DETAIL
  6
CONTINUOUS
 62
     5
 10
84.00885449999987
 20
170.76441
 30
0.0
 11
86.98986449999984
 21
0.0
 31
0.0
  0
LINE
  8
DETAIL
  6
CONTINUOUS
 62
     5
 10
74.018260499999997
 20
172.41960800000001
 30
0.0
 11
74.027159499999925
 21
172.42880199999999
 31
0.0
  0
LINE
  8
DETAIL
  6
CONTINUOUS
 62
     5
 10
73.973566499999833
 20
172.36941300000001
 30
0.0
 11
74.018260499999997
 21
172.41960800000001
 31
0.0
  0
LINE
  8
DETAIL
  6
CONTINUOUS
 62
     5
 10
73.929913499999884
 20
172.3129329999999
 30
0.0
 11
73.973566499999833
 21
172.36941300000001
 31
0.0
  0
LINE
  8
DETAIL
  6
CONTINUOUS
 62
     5
 10
73.888170499999887
 20
172.249729
 30
0.0
 11
73.929913499999884
 21
172.3129329999999
 31
0.0
  0
LINE
  8
DETAIL
  6
CONTINUOUS
 62
     5
 10
73.849155499999824
 20
172.1793230000001
 30
0.0
 11
73.888170499999887
 21
172.249729
 31
0.0
  0
LINE
  8
DETAIL
  6
CONTINUOUS
 62
     5
 10
73.814201499999854
 20
172.1017419999998
 30
0.0
 11
73.849155499999824
 21
172.1793230000001
 31
0.0
  0
LINE
  8
DETAIL
  6
CONTINUOUS
 62
     5
 10
73.784501499999806
 20
172.016806
 30
0.0
 11
73.814201499999854
 21
172.1017419999998
 31
0.0
  0
LINE
  8
DETAIL
  6
CONTINUOUS
 62
     5
 10
73.761660499999834
 20
171.92564300000001
 30
0.0
 11
73.784501499999806
 21
172.016806
 31
0.0
  0
LINE
  8
DETAIL
  6
CONTINUOUS
 62
     5
 10
73.747306499999922
 20
171.8296790000002
 30
0.0
 11
73.761660499999834
 21
171.92564300000001
 31
0.0
  0
LINE
  8
DETAIL
  6
CONTINUOUS
 62
     5
 10
73.741870500000005
 20
171.72939000000019
 30
0.0
 11
73.747306499999922
 21
171.8296790000002
 31
0.0
  0
LINE
  8
DETAIL
  6
CONTINUOUS
 62
     5
 10
54.106900499999938
 20
169.9796
 30
0.0
 11
54.106900499999938
 21
170.72951
 31
0.0
  0
LINE
  8
DETAIL
  6
CONTINUOUS
 62
     5
 10
55.147123499999907
 20
172.7164819999999
 30
0.0
 11
55.273046499999957
 21
172.7246100000001
 31
0.0
  0
LINE
  8
DETAIL
  6
CONTINUOUS
 62
     5
 10
55.028536499999973
 20
172.70410899999999
 30
0.0
 11
55.147123499999907
 21
172.7164819999999
 31
0.0
  0
LINE
  8
DETAIL
  6
CONTINUOUS
 62
     5
 10
54.91751649999992
 20
172.68688
 30
0.0
 11
55.028536499999973
 21
172.70410899999999
 31
0.0
  0
LINE
  8
DETAIL
  6
CONTINUOUS
 62
     5
 10
54.81416349999995
 20
172.664299
 30
0.0
 11
54.91751649999992
 21
172.68688
 31
0.0
  0
LINE
  8
DETAIL
  6
CONTINUOUS
 62
     5
 10
54.718668499999922
 20
172.63622000000001
 30
0.0
 11
54.81416349999995
 21
172.664299
 31
0.0
  0
LINE
  8
DETAIL
  6
CONTINUOUS
 62
     5
 10
54.630851499999842
 20
172.60226800000001
 30
0.0
 11
54.718668499999922
 21
172.63622000000001
 31
0.0
  0
LINE
  8
DETAIL
  6
CONTINUOUS
 62
     5
 10
54.551361499999977
 20
172.56264400000001
 30
0.0
 11
54.630851499999842
 21
172.60226800000001
 31
0.0
  0
LINE
  8
DETAIL
  6
CONTINUOUS
 62
     5
 10
54.480616499999996
 20
172.51743500000009
 30
0.0
 11
54.551361499999977
 21
172.56264400000001
 31
0.0
  0
LINE
  8
DETAIL
  6
CONTINUOUS
 62
     5
 10
54.417913499999941
 20
172.4666120000002
 30
0.0
 11
54.480616499999996
 21
172.51743500000009
 31
0.0
  0
LINE
  8
DETAIL
  6
CONTINUOUS
 62
     5
 10
80.513647499999934
 20
177.72867000000011
 30
0.0
 11
80.513647499999934
 21
172.72927000000001
 31
0.0
  0
LINE
  8
DETAIL
  6
CONTINUOUS
 62
     5
 10
54.093506499999883
 20
170.72951
 30
0.0
 11
54.093506499999883
 21
176.8487749999999
 31
0.0
  0
ARC
  8
DETAIL
  6
CONTINUOUS
 62
     5
 10
54.973400500000032
 20
176.8487749999999
 30
0.0
 40
0.8798940000000001
 50
90.0
 51
180.0
  0
LINE
  8
DETAIL
  6
CONTINUOUS
 62
     5
 10
54.973400500000032
 20
177.72867000000011
 30
0.0
 11
80.513647499999934
 21
177.72867000000011
 31
0.0
  0
LINE
  8
DETAIL
  6
CONTINUOUS
 62
     5
 10
-83.977224500000148
 20
59.992799999999988
 30
0.0
 11
-81.472921500000211
 21
59.992799999999988
 31
0.0
  0
LINE
  8
DETAIL
  6
CONTINUOUS
 62
     5
 10
61.89257049999992
 20
160.4807400000002
 30
0.0
 11
58.684651499999752
 21
138.98768200000009
 31
0.0
  0
LINE
  8
DETAIL
  6
CONTINUOUS
 62
     5
 10
124.2389344999999
 20
-9.274626000000012
 30
0.0
 11
-124.2389345000001
 21
-9.274626000000012
 31
0.0
  0
LINE
  8
DETAIL
  6
CONTINUOUS
 62
     5
 10
117.80668949999991
 20
-15.0
 30
0.0
 11
-117.8066895000002
 21
-15.0
 31
0.0
  0
LINE
  8
DETAIL
  6
CONTINUOUS
 62
     5
 10
124.47310950000001
 20
0.0
 30
0.0
 11
-124.47310950000021
 21
0.0
 31
0.0
  0
LINE
  8
DETAIL
  6
CONTINUOUS
 62
     5
 10
73.742020499999853
 20
171.70983699999999
 30
0.0
 11
76.73922749999997
 21
0.0
 31
0.0
  0
LINE
  8
DETAIL
  6
CONTINUOUS
 62
     5
 10
127.0310034999998
 20
60.393175000000042
 30
0.0
 11
127.0310034999998
 21
166.41249300000001
 31
0.0
  0
LINE
  8
DETAIL
  6
CONTINUOUS
 62
     5
 10
172.02900849999989
 20
60.742231999999937
 30
0.0
 11
172.02900849999989
 21
159.4249980000001
 31
0.0
  0
LINE
  8
DETAIL
  6
CONTINUOUS
 62
     5
 10
165.32393149999979
 20
165.77557899999999
 30
0.0
 11
172.02900849999989
 21
60.742231999999937
 31
0.0
  0
LINE
  8
DETAIL
  6
CONTINUOUS
 62
     5
 10
164.56069649999969
 20
165.9374340000002
 30
0.0
 11
84.075333499999942
 21
166.95623599999999
 31
0.0
  0
ARC
  8
DETAIL
  6
CONTINUOUS
 62
     5
 10
164.53538149999989
 20
163.93759399999999
 30
0.0
 40
2.0
 50
45.000000000009223
 51
89.274776000004735
  0
LINE
  8
DETAIL
  6
CONTINUOUS
 62
     5
 10
171.49445750000001
 20
159.80694600000001
 30
0.0
 11
165.94959549999999
 21
165.35180800000001
 31
0.0
  0
ARC
  8
DETAIL
  6
CONTINUOUS
 62
     5
 10
172.9086705
 20
161.2211590000002
 30
0.0
 40
2.0
 50
225.00000000000921
 51
269.49999999999551
  0
LINE
  8
DETAIL
  6
CONTINUOUS
 62
     5
 10
197.0310035
 20
159.010571
 30
0.0
 11
172.89121750000001
 21
159.221236
 31
0.0
  0
LINE
  8
DETAIL
  6
CONTINUOUS
 62
     5
 10
197.0310035
 20
61.004054999999987
 30
0.0
 11
197.0310035
 21
159.010571
 31
0.0
  0
LINE
  8
DETAIL
  6
CONTINUOUS
 62
     5
 10
197.0310035
 20
61.004054999999987
 30
0.0
 11
85.963945499999909
 21
60.034788000000049
 31
0.0
  0
LINE
  8
OUTLINE
  6
CONTINUOUS
 62
     3
 10
85.941849499999989
 20
60.034594999999968
 30
0.0
 11
86.98986449999984
 21
0.0
 31
0.0
  0
LINE
  8
OUTLINE
  6
CONTINUOUS
 62
     3
 10
84.00885449999987
 20
170.76441
 30
0.0
 11
84.075333499999942
 21
166.95623599999999
 31
0.0
  0
LINE
  8
OUTLINE
  6
CONTINUOUS
 62
     3
 10
127.0310034999998
 20
60.393175000000042
 30
0.0
 11
127.0310034999998
 21
166.41249300000001
 31
0.0
  0
LINE
  8
OUTLINE
  6
CONTINUOUS
 62
     3
 10
172.02900849999989
 20
60.742231999999937
 30
0.0
 11
172.02900849999989
 21
159.42499799999999
 31
0.0
  0
LINE
  8
OUTLINE
  6
CONTINUOUS
 62
     3
 10
165.32393149999979
 20
165.77557899999999
 30
0.0
 11
172.02900849999989
 21
60.742231999999937
 31
0.0
  0
LINE
  8
OUTLINE
  6
CONTINUOUS
 62
     3
 10
164.56069649999969
 20
165.9374340000002
 30
0.0
 11
84.075333499999942
 21
166.95623599999999
 31
0.0
  0
ARC
  8
OUTLINE
  6
CONTINUOUS
 62
     3
 10
164.53538149999989
 20
163.93759399999999
 30
0.0
 40
2.0
 50
45.000000000009223
 51
89.274776000004735
  0
LINE
  8
OUTLINE
  6
CONTINUOUS
 62
     3
 10
171.49445750000001
 20
159.80694600000001
 30
0.0
 11
165.94959549999999
 21
165.35180800000001
 31
0.0
  0
ARC
  8
OUTLINE
  6
CONTINUOUS
 62
     3
 10
172.9086705
 20
161.2211590000002
 30
0.0
 40
2.0
 50
225.00000000000921
 51
269.49999999999551
  0
LINE
  8
OUTLINE
  6
CONTINUOUS
 62
     3
 10
197.0310035
 20
159.010571
 30
0.0
 11
172.89121750000001
 21
159.221236
 31
0.0
  0
LINE
  8
OUTLINE
  6
CONTINUOUS
 62
     3
 10
197.0310035
 20
61.004054999999987
 30
0.0
 11
197.0310035
 21
159.010571
 31
0.0
  0
LINE
  8
OUTLINE
  6
CONTINUOUS
 62
     3
 10
197.0310035
 20
61.004054999999987
 30
0.0
 11
85.941849499999989
 21
60.034594999999968
 31
0.0
  0
LINE
  8
SIZE
  6
CONTINUOUS
 62
    30
 10
144.47310949999999
 20
0.0
 30
0.0
 11
429.77645884489539
 21
0.0000000000000568
 31
0.0
  0
LINE
  8
SIZE
  6
CONTINUOUS
 62
    30
 10
105.9418491200324
 20
60.034594996684064
 30
0.0
 11
429.77645884489539
 21
60.034594996684064
 31
0.0
  0
LINE
  8
SIZE
  6
CONTINUOUS
 62
    30
 10
409.77645884489539
 20
72.034594996684064
 30
0.0
 11
409.77645884489539
 21
84.034594996684064
 31
0.0
  0
LINE
  8
SIZE
  6
CONTINUOUS
 62
    30
 10
409.77645884489539
 20
-12.0
 30
0.0
 11
409.77645884489539
 21
-167.25714285714281
 31
0.0
  0
LINE
  8
SIZE
  6
CONTINUOUS
 62
    30
 10
409.77645884489539
 20
60.034594996684064
 30
0.0
 11
409.77645884489539
 21
0.0
 31
0.0
  0
CIRCLE
  8
SIZE
  6
CONTINUOUS
 62
    30
 10
409.77645884489539
 20
60.034594996684064
 30
0.0
 40
6.0
  0
LINE
  8
SIZE
  6
CONTINUOUS
 62
    30
 10
409.77645884489539
 20
60.034594996684064
 30
0.0
 11
409.77645884489539
 21
72.034594996684064
 31
0.0
  0
CIRCLE
  8
SIZE
  6
CONTINUOUS
 62
    30
 10
409.77645884489539
 20
0.0
 30
0.0
 40
6.0
  0
LINE
  8
SIZE
  6
CONTINUOUS
 62
    30
 10
409.77645884489539
 20
0.0
 30
0.0
 11
409.77645884489539
 21
-12.0
 31
0.0
  0
TEXT
  8
SIZE
  6
CONTINUOUS
 62
    30
 10
376.84503658762333
 20
-142.2571428571429
 30
0.0
 40
64.0
  1
60
 50
90.000000000000014
 41
0.9
 72
     1
 11
376.84503658762333
 21
-95.628571428571433
 31
0.0
  0
POINT
  8
DEFPOINTS
  6
CONTINUOUS
 62
    30
 10
124.47310950000001
 20
0.0
 30
0.0
 50
180.0
  0
POINT
  8
DEFPOINTS
  6
CONTINUOUS
 62
    30
 10
85.94184912003243
 20
60.034594996684064
 30
0.0
 50
180.0
  0
POINT
  8
DEFPOINTS
  6
CONTINUOUS
 62
    30
 10
409.77645884489539
 20
60.034594996684064
 30
0.0
 50
180.0
  0
LINE
  8
SIZE
  6
CONTINUOUS
 62
    30
 10
267.6149774999999
 20
110.007313
 30
0.0
 11
544.5436002533379
 21
110.007313
 31
0.0
  0
LINE
  8
SIZE
  6
CONTINUOUS
 62
    30
 10
144.47310949999999
 20
0.0
 30
0.0
 11
544.5436002533379
 21
0.0000000000000568
 31
0.0
  0
LINE
  8
SIZE
  6
CONTINUOUS
 62
    30
 10
524.5436002533379
 20
98.007312999999954
 30
0.0
 11
524.5436002533379
 21
12.00000000000006
 31
0.0
  0
LINE
  8
SIZE
  6
CONTINUOUS
 62
    30
 10
524.5436002533379
 20
0.0000000000000568
 30
0.0
 11
524.54360025333813
 21
-188.17142857142849
 31
0.0
  0
CIRCLE
  8
SIZE
  6
CONTINUOUS
 62
    30
 10
524.5436002533379
 20
110.007313
 30
0.0
 40
6.0
  0
LINE
  8
SIZE
  6
CONTINUOUS
 62
    30
 10
524.5436002533379
 20
110.007313
 30
0.0
 11
524.5436002533379
 21
98.007312999999954
 31
0.0
  0
CIRCLE
  8
SIZE
  6
CONTINUOUS
 62
    30
 10
524.5436002533379
 20
0.0000000000000568
 30
0.0
 40
6.0
  0
LINE
  8
SIZE
  6
CONTINUOUS
 62
    30
 10
524.5436002533379
 20
0.0000000000000568
 30
0.0
 11
524.5436002533379
 21
12.00000000000006
 31
0.0
  0
TEXT
  8
SIZE
  6
CONTINUOUS
 62
    30
 10
491.61217799606578
 20
-163.17142857142861
 30
0.0
 40
64.0
  1
110
 50
90.000000000000014
 41
0.9
 72
     1
 11
491.61217799606578
 21
-100.0857142857143
 31
0.0
  0
POINT
  8
DEFPOINTS
  6
CONTINUOUS
 62
    30
 10
247.6149774999999
 20
110.007313
 30
0.0
 50
180.0
  0
POINT
  8
DEFPOINTS
  6
CONTINUOUS
 62
    30
 10
124.47310950000001
 20
0.0
 30
0.0
 50
180.0
  0
POINT
  8
DEFPOINTS
  6
CONTINUOUS
 62
    30
 10
524.5436002533379
 20
0.0000000000000568
 30
0.0
 50
180.0
  0
LINE
  8
SIZE
  6
CONTINUOUS
 62
    30
 10
197.0310035
 20
179.010571
 30
0.0
 11
197.0310035
 21
245.79670783213439
 31
0.0
  0
LINE
  8
SIZE
  6
CONTINUOUS
 62
    30
 10
172.02900849999989
 20
179.42499799999999
 30
0.0
 11
172.02900849999989
 21
245.79670783213439
 31
0.0
  0
LINE
  8
SIZE
  6
CONTINUOUS
 62
    30
 10
160.02900849999989
 20
225.79670783213439
 30
0.0
 11
148.02900849999989
 21
225.79670783213439
 31
0.0
  0
LINE
  8
SIZE
  6
CONTINUOUS
 62
    30
 10
209.0310035
 20
225.79670783213439
 30
0.0
 11
364.28814635714298
 21
225.79670783213439
 31
0.0
  0
LINE
  8
SIZE
  6
CONTINUOUS
 62
    30
 10
172.02900849999989
 20
225.79670783213439
 30
0.0
 11
197.0310035
 21
225.79670783213439
 31
0.0
  0
CIRCLE
  8
SIZE
  6
CONTINUOUS
 62
    30
 10
172.02900849999989
 20
225.79670783213439
 30
0.0
 40
6.0
  0
LINE
  8
SIZE
  6
CONTINUOUS
 62
    30
 10
172.02900849999989
 20
225.79670783213439
 30
0.0
 11
160.02900849999989
 21
225.79670783213439
 31
0.0
  0
CIRCLE
  8
SIZE
  6
CONTINUOUS
 62
    30
 10
197.0310035
 20
225.79670783213439
 30
0.0
 40
6.0
  0
LINE
  8
SIZE
  6
CONTINUOUS
 62
    30
 10
197.0310035
 20
225.79670783213439
 30
0.0
 11
209.0310035
 21
225.79670783213439
 31
0.0
  0
TEXT
  8
SIZE
  6
CONTINUOUS
 62
    30
 10
246.03100349999991
 20
250.79670783213439
 30
0.0
 40
64.0
  1
25
 41
0.9
 72
     1
 11
292.65957492857137
 21
250.79670783213439
 31
0.0
  0
POINT
  8
DEFPOINTS
  6
CONTINUOUS
 62
    30
 10
197.0310035
 20
159.010571
 30
0.0
 50
180.0
  0
POINT
  8
DEFPOINTS
  6
CONTINUOUS
 62
    30
 10
172.02900849999989
 20
159.42499799999999
 30
0.0
 50
180.0
  0
POINT
  8
DEFPOINTS
  6
CONTINUOUS
 62
    30
 10
172.02900849999989
 20
225.79670783213439
 30
0.0
 50
180.0
  0
LINE
  8
SIZE
  6
CONTINUOUS
 62
    30
 10
197.0310035
 20
179.010571
 30
0.0
 11
197.0310035
 21
361.01428578512599
 31
0.0
  0
LINE
  8
SIZE
  6
CONTINUOUS
 62
    30
 10
127.0310034999998
 20
186.41249300000001
 30
0.0
 11
127.0310034999998
 21
361.01428578512599
 31
0.0
  0
LINE
  8
SIZE
  6
CONTINUOUS
 62
    30
 10
115.0310034999998
 20
341.01428578512599
 30
0.0
 11
103.0310034999998
 21
341.01428578512599
 31
0.0
  0
LINE
  8
SIZE
  6
CONTINUOUS
 62
    30
 10
209.0310035
 20
341.01428578512599
 30
0.0
 11
364.28814635714298
 21
341.01428578512599
 31
0.0
  0
LINE
  8
SIZE
  6
CONTINUOUS
 62
    30
 10
127.0310034999998
 20
341.01428578512599
 30
0.0
 11
197.0310035
 21
341.01428578512599
 31
0.0
  0
CIRCLE
  8
SIZE
  6
CONTINUOUS
 62
    30
 10
127.0310034999998
 20
341.01428578512599
 30
0.0
 40
6.0
  0
LINE
  8
SIZE
  6
CONTINUOUS
 62
    30
 10
127.0310034999998
 20
341.01428578512599
 30
0.0
 11
115.0310034999998
 21
341.01428578512599
 31
0.0
  0
CIRCLE
  8
SIZE
  6
CONTINUOUS
 62
    30
 10
197.0310035
 20
341.01428578512599
 30
0.0
 40
6.0
  0
LINE
  8
SIZE
  6
CONTINUOUS
 62
    30
 10
197.0310035
 20
341.01428578512599
 30
0.0
 11
209.0310035
 21
341.01428578512599
 31
0.0
  0
TEXT
  8
SIZE
  6
CONTINUOUS
 62
    30
 10
246.03100349999991
 20
366.01428578512599
 30
0.0
 40
64.0
  1
70
 41
0.9
 72
     1
 11
292.65957492857137
 21
366.01428578512599
 31
0.0
  0
POINT
  8
DEFPOINTS
  6
CONTINUOUS
 62
    30
 10
197.0310035
 20
159.010571
 30
0.0
 50
180.0
  0
POINT
  8
DEFPOINTS
  6
CONTINUOUS
 62
    30
 10
127.0310034999998
 20
166.41249300000001
 30
0.0
 50
180.0
  0
POINT
  8
DEFPOINTS
  6
CONTINUOUS
 62
    30
 10
127.0310034999998
 20
341.01428578512599
 30
0.0
 50
180.0
  0
LINE
  8
SIZE
  6
CONTINUOUS
 62
    30
 10
197.0310035
 20
179.010571
 30
0.0
 11
197.0310035
 21
473.22518257001298
 31
0.0
  0
LINE
  8
SIZE
  6
CONTINUOUS
 62
    30
 10
86.98986449999984
 20
20.0
 30
0.0
 11
86.98986449999984
 21
473.22518257001298
 31
0.0
  0
LINE
  8
SIZE
  6
CONTINUOUS
 62
    30
 10
98.98986449999984
 20
453.22518257001298
 30
0.0
 11
185.0310035
 21
453.22518257001298
 31
0.0
  0
CIRCLE
  8
SIZE
  6
CONTINUOUS
 62
    30
 10
86.98986449999984
 20
453.22518257001298
 30
0.0
 40
6.0
  0
LINE
  8
SIZE
  6
CONTINUOUS
 62
    30
 10
86.98986449999984
 20
453.22518257001298
 30
0.0
 11
98.98986449999984
 21
453.22518257001298
 31
0.0
  0
CIRCLE
  8
SIZE
  6
CONTINUOUS
 62
    30
 10
197.0310035
 20
453.22518257001298
 30
0.0
 40
6.0
  0
LINE
  8
SIZE
  6
CONTINUOUS
 62
    30
 10
197.0310035
 20
453.22518257001298
 30
0.0
 11
185.0310035
 21
453.22518257001298
 31
0.0
  0
TEXT
  8
SIZE
  6
CONTINUOUS
 62
    30
 10
83.297267844339913
 20
478.22518257001298
 30
0.0
 40
64.0
  1
110
 41
0.9
 72
     1
 11
146.38298213005419
 21
478.22518257001298
 31
0.0
  0
POINT
  8
DEFPOINTS
  6
CONTINUOUS
 62
    30
 10
197.0310035
 20
159.010571
 30
0.0
 50
180.0
  0
POINT
  8
DEFPOINTS
  6
CONTINUOUS
 62
    30
 10
86.98986449999984
 20
0.0
 30
0.0
 50
180.0
  0
POINT
  8
DEFPOINTS
  6
CONTINUOUS
 62
    30
 10
86.98986449999984
 20
453.22518257001298
 30
0.0
 50
180.0
  0
LINE
  8
SIZE
  6
CONTINUOUS
 62
    30
 10
217.0310035
 20
159.010571
 30
0.0
 11
658.4855642104958
 21
159.01057100000011
 31
0.0
  0
LINE
  8
SIZE
  6
CONTINUOUS
 62
    30
 10
217.0310035
 20
61.004054999999987
 30
0.0
 11
658.4855642104958
 21
61.004055000000108
 31
0.0
  0
LINE
  8
SIZE
  6
CONTINUOUS
 62
    30
 10
638.4855642104958
 20
147.01057100000011
 30
0.0
 11
638.4855642104958
 21
73.004055000000108
 31
0.0
  0
LINE
  8
SIZE
  6
CONTINUOUS
 62
    30
 10
638.4855642104958
 20
61.004055000000108
 30
0.0
 11
638.4855642104958
 21
-176.08754051344141
 31
0.0
  0
CIRCLE
  8
SIZE
  6
CONTINUOUS
 62
    30
 10
638.4855642104958
 20
159.01057100000011
 30
0.0
 40
6.0
  0
LINE
  8
SIZE
  6
CONTINUOUS
 62
    30
 10
638.4855642104958
 20
159.01057100000011
 30
0.0
 11
638.4855642104958
 21
147.01057100000011
 31
0.0
  0
CIRCLE
  8
SIZE
  6
CONTINUOUS
 62
    30
 10
638.4855642104958
 20
61.004055000000108
 30
0.0
 40
6.0
  0
LINE
  8
SIZE
  6
CONTINUOUS
 62
    30
 10
638.4855642104958
 20
61.004055000000108
 30
0.0
 11
638.4855642104958
 21
73.004055000000108
 31
0.0
  0
TEXT
  8
SIZE
  6
CONTINUOUS
 62
    30
 10
616.22080861989025
 20
-161.2361119420128
 30
0.0
 40
64.0
  1
φ98
 50
90.000000000000014
 41
0.9
 72
     1
 11
616.22080861989025
 21
-74.2875405134414
 31
0.0
  0
POINT
  8
DEFPOINTS
  6
CONTINUOUS
 62
    30
 10
197.0310035
 20
159.010571
 30
0.0
 50
180.0
  0
POINT
  8
DEFPOINTS
  6
CONTINUOUS
 62
    30
 10
197.0310035
 20
61.004054999999987
 30
0.0
 50
180.0
  0
POINT
  8
DEFPOINTS
  6
CONTINUOUS
 62
    30
 10
638.4855642104958
 20
61.004055000000108
 30
0.0
 50
180.0
  0
LINE
  8
SIZE
  6
CONTINUOUS
 62
    30
 10
217.0310035
 20
61.004054999999987
 30
0.0
 11
791.66501879662292
 21
61.004055000000108
 31
0.0
  0
LINE
  8
SIZE
  6
CONTINUOUS
 62
    30
 10
184.56069591726441
 20
165.9374337886527
 30
0.0
 11
791.66501879662292
 21
165.93743378865281
 31
0.0
  0
LINE
  8
SIZE
  6
CONTINUOUS
 62
    30
 10
771.66501879662292
 20
153.93743378865281
 30
0.0
 11
771.66501879662292
 21
-189.63419584560779
 31
0.0
  0
CIRCLE
  8
SIZE
  6
CONTINUOUS
 62
    30
 10
771.66501879662292
 20
165.93743378865281
 30
0.0
 40
6.0
  0
LINE
  8
SIZE
  6
CONTINUOUS
 62
    30
 10
771.66501879662292
 20
165.93743378865281
 30
0.0
 11
771.66501879662292
 21
153.93743378865281
 31
0.0
  0
CIRCLE
  8
SIZE
  6
CONTINUOUS
 62
    30
 10
771.66501879662292
 20
61.004055000000108
 30
0.0
 40
6.0
  0
LINE
  8
SIZE
  6
CONTINUOUS
 62
    30
 10
771.66501879662292
 20
61.004055000000108
 30
0.0
 11
771.66501879662292
 21
73.004055000000108
 31
0.0
  0
TEXT
  8
SIZE
  6
CONTINUOUS
 62
    30
 10
749.40026320601692
 20
-174.65596263319549
 30
0.0
 40
64.0
  1
φ105
 50
90.000000000000014
 41
0.9
 72
     1
 11
749.40026320601692
 21
-65.764534061766881
 31
0.0
  0
POINT
  8
DEFPOINTS
  6
CONTINUOUS
 62
    30
 10
197.0310035
 20
61.004054999999987
 30
0.0
 50
180.0
  0
POINT
  8
DEFPOINTS
  6
CONTINUOUS
 62
    30
 10
164.56069591726441
 20
165.9374337886527
 30
0.0
 50
180.0
  0
POINT
  8
DEFPOINTS
  6
CONTINUOUS
 62
    30
 10
771.66501879662292
 20
165.93743378865281
 30
0.0
 50
180.0
  0
LINE
  8
NOTE
  6
CENTER
 62
     4
 10
65.0
 20
13.96660531273085
 30
0.0
 11
65.0
 21
-13.966605312730911
 31
0.0
  0
LINE
  8
NOTE
  6
CENTER
 62
     4
 10
-65.0
 20
13.96660531273085
 30
0.0
 11
-65.0
 21
-13.966605312730911
 31
0.0
  0
LINE
  8
NOTE
  6
CENTER
 62
     4
 10
-98.412773999999899
 20
13.96660531273085
 30
0.0
 11
-98.412773999999899
 21
-13.966605312730911
 31
0.0
  0
LINE
  8
SIZE
  6
CONTINUOUS
 62
    30
 10
26.446824499999821
 20
194.5
 30
0.0
 11
26.446824499999821
 21
358.05842340165458
 31
0.0
  0
LINE
  8
SIZE
  6
CONTINUOUS
 62
    30
 10
-36.445627500000228
 20
194.5
 30
0.0
 11
-36.445627500000228
 21
358.05842340165458
 31
0.0
  0
LINE
  8
SIZE
  6
CONTINUOUS
 62
    30
 10
38.446824499999821
 20
338.05842340165452
 30
0.0
 11
50.446824499999821
 21
338.05842340165452
 31
0.0
  0
LINE
  8
SIZE
  6
CONTINUOUS
 62
    30
 10
-48.445627500000228
 20
338.05842340165452
 30
0.0
 11
-60.445627500000228
 21
338.05842340165452
 31
0.0
  0
LINE
  8
SIZE
  6
CONTINUOUS
 62
    30
 10
26.446824499999821
 20
338.05842340165452
 30
0.0
 11
-36.445627500000228
 21
338.05842340165452
 31
0.0
  0
CIRCLE
  8
SIZE
  6
CONTINUOUS
 62
    30
 10
26.446824499999821
 20
338.05842340165452
 30
0.0
 40
6.0
  0
LINE
  8
SIZE
  6
CONTINUOUS
 62
    30
 10
26.446824499999821
 20
338.05842340165452
 30
0.0
 11
38.446824499999821
 21
338.05842340165452
 31
0.0
  0
CIRCLE
  8
SIZE
  6
CONTINUOUS
 62
    30
 10
-36.445627500000228
 20
338.05842340165452
 30
0.0
 40
6.0
  0
LINE
  8
SIZE
  6
CONTINUOUS
 62
    30
 10
-36.445627500000228
 20
338.05842340165452
 30
0.0
 11
-48.445627500000228
 21
338.05842340165452
 31
0.0
  0
TEXT
  8
SIZE
  6
CONTINUOUS
 62
    30
 10
-91.947972928571645
 20
363.05842340165458
 30
0.0
 40
64.0
  1
φ63
 41
0.9
 72
     1
 11
-4.9994015000002037
 21
363.05842340165458
 31
0.0
  0
POINT
  8
DEFPOINTS
  6
CONTINUOUS
 62
    30
 10
26.446824499999821
 20
174.5
 30
0.0
  0
POINT
  8
DEFPOINTS
  6
CONTINUOUS
 62
    30
 10
-36.445627500000228
 20
174.5
 30
0.0
  0
POINT
  8
DEFPOINTS
  6
CONTINUOUS
 62
    30
 10
-36.445627500000228
 20
338.05842340165452
 30
0.0
  0
LINE
  8
BASIS
  6
DASHDOT
 62
     6
 10
137.3642655592021
 20
0.0
 30
0.0
 11
-137.3642655592021
 21
0.0
 31
0.0
  0
LINE
  8
BASIS
  6
DASHDOT
 62
     6
 10
47.682383500000007
 20
110.007313
 30
0.0
 11
241.4175965000002
 21
110.007313
 31
0.0
  0
LINE
  8
DETAIL
  6
CONTINUOUS
 62
     5
 10
235.73000146945219
 20
120.5496408192743
 30
0.0
 11
235.41191877753431
 21
122.4943167110381
 31
0.0
  0
LINE
  8
DETAIL
  6
CONTINUOUS
 62
     5
 10
234.82459610513891
 20
107.164866527258
 30
0.0
 11
235.288177296783
 21
109.01758822923151
 31
0.0
  0
LINE
  8
DETAIL
  6
CONTINUOUS
 62
     5
 10
235.288177296783
 20
109.01758822923151
 30
0.0
 11
235.641201673458
 21
110.89837536147149
 31
0.0
  0
LINE
  8
DETAIL
  6
CONTINUOUS
 62
     5
 10
235.641201673458
 20
110.89837536147149
 30
0.0
 11
235.88318741806731
 21
112.8022463567835
 31
0.0
  0
LINE
  8
DETAIL
  6
CONTINUOUS
 62
     5
 10
228.48793928855389
 20
94.978345056801004
 30
0.0
 11
227.21030633968871
 21
93.516798270457798
 31
0.0
  0
LINE
  8
DETAIL
  6
CONTINUOUS
 62
     5
 10
229.67444095892731
 20
96.505740856765783
 30
0.0
 11
228.48793928855389
 21
94.978345056801004
 31
0.0
  0
LINE
  8
DETAIL
  6
CONTINUOUS
 62
     5
 10
230.76514641391711
 20
98.092690130458664
 30
0.0
 11
229.67444095892731
 21
96.505740856765783
 31
0.0
  0
LINE
  8
DETAIL
  6
CONTINUOUS
 62
     5
 10
231.7566106500251
 20
99.735064207085429
 30
0.0
 11
230.76514641391711
 21
98.092690130458664
 31
0.0
  0
LINE
  8
DETAIL
  6
CONTINUOUS
 62
     5
 10
232.6467288459564
 20
101.42846099305039
 30
0.0
 11
231.7566106500251
 21
99.735064207085429
 31
0.0
  0
LINE
  8
DETAIL
  6
CONTINUOUS
 62
     5
 10
230.16961772143259
 20
135.63298703765111
 30
0.0
 11
229.01301837322279
 21
137.38354412884721
 31
0.0
  0
LINE
  8
DETAIL
  6
CONTINUOUS
 62
     5
 10
229.01301837322279
 20
137.38354412884721
 30
0.0
 11
227.76254654982469
 21
139.0885251829985
 31
0.0
  0
LINE
  8
DETAIL
  6
CONTINUOUS
 62
     5
 10
233.43279146231291
 20
103.1686677384599
 30
0.0
 11
232.6467288459564
 21
101.42846099305039
 31
0.0
  0
LINE
  8
DETAIL
  6
CONTINUOUS
 62
     5
 10
227.76254654982469
 20
139.0885251829985
 30
0.0
 11
226.4210822913376
 21
140.7433181623104
 31
0.0
  0
LINE
  8
DETAIL
  6
CONTINUOUS
 62
     5
 10
234.06766225004961
 20
104.8210622172745
 30
0.0
 11
233.43279146231291
 21
103.1686677384599
 31
0.0
  0
LINE
  8
DETAIL
  6
CONTINUOUS
 62
     5
 10
226.4210822913376
 20
140.7433181623104
 30
0.0
 11
224.99247579645339
 21
142.34380582068741
 31
0.0
  0
LINE
  8
DETAIL
  6
CONTINUOUS
 62
     5
 10
234.20658079228249
 20
105.2149853191012
 30
0.0
 11
234.82459610513891
 21
107.164866527258
 31
0.0
  0
LINE
  8
DETAIL
  6
CONTINUOUS
 62
     5
 10
234.6856774398066
 20
106.77094298243119
 30
0.0
 11
234.06766225004961
 21
104.8210622172745
 31
0.0
  0
LINE
  8
DETAIL
  6
CONTINUOUS
 62
     5
 10
235.41191877753431
 20
122.4943167110381
 30
0.0
 11
234.98339153884851
 21
124.43204086001001
 31
0.0
  0
LINE
  8
DETAIL
  6
CONTINUOUS
 62
     5
 10
234.98339153884851
 20
124.43204086001001
 30
0.0
 11
234.44510121519579
 21
126.35774313449549
 31
0.0
  0
LINE
  8
DETAIL
  6
CONTINUOUS
 62
     5
 10
234.44510121519579
 20
126.35774313449549
 30
0.0
 11
233.79886730397271
 21
128.26647348180299
 31
0.0
  0
LINE
  8
DETAIL
  6
CONTINUOUS
 62
     5
 10
233.79886730397271
 20
128.26647348180299
 30
0.0
 11
233.04594840797631
 21
130.1531947736361
 31
0.0
  0
LINE
  8
DETAIL
  6
CONTINUOUS
 62
     5
 10
233.04594840797631
 20
130.1531947736361
 30
0.0
 11
232.18870867240659
 21
132.01309810440071
 31
0.0
  0
LINE
  8
DETAIL
  6
CONTINUOUS
 62
     5
 10
232.18870867240659
 20
132.01309810440071
 30
0.0
 11
231.22897023066071
 21
133.84123547580421
 31
0.0
  0
LINE
  8
DETAIL
  6
CONTINUOUS
 62
     5
 10
231.22897023066071
 20
133.84123547580421
 30
0.0
 11
230.16961772143259
 21
135.63298703765111
 31
0.0
  0
LINE
  8
DETAIL
  6
CONTINUOUS
 62
     5
 10
235.88318741806731
 20
112.8022463567835
 30
0.0
 11
236.01307699791101
 21
114.7243335291745
 31
0.0
  0
LINE
  8
DETAIL
  6
CONTINUOUS
 62
     5
 10
236.01307699791101
 20
114.7243335291745
 30
0.0
 11
236.0309693301906
 21
116.6595942561493
 31
0.0
  0
LINE
  8
DETAIL
  6
CONTINUOUS
 62
     5
 10
236.0309693301906
 20
116.6595942561493
 30
0.0
 11
235.93638489000389
 21
118.6030517789135
 31
0.0
  0
LINE
  8
DETAIL
  6
CONTINUOUS
 62
     5
 10
235.93638489000389
 20
118.6030517789135
 30
0.0
 11
235.73000146945219
 21
120.5496408192743
 31
0.0
  0
LINE
  8
DETAIL
  6
CONTINUOUS
 62
     5
 10
207.20616387272571
 20
83.058962834322642
 30
0.0
 11
197.01176530659089
 21
83.892865897720981
 31
0.0
  0
LINE
  8
DETAIL
  6
CONTINUOUS
 62
     5
 10
207.9464306384364
 20
83.018302451372051
 30
0.0
 11
207.20616387272571
 21
83.058962834322642
 31
0.0
  0
LINE
  8
DETAIL
  6
CONTINUOUS
 62
     5
 10
208.67842486815681
 20
83.026485941461829
 30
0.0
 11
207.9464306384364
 21
83.018302451372051
 31
0.0
  0
LINE
  8
DETAIL
  6
CONTINUOUS
 62
     5
 10
209.40416821308389
 20
83.083742133893224
 30
0.0
 11
208.67842486815681
 21
83.026485941461829
 31
0.0
  0
LINE
  8
DETAIL
  6
CONTINUOUS
 62
     5
 10
210.11759571962719
 20
83.18938454116585
 30
0.0
 11
209.40416821308389
 21
83.083742133893224
 31
0.0
  0
LINE
  8
DETAIL
  6
CONTINUOUS
 62
     5
 10
210.8126424343925
 20
83.342726676282268
 30
0.0
 11
210.11759571962719
 21
83.18938454116585
 31
0.0
  0
LINE
  8
DETAIL
  6
CONTINUOUS
 62
     5
 10
211.49133000857611
 20
83.543997368039868
 30
0.0
 11
210.8126424343925
 21
83.342726676282268
 31
0.0
  0
LINE
  8
DETAIL
  6
CONTINUOUS
 62
     5
 10
213.24225844817309
 20
84.177643045479158
 30
0.0
 11
211.49133000857611
 21
83.543997368039868
 31
0.0
  0
LINE
  8
DETAIL
  6
CONTINUOUS
 62
     5
 10
214.94599690552579
 20
84.881924215732738
 30
0.0
 11
213.24225844817309
 21
84.177643045479158
 31
0.0
  0
LINE
  8
DETAIL
  6
CONTINUOUS
 62
     5
 10
216.60254538083399
 20
85.656840879101651
 30
0.0
 11
214.94599690552579
 21
84.881924215732738
 31
0.0
  0
LINE
  8
DETAIL
  6
CONTINUOUS
 62
     5
 10
222.58754223089389
 20
88.801340388143103
 30
0.0
 11
216.60254538083399
 21
85.656840879101651
 31
0.0
  0
LINE
  8
DETAIL
  6
CONTINUOUS
 62
     5
 10
212.52854231842889
 20
152.71911010780909
 30
0.0
 11
211.95057501802489
 21
152.91890625028
 31
0.0
  0
LINE
  8
DETAIL
  6
CONTINUOUS
 62
     5
 10
211.342649736456
 20
153.0928389767713
 30
0.0
 11
210.72730578499451
 21
153.2334775981025
 31
0.0
  0
LINE
  8
DETAIL
  6
CONTINUOUS
 62
     5
 10
211.95057501802489
 20
152.91890625028
 30
0.0
 11
211.342649736456
 21
153.0928389767713
 31
0.0
  0
LINE
  8
DETAIL
  6
CONTINUOUS
 62
     5
 10
210.72730578499451
 20
153.2334775981025
 30
0.0
 11
210.10821272293859
 21
153.3398784642753
 31
0.0
  0
LINE
  8
DETAIL
  6
CONTINUOUS
 62
     5
 10
210.10821272293859
 20
153.3398784642753
 30
0.0
 11
209.48414736388781
 21
153.4123561252876
 31
0.0
  0
LINE
  8
DETAIL
  6
CONTINUOUS
 62
     5
 10
209.48414736388781
 20
153.4123561252876
 30
0.0
 11
197.01732088888431
 21
154.4466043647449
 31
0.0
  0
LINE
  8
DETAIL
  6
CONTINUOUS
 62
     5
 10
223.4800581156712
 20
143.88563527793471
 30
0.0
 11
221.8882667341843
 21
145.3649013990574
 31
0.0
  0
LINE
  8
DETAIL
  6
CONTINUOUS
 62
     5
 10
221.8882667341843
 20
145.3649013990574
 30
0.0
 11
220.22334296678471
 21
146.7755785769622
 31
0.0
  0
LINE
  8
DETAIL
  6
CONTINUOUS
 62
     5
 10
220.22334296678471
 20
146.7755785769622
 30
0.0
 11
212.52854231842841
 21
152.7191101078096
 31
0.0
  0
LINE
  8
DETAIL
  6
CONTINUOUS
 62
     5
 10
227.21030633968871
 20
93.516798270457798
 30
0.0
 11
222.5875422308934
 21
88.801340388143103
 31
0.0
  0
LINE
  8
DETAIL
  6
CONTINUOUS
 62
     5
 10
224.99247579645339
 20
142.34380582068741
 30
0.0
 11
223.4800581156712
 21
143.88563527793471
 31
0.0
  0
LINE
  8
DETAIL
  6
DASHED
 62
     5
 10
176.43852042403
 20
83.943656196338793
 30
0.0
 11
196.9247589559136
 21
83.898961873492567
 31
0.0
  0
LINE
  8
DETAIL
  6
CONTINUOUS
 62
     5
 10
196.97013868752649
 20
83.893128360699279
 30
0.0
 11
196.90397169680611
 21
83.898961873492567
 31
0.0
  0
LINE
  8
DETAIL
  6
DASHED
 62
     5
 10
176.4691370515886
 20
154.73170825417569
 30
0.0
 11
197.02360750889099
 21
154.68686507132989
 31
0.0
  0
LINE
  8
DETAIL
  6
CONTINUOUS
 62
     5
 10
235.73000146945219
 20
120.54964081922471
 30
0.0
 11
235.41191877753499
 21
122.4943167109881
 31
0.0
  0
LINE
  8
DETAIL
  6
CONTINUOUS
 62
     5
 10
235.288177296783
 20
109.0175882291818
 30
0.0
 11
235.64120167345891
 21
110.8983753614219
 31
0.0
  0
LINE
  8
DETAIL
  6
CONTINUOUS
 62
     5
 10
235.64120167345891
 20
110.8983753614219
 30
0.0
 11
235.88318741806819
 21
112.8022463567339
 31
0.0
  0
LINE
  8
DETAIL
  6
CONTINUOUS
 62
     5
 10
228.4879392885548
 20
94.978345056750982
 30
0.0
 11
227.2103063396892
 21
93.516798270407321
 31
0.0
  0
LINE
  8
DETAIL
  6
CONTINUOUS
 62
     5
 10
229.6744409589285
 20
96.505740856715761
 30
0.0
 11
228.4879392885548
 21
94.978345056750982
 31
0.0
  0
LINE
  8
DETAIL
  6
CONTINUOUS
 62
     5
 10
230.76514641391799
 20
98.092690130409096
 30
0.0
 11
229.6744409589285
 21
96.505740856715761
 31
0.0
  0
LINE
  8
DETAIL
  6
CONTINUOUS
 62
     5
 10
231.7566106500262
 20
99.735064207035407
 30
0.0
 11
230.76514641391799
 21
98.092690130409096
 31
0.0
  0
LINE
  8
DETAIL
  6
CONTINUOUS
 62
     5
 10
232.64672884595711
 20
101.4284609930008
 30
0.0
 11
231.7566106500262
 21
99.735064207035407
 31
0.0
  0
LINE
  8
DETAIL
  6
CONTINUOUS
 62
     5
 10
230.1696177214337
 20
135.6329870376006
 30
0.0
 11
229.01301837322379
 21
137.3835441287973
 31
0.0
  0
LINE
  8
DETAIL
  6
CONTINUOUS
 62
     5
 10
229.01301837322379
 20
137.3835441287973
 30
0.0
 11
227.7625465498256
 21
139.0885251829491
 31
0.0
  0
LINE
  8
DETAIL
  6
CONTINUOUS
 62
     5
 10
233.43279146231291
 20
103.1686677384095
 30
0.0
 11
232.64672884595711
 21
101.4284609930008
 31
0.0
  0
LINE
  8
DETAIL
  6
CONTINUOUS
 62
     5
 10
227.7625465498256
 20
139.0885251829491
 30
0.0
 11
226.4210822913376
 21
140.74331816226041
 31
0.0
  0
LINE
  8
DETAIL
  6
CONTINUOUS
 62
     5
 10
234.06766225004961
 20
104.82106221722449
 30
0.0
 11
233.43279146231291
 21
103.1686677384095
 31
0.0
  0
LINE
  8
DETAIL
  6
CONTINUOUS
 62
     5
 10
226.4210822913376
 20
140.74331816226041
 30
0.0
 11
224.9924757964543
 21
142.34380582063741
 31
0.0
  0
LINE
  8
DETAIL
  6
CONTINUOUS
 62
     5
 10
234.2065807922834
 20
105.2149853190507
 30
0.0
 11
234.82459610513979
 21
107.1648665272081
 31
0.0
  0
LINE
  8
DETAIL
  6
CONTINUOUS
 62
     5
 10
234.68567743980751
 20
106.7709429823811
 30
0.0
 11
234.06766225004961
 21
104.82106221722449
 31
0.0
  0
LINE
  8
DETAIL
  6
CONTINUOUS
 62
     5
 10
235.41191877753499
 20
122.4943167109881
 30
0.0
 11
234.98339153884919
 21
124.43204085996
 31
0.0
  0
LINE
  8
DETAIL
  6
CONTINUOUS
 62
     5
 10
234.98339153884919
 20
124.43204085996
 30
0.0
 11
234.44510121519579
 21
126.357743134446
 31
0.0
  0
LINE
  8
DETAIL
  6
CONTINUOUS
 62
     5
 10
234.44510121519579
 20
126.357743134446
 30
0.0
 11
233.79886730397271
 21
128.26647348175251
 31
0.0
  0
LINE
  8
DETAIL
  6
CONTINUOUS
 62
     5
 10
233.79886730397271
 20
128.26647348175251
 30
0.0
 11
233.04594840797699
 21
130.1531947735856
 31
0.0
  0
LINE
  8
DETAIL
  6
CONTINUOUS
 62
     5
 10
233.04594840797699
 20
130.1531947735856
 30
0.0
 11
232.1887086724075
 21
132.01309810435069
 31
0.0
  0
LINE
  8
DETAIL
  6
CONTINUOUS
 62
     5
 10
232.1887086724075
 20
132.01309810435069
 30
0.0
 11
231.22897023066071
 21
133.8412354757543
 31
0.0
  0
LINE
  8
DETAIL
  6
CONTINUOUS
 62
     5
 10
231.22897023066071
 20
133.8412354757543
 30
0.0
 11
230.1696177214337
 21
135.6329870376006
 31
0.0
  0
LINE
  8
DETAIL
  6
CONTINUOUS
 62
     5
 10
235.88318741806819
 20
112.8022463567339
 30
0.0
 11
236.01307699791161
 21
114.72433352912449
 31
0.0
  0
LINE
  8
DETAIL
  6
CONTINUOUS
 62
     5
 10
236.01307699791161
 20
114.72433352912449
 30
0.0
 11
236.0309693301906
 21
116.65959425609969
 31
0.0
  0
LINE
  8
DETAIL
  6
CONTINUOUS
 62
     5
 10
236.0309693301906
 20
116.65959425609969
 30
0.0
 11
235.9363848900048
 21
118.6030517788639
 31
0.0
  0
LINE
  8
DETAIL
  6
CONTINUOUS
 62
     5
 10
235.9363848900048
 20
118.6030517788639
 30
0.0
 11
235.73000146945219
 21
120.54964081922471
 31
0.0
  0
LINE
  8
DETAIL
  6
CONTINUOUS
 62
     5
 10
207.20616387272571
 20
83.058962834273075
 30
0.0
 11
197.01176530659089
 21
83.892865897671413
 31
0.0
  0
LINE
  8
DETAIL
  6
CONTINUOUS
 62
     5
 10
207.9464306384364
 20
83.018302451322029
 30
0.0
 11
207.20616387272571
 21
83.058962834273075
 31
0.0
  0
LINE
  8
DETAIL
  6
CONTINUOUS
 62
     5
 10
208.67842486815769
 20
83.026485941411806
 30
0.0
 11
207.9464306384364
 21
83.018302451322029
 31
0.0
  0
LINE
  8
DETAIL
  6
CONTINUOUS
 62
     5
 10
209.40416821308531
 20
83.083742133843657
 30
0.0
 11
208.67842486815769
 21
83.026485941411806
 31
0.0
  0
LINE
  8
DETAIL
  6
CONTINUOUS
 62
     5
 10
210.1175957196281
 20
83.189384541116283
 30
0.0
 11
209.40416821308531
 21
83.083742133843657
 31
0.0
  0
LINE
  8
DETAIL
  6
CONTINUOUS
 62
     5
 10
210.81264243439389
 20
83.342726676232246
 30
0.0
 11
210.1175957196281
 21
83.189384541116283
 31
0.0
  0
LINE
  8
DETAIL
  6
CONTINUOUS
 62
     5
 10
211.49133000857711
 20
83.543997367990301
 30
0.0
 11
210.81264243439389
 21
83.342726676232246
 31
0.0
  0
LINE
  8
DETAIL
  6
CONTINUOUS
 62
     5
 10
213.24225844817309
 20
84.177643045429136
 30
0.0
 11
211.49133000857711
 21
83.543997367990301
 31
0.0
  0
LINE
  8
DETAIL
  6
CONTINUOUS
 62
     5
 10
214.94599690552579
 20
84.881924215683171
 30
0.0
 11
213.24225844817309
 21
84.177643045429136
 31
0.0
  0
LINE
  8
DETAIL
  6
CONTINUOUS
 62
     5
 10
216.60254538083541
 20
85.656840879051629
 30
0.0
 11
214.94599690552579
 21
84.881924215683171
 31
0.0
  0
LINE
  8
DETAIL
  6
CONTINUOUS
 62
     5
 10
212.54859579940671
 20
152.71217786757899
 30
0.0
 11
211.9505750180258
 21
152.91890625023089
 31
0.0
  0
LINE
  8
DETAIL
  6
CONTINUOUS
 62
     5
 10
211.342649736456
 20
153.09283897672171
 30
0.0
 11
210.72730578499451
 21
153.23347759805239
 31
0.0
  0
LINE
  8
DETAIL
  6
CONTINUOUS
 62
     5
 10
211.9505750180258
 20
152.91890625023089
 30
0.0
 11
211.342649736456
 21
153.09283897672171
 31
0.0
  0
LINE
  8
DETAIL
  6
CONTINUOUS
 62
     5
 10
210.72730578499451
 20
153.23347759805239
 30
0.0
 11
210.1082127229395
 21
153.339878464225
 31
0.0
  0
LINE
  8
DETAIL
  6
CONTINUOUS
 62
     5
 10
210.1082127229395
 20
153.339878464225
 30
0.0
 11
209.4841473638883
 21
153.41235612523801
 31
0.0
  0
LINE
  8
DETAIL
  6
CONTINUOUS
 62
     5
 10
209.4841473638883
 20
153.41235612523801
 30
0.0
 11
197.01732088888431
 21
154.44660436469519
 31
0.0
  0
LINE
  8
DETAIL
  6
CONTINUOUS
 62
     5
 10
224.9924757964543
 20
142.34380582063741
 30
0.0
 11
223.4800581156712
 21
143.88563527788469
 31
0.0
  0
LINE
  8
DETAIL
  6
CONTINUOUS
 62
     5
 10
223.4800581156712
 20
143.88563527788469
 30
0.0
 11
221.8882667341843
 21
145.36490139900741
 31
0.0
  0
LINE
  8
DETAIL
  6
CONTINUOUS
 62
     5
 10
221.8882667341843
 20
145.36490139900741
 30
0.0
 11
220.22334296678471
 21
146.77557857691221
 31
0.0
  0
LINE
  8
DETAIL
  6
CONTINUOUS
 62
     5
 10
220.22334296678471
 20
146.77557857691221
 30
0.0
 11
218.4832063751758
 21
148.1196753472976
 31
0.0
  0
LINE
  8
SIZE
  6
CONTINUOUS
 62
    30
 10
197.0310035
 20
178.41125700000001
 30
0.0
 11
197.0310035
 21
473.22518257001298
 31
0.0
  0
LINE
  8
SIZE
  6
CONTINUOUS
 62
    30
 10
236.0309693301906
 20
136.65959425609969
 30
0.0
 11
236.0309693301906
 21
473.22518257001298
 31
0.0
  0
LINE
  8
SIZE
  6
CONTINUOUS
 62
    30
 10
185.0310035
 20
453.22518257001298
 30
0.0
 11
173.0310035
 21
453.22518257001298
 31
0.0
  0
LINE
  8
SIZE
  6
CONTINUOUS
 62
    30
 10
248.0309693301906
 20
453.22518257001298
 30
0.0
 11
485.02525504447641
 21
453.22518257001298
 31
0.0
  0
LINE
  8
SIZE
  6
CONTINUOUS
 62
    30
 10
197.0310035
 20
453.22518257001298
 30
0.0
 11
236.0309693301906
 21
453.22518257001298
 31
0.0
  0
CIRCLE
  8
SIZE
  6
CONTINUOUS
 62
    30
 10
197.0310035
 20
453.22518257001298
 30
0.0
 40
6.0
  0
LINE
  8
SIZE
  6
CONTINUOUS
 62
    30
 10
197.0310035
 20
453.22518257001298
 30
0.0
 11
185.0310035
 21
453.22518257001298
 31
0.0
  0
CIRCLE
  8
SIZE
  6
CONTINUOUS
 62
    30
 10
236.0309693301906
 20
453.22518257001298
 30
0.0
 40
6.0
  0
LINE
  8
SIZE
  6
CONTINUOUS
 62
    30
 10
236.0309693301906
 20
453.22518257001298
 30
0.0
 11
248.0309693301906
 21
453.22518257001298
 31
0.0
  0
TEXT
  8
SIZE
  6
CONTINUOUS
 62
    30
 10
258.15096933019072
 20
478.22518257001298
 30
0.0
 40
64.0
  1
（39）
 41
0.9
 72
     1
 11
372.52811218733359
 21
478.22518257001298
 31
0.0
  0
POINT
  8
DEFPOINTS
  6
CONTINUOUS
 62
    30
 10
197.0310035
 20
158.41125700000001
 30
0.0
  0
POINT
  8
DEFPOINTS
  6
CONTINUOUS
 62
    30
 10
236.0309693301906
 20
116.65959425609969
 30
0.0
  0
POINT
  8
DEFPOINTS
  6
CONTINUOUS
 62
    30
 10
236.0309693301906
 20
453.22518257001298
 30
0.0
  0
ENDSEC
  0
EOF
