  0
SECTION
  2
HEADER
  9
$ACADVER
  1
AC1009
  9
$DWGCODEPAGE
  3
dos932
  9
$INSBASE
 10
0.0
 20
0.0
 30
0.0
  9
$EXTMIN
 10
-613.16068899254424
 20
-861.32811377910912
 30
-0.0015258207003583
  9
$EXTMAX
 10
1115.290844190504
 20
819.99207371844932
 30
0.0000000349246037
  9
$LIMMIN
 10
-2970.0
 20
-2100.0
  9
$LIMMAX
 10
2970.0
 20
2100.0
  9
$ORTHOMODE
 70
     1
  9
$REGENMODE
 70
     1
  9
$FILLMODE
 70
     1
  9
$QTEXTMODE
 70
     0
  9
$MIRRTEXT
 70
     0
  9
$LTSCALE
 40
20.0
  9
$ATTMODE
 70
     1
  9
$TEXTSIZE
 40
64.0
  9
$TRACEWID
 40
0.05
  9
$TEXTSTYLE
  7
STANDARD
  9
$CLAYER
  8
SIZE
  9
$CELTYPE
  6
CONTINUOUS
  9
$CECOLOR
 62
     7
  9
$DIMSCALE
 40
1.0
  9
$DIMASZ
 40
12.0
  9
$DIMEXO
 40
20.0
  9
$DIMDLI
 40
200.0
  9
$DIMRND
 40
0.0
  9
$DIMDLE
 40
0.0
  9
$DIMEXE
 40
20.0
  9
$DIMTP
 40
0.0
  9
$DIMTM
 40
0.0
  9
$DIMTXT
 40
64.0
  9
$DIMCEN
 40
0.09
  9
$DIMTSZ
 40
0.0
  9
$DIMTOL
 70
     0
  9
$DIMLIM
 70
     0
  9
$DIMTIH
 70
     0
  9
$DIMTOH
 70
     0
  9
$DIMSE1
 70
     0
  9
$DIMSE2
 70
     0
  9
$DIMTAD
 70
     1
  9
$DIMZIN
 70
     8
  9
$DIMBLK
  1

  9
$DIMASO
 70
     1
  9
$DIMSHO
 70
     0
  9
$DIMPOST
  1

  9
$DIMAPOST
  1

  9
$DIMALT
 70
     0
  9
$DIMALTD
 70
     2
  9
$DIMALTF
 40
25.399999999999999
  9
$DIMLFAC
 40
1.0
  9
$DIMTOFL
 70
     1
  9
$DIMTVP
 40
0.0
  9
$DIMTIX
 70
     1
  9
$DIMSOXD
 70
     0
  9
$DIMSAH
 70
     0
  9
$DIMBLK1
  1

  9
$DIMBLK2
  1

  9
$DIMSTYLE
  2
STANDARD
  9
$DIMCLRD
 70
     7
  9
$DIMCLRE
 70
     7
  9
$DIMCLRT
 70
     7
  9
$DIMTFAC
 40
1.0
  9
$DIMGAP
 40
25.0
  9
$LUNITS
 70
     2
  9
$LUPREC
 70
     4
  9
$SKETCHINC
 40
0.1
  9
$FILLETRAD
 40
3.0
  9
$AUNITS
 70
     1
  9
$AUPREC
 70
     3
  9
$MENU
  1
ACAD
  9
$ELEVATION
 40
0.0
  9
$PELEVATION
 40
0.0
  9
$THICKNESS
 40
0.0
  9
$LIMCHECK
 70
     0
  9
$CHAMFERA
 40
0.0
  9
$CHAMFERB
 40
0.0
  9
$SKPOLY
 70
     0
  9
$TDCREATE
 40
2453019.62301037
  9
$TDUPDATE
 40
2459025.48961772
  9
$TDINDWG
 40
1.7128979282
  9
$TDUSRTIMER
 40
1.7128979282
  9
$USRTIMER
 70
     1
  9
$ANGBASE
 50
0.0
  9
$ANGDIR
 70
     0
  9
$PDMODE
 70
     3
  9
$PDSIZE
 40
-2.0
  9
$PLINEWID
 40
0.0
  9
$SPLFRAME
 70
     0
  9
$SPLINETYPE
 70
     6
  9
$SPLINESEGS
 70
     8
  9
$SURFTAB1
 70
     6
  9
$SURFTAB2
 70
     6
  9
$SURFTYPE
 70
     6
  9
$SURFU
 70
     6
  9
$SURFV
 70
     6
  9
$UCSNAME
  2

  9
$UCSORG
 10
0.0
 20
0.0
 30
0.0
  9
$UCSXDIR
 10
1.0
 20
0.0
 30
0.0
  9
$UCSYDIR
 10
0.0
 20
1.0
 30
0.0
  9
$PUCSNAME
  2

  9
$PUCSORG
 10
0.0
 20
0.0
 30
0.0
  9
$PUCSXDIR
 10
1.0
 20
0.0
 30
0.0
  9
$PUCSYDIR
 10
0.0
 20
1.0
 30
0.0
  9
$USERI1
 70
     0
  9
$USERI2
 70
     0
  9
$USERI3
 70
     0
  9
$USERI4
 70
     0
  9
$USERI5
 70
     0
  9
$USERR1
 40
20.0
  9
$USERR2
 40
0.0
  9
$USERR3
 40
0.0
  9
$USERR4
 40
0.0
  9
$USERR5
 40
0.0
  9
$WORLDVIEW
 70
     1
  9
$SHADEDGE
 70
     3
  9
$SHADEDIF
 70
    70
  9
$TILEMODE
 70
     1
  9
$MAXACTVP
 70
    48
  9
$PINSBASE
 10
0.0
 20
0.0
 30
0.0
  9
$PLIMCHECK
 70
     0
  9
$PEXTMIN
 10
-100000000000000000000.0
 20
-100000000000000000000.0
 30
-100000000000000000000.0
  9
$PEXTMAX
 10
100000000000000000000.0
 20
100000000000000000000.0
 30
100000000000000000000.0
  9
$PLIMMIN
 10
0.0
 20
0.0
  9
$PLIMMAX
 10
12.0
 20
9.0
  9
$UNITMODE
 70
     0
  9
$VISRETAIN
 70
     0
  9
$PLINEGEN
 70
     0
  9
$PSLTSCALE
 70
     0
  9
$TREEDEPTH
 70
  3020
  9
$ATTDIA
 70
     0
  9
$ATTREQ
 70
     1
  9
$BLIPMODE
 70
     1
  9
$COORDS
 70
     1
  9
$DRAGMODE
 70
     2
  9
$OSMODE
 70
     0
  9
$HANDLING
 70
     0
  9
$HANDSEED
  5
EE22
  0
ENDSEC
  0
SECTION
  2
TABLES
  0
TABLE
  2
LTYPE
 70
     3
  0
LTYPE
  2
CONTINUOUS
 70
     0
  3
実線
 72
    65
 73
     0
 40
0.0
  0
LTYPE
  2
DASHDOT
 70
     0
  3
____ _ ____ _ ____ _ ____ _ ____ _ ____ _ ____
 72
    65
 73
     4
 40
5.5
 49
4.0
 49
-0.6
 49
0.3
 49
-0.6
  0
LTYPE
  2
CENTER
 70
     0
  3
Center ____ _ ____ _ ____ _ ____ _ ____ _ ____
 72
    65
 73
     4
 40
1.0
 49
0.5
 49
-0.25
 49
0.0
 49
-0.25
  0
ENDTAB
  0
TABLE
  2
LAYER
 70
    12
  0
LAYER
  2
0
 70
     0
 62
     7
  6
CONTINUOUS
  0
LAYER
  2
BASIS
 70
     0
 62
     6
  6
DASHDOT
  0
LAYER
  2
OUTLINE
 70
     0
 62
     3
  6
CONTINUOUS
  0
LAYER
  2
DETAIL
 70
     0
 62
     5
  6
CONTINUOUS
  0
LAYER
  2
SIZE
 70
     0
 62
    30
  6
CONTINUOUS
  0
LAYER
  2
ARRANGE
 70
     0
 62
     1
  6
CONTINUOUS
  0
LAYER
  2
DEFPOINTS
 70
     0
 62
     7
  6
CONTINUOUS
  0
LAYER
  2
ETC
 70
     0
 62
    61
  6
CONTINUOUS
  0
LAYER
  2
FIX
 70
     0
 62
    11
  6
CONTINUOUS
  0
LAYER
  2
NOTE
 70
     0
 62
     4
  6
CONTINUOUS
  0
LAYER
  2
SERVICESPACE
 70
    64
 62
     2
  6
DASHDOT
  0
LAYER
  2
SYMBOLLINE
 70
    64
 62
    15
  6
CONTINUOUS
  0
ENDTAB
  0
TABLE
  2
STYLE
 70
     1
  0
STYLE
  2
STANDARD
 70
     0
 40
64.0
 41
0.9
 50
0.0
 71
     0
 42
64.0
  3
SIMPLEX.shx
  4
BIGFONT.shx
  0
ENDTAB
  0
TABLE
  2
APPID
 70
    19
  0
APPID
  2
ACAD
 70
     0
  0
APPID
  2
AUTOCAD_POSTSCRIPT_FIGURE
 70
     0
  0
APPID
  2
ACAD_EXEMPT_FROM_CAD_STANDARDS
 70
     0
  0
APPID
  2
ACAD_PSEXT
 70
     0
  0
APPID
  2
ACAUTHENVIRON
 70
     0
  0
APPID
  2
GENIUS_GENOENT_13
 70
     0
  0
APPID
  2
GENIUS_GENCFG_13
 70
     0
  0
APPID
  2
GENIUS_GENCFG0_13
 70
     0
  0
APPID
  2
GENIUS_GENCFG1_13
 70
     0
  0
APPID
  2
GENIUS_GENCFG2_13
 70
     0
  0
APPID
  2
GENIUS_GENCFG3_13
 70
     0
  0
APPID
  2
GENIUS_GENCFG4_13
 70
     0
  0
APPID
  2
GENIUS_GEVCFG0_13
 70
     0
  0
APPID
  2
CONTENTBLOCKICON
 70
     0
  0
APPID
  2
CONTENTBLOCKDESCRIPTION
 70
     0
  0
APPID
  2
ACAD_NAV_VCDISPLAY
 70
     0
  0
APPID
  2
ACAD_MLEADERVER
 70
     0
  0
APPID
  2
ACDBDYNAMICBLOCKTRUENAME
 70
     0
  0
APPID
  2
ACDBDYNAMICBLOCKGUID
 70
     0
  0
ENDTAB
  0
TABLE
  2
DIMSTYLE
 70
     1
  0
DIMSTYLE
  2
STANDARD
 70
     0
  3

  4

  5
_ORIGIN
  6

  7

 40
1.0
 41
12.0
 42
20.0
 43
200.0
 44
20.0
 45
0.0
 46
0.0
 47
0.0
 48
0.0
140
64.0
141
0.09
142
0.0
143
25.399999999999999
144
1.0
145
0.0
146
1.0
147
25.0
 71
     0
 72
     0
 73
     0
 74
     0
 75
     0
 76
     0
 77
     1
 78
     8
170
     0
171
     2
172
     1
173
     0
174
     1
175
     0
176
     7
177
     7
178
     7
  0
ENDTAB
  0
TABLE
  2
VIEW
 70
     1
  0
VIEW
  2
ALL
 70
     0
 40
4282.6198079999986
 10
0.0
 20
41.309904000000003
 41
5940.0
 11
0.0
 21
0.0
 31
1.0
 12
0.0
 22
0.0
 32
0.0
 42
50.0
 43
0.0
 44
0.0
 50
0.0
 71
     0
  0
ENDTAB
  0
TABLE
  2
UCS
 70
     0
  0
ENDTAB
  0
TABLE
  2
VPORT
 70
     1
  0
VPORT
  2
*ACTIVE
 70
     0
 10
0.0
 20
0.0
 11
1.0
 21
1.0
 12
251.0650775989798
 22
-20.668020030329899
 13
0.0
 23
0.0
 14
1.0
 24
1.0
 15
0.0
 25
0.0
 16
0.0
 26
0.0
 36
1.0
 17
0.0
 27
0.0
 37
0.0
 40
1692.4670616688129
 41
1.747787610619469
 42
50.0
 43
0.0
 44
0.0
 50
0.0
 51
0.0
 71
     0
 72
  1000
 73
     1
 74
     3
 75
     0
 76
     0
 77
     0
 78
     0
  0
ENDTAB
  0
ENDSEC
  0
SECTION
  2
BLOCKS
  0
BLOCK
  8
0
  2
_ORIGIN
 70
     0
 10
0.0
 20
0.0
 30
0.0
  3
_ORIGIN
  1
_ORIGIN
  0
CIRCLE
  8
0
  6
CONTINUOUS
 62
     7
 10
0.0
 20
0.0
 30
0.0
 40
0.5
  0
LINE
  8
0
  6
CONTINUOUS
 62
     7
 10
0.0
 20
0.0
 30
0.0
 11
-1.0
 21
0.0
 31
0.0
  0
ENDBLK
  8
0
  0
ENDSEC
  0
SECTION
  2
ENTITIES
  0
CIRCLE
  8
ARRANGE
  6
CONTINUOUS
 62
     1
 10
0.0
 20
0.0
 30
0.0
 40
40.0
  0
POINT
  8
ARRANGE
  6
CONTINUOUS
 62
     1
 10
0.0
 20
0.0
 30
0.0
 50
90.0
  0
LINE
  8
SIZE
  6
CONTINUOUS
 62
    30
 10
149.49996899999999
 20
-64.999999999999886
 30
0.0
 11
317.60353491990099
 21
-64.999999999999886
 31
0.0
  0
LINE
  8
SIZE
  6
CONTINUOUS
 62
    30
 10
150.0119959999997
 20
65.00019999999995
 30
0.0
 11
317.60353491990099
 21
65.00019999999995
 31
0.0
  0
LINE
  8
SIZE
  6
CONTINUOUS
 62
    30
 10
297.60353491990099
 20
-52.999999999999893
 30
0.0
 11
297.60353491990099
 21
53.00019999999995
 31
0.0
  0
CIRCLE
  8
SIZE
  6
CONTINUOUS
 62
    30
 10
297.60353491990099
 20
-64.999999999999886
 30
0.0
 40
6.0
  0
LINE
  8
SIZE
  6
CONTINUOUS
 62
    30
 10
297.60353491990099
 20
-64.999999999999886
 30
0.0
 11
297.60353491990099
 21
-52.999999999999893
 31
0.0
  0
CIRCLE
  8
SIZE
  6
CONTINUOUS
 62
    30
 10
297.60353491990099
 20
65.00019999999995
 30
0.0
 40
6.0
  0
LINE
  8
SIZE
  6
CONTINUOUS
 62
    30
 10
297.60353491990099
 20
65.00019999999995
 30
0.0
 11
297.60353491990099
 21
53.00019999999995
 31
0.0
  0
TEXT
  8
SIZE
  6
CONTINUOUS
 62
    30
 10
272.60353491990099
 20
-68.571328571428481
 30
0.0
 40
64.0
  1
130
 50
90.0
 41
0.9
 72
     1
 11
272.60353491990099
 21
0.0001000000000886
 31
0.0
  0
POINT
  8
DEFPOINTS
  6
CONTINUOUS
 62
    30
 10
129.49996899999999
 20
-64.999999999999886
 30
0.0
  0
POINT
  8
DEFPOINTS
  6
CONTINUOUS
 62
    30
 10
130.0119959999997
 20
65.00019999999995
 30
0.0
  0
POINT
  8
DEFPOINTS
  6
CONTINUOUS
 62
    30
 10
297.60353491990099
 20
65.00019999999995
 30
0.0
  0
LINE
  8
SIZE
  6
CONTINUOUS
 62
    30
 10
97.000152999999955
 20
117.49996900000021
 30
0.0
 11
460.51589605199479
 21
117.49996899999999
 31
0.0
  0
LINE
  8
SIZE
  6
CONTINUOUS
 62
    30
 10
97.000152999999955
 20
-117.49997
 30
0.0
 11
460.51589605199479
 21
-117.49997
 31
0.0
  0
LINE
  8
SIZE
  6
CONTINUOUS
 62
    30
 10
440.51589605199479
 20
105.49996899999999
 30
0.0
 11
440.51589605199479
 21
-105.49997
 31
0.0
  0
CIRCLE
  8
SIZE
  6
CONTINUOUS
 62
    30
 10
440.51589605199479
 20
117.49996899999999
 30
0.0
 40
6.0
  0
LINE
  8
SIZE
  6
CONTINUOUS
 62
    30
 10
440.51589605199479
 20
117.49996899999999
 30
0.0
 11
440.51589605199479
 21
105.49996899999999
 31
0.0
  0
CIRCLE
  8
SIZE
  6
CONTINUOUS
 62
    30
 10
440.51589605199479
 20
-117.49997
 30
0.0
 40
6.0
  0
LINE
  8
SIZE
  6
CONTINUOUS
 62
    30
 10
440.51589605199479
 20
-117.49997
 30
0.0
 11
440.51589605199479
 21
-105.49997
 31
0.0
  0
TEXT
  8
SIZE
  6
CONTINUOUS
 62
    30
 10
415.51589605199479
 20
-74.05714285714285
 30
0.0
 40
64.0
  1
235
 50
90.0
 41
0.9
 72
     1
 11
415.51589605199479
 21
0.0
 31
0.0
  0
POINT
  8
DEFPOINTS
  6
CONTINUOUS
 62
    30
 10
77.000152999999955
 20
117.49996900000021
 30
0.0
  0
POINT
  8
DEFPOINTS
  6
CONTINUOUS
 62
    30
 10
77.000152999999955
 20
-117.49996999999981
 30
0.0
  0
POINT
  8
DEFPOINTS
  6
CONTINUOUS
 62
    30
 10
440.51589605199479
 20
-117.49997
 30
0.0
  0
LINE
  8
SIZE
  6
CONTINUOUS
 62
    30
 10
162.0
 20
143.0
 30
0.0
 11
717.13603006822814
 21
142.9999999999998
 31
0.0
  0
LINE
  8
SIZE
  6
CONTINUOUS
 62
    30
 10
162.0
 20
-143.00000000000011
 30
0.0
 11
717.13603006822814
 21
-143.00000000000031
 31
0.0
  0
LINE
  8
SIZE
  6
CONTINUOUS
 62
    30
 10
697.13603006822814
 20
130.99999999999989
 30
0.0
 11
697.13603006822814
 21
-131.00000000000031
 31
0.0
  0
CIRCLE
  8
SIZE
  6
CONTINUOUS
 62
    30
 10
697.13603006822814
 20
142.99999999999989
 30
0.0
 40
6.0
  0
LINE
  8
SIZE
  6
CONTINUOUS
 62
    30
 10
697.13603006822814
 20
142.99999999999989
 30
0.0
 11
697.13603006822814
 21
130.99999999999989
 31
0.0
  0
CIRCLE
  8
SIZE
  6
CONTINUOUS
 62
    30
 10
697.13603006822814
 20
-143.00000000000031
 30
0.0
 40
6.0
  0
LINE
  8
SIZE
  6
CONTINUOUS
 62
    30
 10
697.13603006822814
 20
-143.00000000000031
 30
0.0
 11
697.13603006822814
 21
-131.00000000000031
 31
0.0
  0
TEXT
  8
SIZE
  6
CONTINUOUS
 62
    30
 10
672.13603006822814
 20
-128.15404149618749
 30
0.0
 40
64.0
  1
□286
 50
90.0
 41
0.9
 72
     1
 11
672.13603006822814
 21
-18.988327210473241
 31
0.0
  0
POINT
  8
DEFPOINTS
  6
CONTINUOUS
 62
    30
 10
142.0
 20
143.0
 30
0.0
  0
POINT
  8
DEFPOINTS
  6
CONTINUOUS
 62
    30
 10
142.0
 20
-143.00000000000011
 30
0.0
  0
POINT
  8
DEFPOINTS
  6
CONTINUOUS
 62
    30
 10
697.13603006822814
 20
-143.00000000000031
 30
0.0
  0
LINE
  8
SIZE
  6
CONTINUOUS
 62
    30
 10
116.39999399999989
 20
127.50007600000001
 30
0.0
 11
586.94873987205574
 21
127.50007599999979
 31
0.0
  0
LINE
  8
SIZE
  6
CONTINUOUS
 62
    30
 10
116.39999399999989
 20
-127.50007699999991
 30
0.0
 11
586.94873987205574
 21
-127.500077
 31
0.0
  0
LINE
  8
SIZE
  6
CONTINUOUS
 62
    30
 10
566.94873987205574
 20
115.50007599999979
 30
0.0
 11
566.94873987205574
 21
-115.500077
 31
0.0
  0
CIRCLE
  8
SIZE
  6
CONTINUOUS
 62
    30
 10
566.94873987205574
 20
127.50007599999979
 30
0.0
 40
6.0
  0
LINE
  8
SIZE
  6
CONTINUOUS
 62
    30
 10
566.94873987205574
 20
127.50007599999979
 30
0.0
 11
566.94873987205574
 21
115.50007599999979
 31
0.0
  0
CIRCLE
  8
SIZE
  6
CONTINUOUS
 62
    30
 10
566.94873987205574
 20
-127.500077
 30
0.0
 40
6.0
  0
LINE
  8
SIZE
  6
CONTINUOUS
 62
    30
 10
566.94873987205574
 20
-127.500077
 30
0.0
 11
566.94873987205574
 21
-115.500077
 31
0.0
  0
TEXT
  8
SIZE
  6
CONTINUOUS
 62
    30
 10
541.94873987205574
 20
-74.057142857142964
 30
0.0
 40
64.0
  1
255
 50
90.0
 41
0.9
 72
     1
 11
541.94873987205574
 21
-0.0000000000001137
 31
0.0
  0
POINT
  8
DEFPOINTS
  6
CONTINUOUS
 62
    30
 10
96.399993999999879
 20
127.50007600000001
 30
0.0
  0
POINT
  8
DEFPOINTS
  6
CONTINUOUS
 62
    30
 10
96.399993999999879
 20
-127.50007699999991
 30
0.0
  0
POINT
  8
DEFPOINTS
  6
CONTINUOUS
 62
    30
 10
566.94873987205574
 20
-127.500077
 30
0.0
  0
LINE
  8
SIZE
  6
CONTINUOUS
 62
    30
 10
-65.000152999999955
 20
-149.49996999999979
 30
0.0
 11
-65.000152999999955
 21
-607.07638643812061
 31
0.0
  0
LINE
  8
SIZE
  6
CONTINUOUS
 62
    30
 10
65.00019999999995
 20
-149.49996999999979
 30
0.0
 11
65.00019999999995
 21
-607.07638643812061
 31
0.0
  0
LINE
  8
SIZE
  6
CONTINUOUS
 62
    30
 10
-53.000152999999948
 20
-587.07638643812061
 30
0.0
 11
53.00019999999995
 21
-587.07638643812061
 31
0.0
  0
LINE
  8
SIZE
  6
CONTINUOUS
 62
    30
 10
65.00019999999995
 20
-587.07638643812061
 30
0.0
 11
301.08434755696271
 21
-587.07638643812061
 31
0.0
  0
CIRCLE
  8
SIZE
  6
CONTINUOUS
 62
    30
 10
-65.000152999999955
 20
-587.07638643812061
 30
0.0
 40
6.0
  0
LINE
  8
SIZE
  6
CONTINUOUS
 62
    30
 10
-65.000152999999955
 20
-587.07638643812061
 30
0.0
 11
-53.000152999999948
 21
-587.07638643812061
 31
0.0
  0
CIRCLE
  8
SIZE
  6
CONTINUOUS
 62
    30
 10
65.00019999999995
 20
-587.07638643812061
 30
0.0
 40
6.0
  0
LINE
  8
SIZE
  6
CONTINUOUS
 62
    30
 10
65.00019999999995
 20
-587.07638643812061
 30
0.0
 11
53.00019999999995
 21
-587.07638643812061
 31
0.0
  0
TEXT
  8
SIZE
  6
CONTINUOUS
 62
    30
 10
138.94149041410569
 20
-562.07638643812061
 30
0.0
 40
64.0
  1
130
 41
0.9
 72
     1
 11
207.5129189855343
 21
-562.07638643812061
 31
0.0
  0
POINT
  8
DEFPOINTS
  6
CONTINUOUS
 62
    30
 10
-65.000152999999955
 20
-129.49996999999979
 30
0.0
  0
POINT
  8
DEFPOINTS
  6
CONTINUOUS
 62
    30
 10
65.00019999999995
 20
-129.49996999999979
 30
0.0
  0
POINT
  8
DEFPOINTS
  6
CONTINUOUS
 62
    30
 10
65.00019999999995
 20
-587.07638643812061
 30
0.0
  0
LINE
  8
SIZE
  6
CONTINUOUS
 62
    30
 10
-117.49996899999999
 20
-96.999999999999886
 30
0.0
 11
-117.49996899999999
 21
-736.0063422838756
 31
0.0
  0
LINE
  8
SIZE
  6
CONTINUOUS
 62
    30
 10
117.49996899999999
 20
-96.999999999999886
 30
0.0
 11
117.49996899999999
 21
-736.0063422838756
 31
0.0
  0
LINE
  8
SIZE
  6
CONTINUOUS
 62
    30
 10
-105.49996899999999
 20
-716.0063422838756
 30
0.0
 11
105.49996899999999
 21
-716.0063422838756
 31
0.0
  0
CIRCLE
  8
SIZE
  6
CONTINUOUS
 62
    30
 10
-117.49996899999999
 20
-716.0063422838756
 30
0.0
 40
6.0
  0
LINE
  8
SIZE
  6
CONTINUOUS
 62
    30
 10
-117.49996899999999
 20
-716.0063422838756
 30
0.0
 11
-105.49996899999999
 21
-716.0063422838756
 31
0.0
  0
CIRCLE
  8
SIZE
  6
CONTINUOUS
 62
    30
 10
117.49996899999999
 20
-716.0063422838756
 30
0.0
 40
6.0
  0
LINE
  8
SIZE
  6
CONTINUOUS
 62
    30
 10
117.49996899999999
 20
-716.0063422838756
 30
0.0
 11
105.49996899999999
 21
-716.0063422838756
 31
0.0
  0
TEXT
  8
SIZE
  6
CONTINUOUS
 62
    30
 10
-74.05714285714285
 20
-691.0063422838756
 30
0.0
 40
64.0
  1
235
 41
0.9
 72
     1
 11
0.0
 21
-691.0063422838756
 31
0.0
  0
POINT
  8
DEFPOINTS
  6
CONTINUOUS
 62
    30
 10
-117.49996899999999
 20
-76.999999999999886
 30
0.0
  0
POINT
  8
DEFPOINTS
  6
CONTINUOUS
 62
    30
 10
117.49996899999999
 20
-76.999999999999886
 30
0.0
  0
POINT
  8
DEFPOINTS
  6
CONTINUOUS
 62
    30
 10
117.49996899999999
 20
-716.0063422838756
 30
0.0
  0
LINE
  8
SIZE
  6
CONTINUOUS
 62
    30
 10
-127.4999689999986
 20
-116.3999911725663
 30
0.0
 11
-127.4999689999986
 21
-861.08764802629594
 31
0.0
  0
LINE
  8
SIZE
  6
CONTINUOUS
 62
    30
 10
127.49996899999999
 20
-116.39999399999989
 30
0.0
 11
127.49996899999999
 21
-861.08764802629594
 31
0.0
  0
LINE
  8
SIZE
  6
CONTINUOUS
 62
    30
 10
-115.4999689999986
 20
-841.08764802629594
 30
0.0
 11
115.49996899999999
 21
-841.08764802629594
 31
0.0
  0
CIRCLE
  8
SIZE
  6
CONTINUOUS
 62
    30
 10
-127.4999689999986
 20
-841.08764802629594
 30
0.0
 40
6.0
  0
LINE
  8
SIZE
  6
CONTINUOUS
 62
    30
 10
-127.4999689999986
 20
-841.08764802629594
 30
0.0
 11
-115.4999689999986
 21
-841.08764802629594
 31
0.0
  0
CIRCLE
  8
SIZE
  6
CONTINUOUS
 62
    30
 10
127.49996899999999
 20
-841.08764802629594
 30
0.0
 40
6.0
  0
LINE
  8
SIZE
  6
CONTINUOUS
 62
    30
 10
127.49996899999999
 20
-841.08764802629594
 30
0.0
 11
115.49996899999999
 21
-841.08764802629594
 31
0.0
  0
TEXT
  8
SIZE
  6
CONTINUOUS
 62
    30
 10
-74.05714285714285
 20
-816.08764802629594
 30
0.0
 40
64.0
  1
255
 41
0.9
 72
     1
 11
0.0
 21
-816.08764802629594
 31
0.0
  0
POINT
  8
DEFPOINTS
  6
CONTINUOUS
 62
    30
 10
-127.4999689999986
 20
-96.399991172566274
 30
0.0
  0
POINT
  8
DEFPOINTS
  6
CONTINUOUS
 62
    30
 10
127.49996899999999
 20
-96.399993999999879
 30
0.0
  0
POINT
  8
DEFPOINTS
  6
CONTINUOUS
 62
    30
 10
127.49996899999999
 20
-841.08764802629594
 30
0.0
  0
CIRCLE
  8
FIX
  6
CONTINUOUS
 62
    11
 10
65.000152999999955
 20
117.49996900000021
 30
0.0
 40
5.0
  0
CIRCLE
  8
FIX
  6
CONTINUOUS
 62
    11
 10
117.49996899999999
 20
65.0
 30
0.0
 40
5.0
  0
CIRCLE
  8
FIX
  6
CONTINUOUS
 62
    11
 10
117.49996899999999
 20
-64.999999999999886
 30
0.0
 40
5.0
  0
CIRCLE
  8
FIX
  6
CONTINUOUS
 62
    11
 10
65.000152999999955
 20
-117.49996999999981
 30
0.0
 40
5.0
  0
CIRCLE
  8
FIX
  6
CONTINUOUS
 62
    11
 10
-65.000152999999955
 20
117.49996900000021
 30
0.0
 40
5.0
  0
CIRCLE
  8
FIX
  6
CONTINUOUS
 62
    11
 10
-117.49996899999999
 20
65.0
 30
0.0
 40
5.0
  0
CIRCLE
  8
FIX
  6
CONTINUOUS
 62
    11
 10
-117.49996899999999
 20
-64.999999999999886
 30
0.0
 40
5.0
  0
CIRCLE
  8
FIX
  6
CONTINUOUS
 62
    11
 10
-65.000152999999955
 20
-117.49996999999981
 30
0.0
 40
5.0
  0
TEXT
  8
NOTE
  6
CONTINUOUS
 62
     4
 10
381.20925154338471
 20
359.32822532058481
 30
0.0
 40
63.999999999999993
  1
8-φ5×10
 50
359.85073780173718
 41
0.9
  0
LINE
  8
NOTE
  6
CONTINUOUS
 62
     4
 10
851.96269841509729
 20
329.8116
 30
0.0
 11
352.78353852507553
 21
329.81163972921422
 31
0.0
  0
LINE
  8
NOTE
  6
CONTINUOUS
 62
     4
 10
117.4999705404889
 20
65.00000325023575
 30
0.0
 11
352.78353852507553
 21
329.81163972921422
 31
0.0
  0
LINE
  8
NOTE
  6
CONTINUOUS
 62
     4
 10
117.4999705404889
 20
65.00000325023575
 30
0.0
 11
148.81271588806791
 21
87.683425669119174
 31
0.0
  0
LINE
  8
NOTE
  6
CONTINUOUS
 62
     4
 10
136.4952452345124
 20
100.1992995839969
 30
0.0
 11
117.4999705404889
 21
65.00000325023575
 31
0.0
  0
TEXT
  8
NOTE
  6
CONTINUOUS
 62
     4
 10
438.12495393737942
 20
-264.46619675314628
 30
0.0
 40
64.0
  1
EL
 41
0.9
  0
LINE
  8
NOTE
  6
CONTINUOUS
 62
     4
 10
561.26801169840655
 20
-298.33614110142253
 30
0.0
 11
410.04793805569619
 21
-298.33614110138433
 31
0.0
  0
LINE
  8
NOTE
  6
CONTINUOUS
 62
     4
 10
83.0
 20
-62.999999999999893
 30
0.0
 11
410.04793805569619
 21
-298.33614110138433
 31
0.0
  0
LINE
  8
NOTE
  6
CONTINUOUS
 62
     4
 10
83.0
 20
-62.999999999999893
 30
0.0
 11
119.8763551489924
 21
-74.753671317909721
 31
0.0
  0
LINE
  8
NOTE
  6
CONTINUOUS
 62
     4
 10
106.67488789247911
 20
-95.156205736293941
 30
0.0
 11
83.0
 21
-62.999999999999893
 31
0.0
  0
LINE
  8
SIZE
  6
CONTINUOUS
 62
    30
 10
-69.0
 20
-188.4998019999999
 30
0.0
 11
-197.59244911019411
 21
-188.4998019999999
 31
0.0
  0
LINE
  8
SIZE
  6
CONTINUOUS
 62
    30
 10
-69.0
 20
-215.49980199999999
 30
0.0
 11
-197.59244911019411
 21
-215.4998019999999
 31
0.0
  0
LINE
  8
SIZE
  6
CONTINUOUS
 62
    30
 10
-177.59244911019411
 20
-176.4998019999999
 30
0.0
 11
-177.59244911019411
 21
-164.4998019999999
 31
0.0
  0
LINE
  8
SIZE
  6
CONTINUOUS
 62
    30
 10
-177.59244911019411
 20
-227.49980199999999
 30
0.0
 11
-177.59244911019411
 21
-382.75694485714263
 31
0.0
  0
LINE
  8
SIZE
  6
CONTINUOUS
 62
    30
 10
-177.59244911019411
 20
-188.4998019999999
 30
0.0
 11
-177.59244911019411
 21
-215.49980199999999
 31
0.0
  0
CIRCLE
  8
SIZE
  6
CONTINUOUS
 62
    30
 10
-177.59244911019411
 20
-188.4998019999999
 30
0.0
 40
6.0
  0
LINE
  8
SIZE
  6
CONTINUOUS
 62
    30
 10
-177.59244911019411
 20
-188.4998019999999
 30
0.0
 11
-177.59244911019411
 21
-176.4998019999999
 31
0.0
  0
CIRCLE
  8
SIZE
  6
CONTINUOUS
 62
    30
 10
-177.59244911019411
 20
-215.49980199999999
 30
0.0
 40
6.0
  0
LINE
  8
SIZE
  6
CONTINUOUS
 62
    30
 10
-177.59244911019411
 20
-215.49980199999999
 30
0.0
 11
-177.59244911019411
 21
-227.49980199999999
 31
0.0
  0
TEXT
  8
SIZE
  6
CONTINUOUS
 62
    30
 10
-202.59244911019411
 20
-357.75694485714291
 30
0.0
 40
64.0
  1
27
 50
90.0
 41
0.9
 72
     1
 11
-202.59244911019411
 21
-311.12837342857142
 31
0.0
  0
POINT
  8
DEFPOINTS
  6
CONTINUOUS
 62
    30
 10
-49.0
 20
-188.4998019999999
 30
0.0
  0
POINT
  8
DEFPOINTS
  6
CONTINUOUS
 62
    30
 10
-49.0
 20
-215.49980199999999
 30
0.0
  0
POINT
  8
DEFPOINTS
  6
CONTINUOUS
 62
    30
 10
-177.59244911019411
 20
-215.49980199999999
 30
0.0
  0
LINE
  8
SIZE
  6
CONTINUOUS
 62
    30
 10
-72.5
 20
-163.4998019999999
 30
0.0
 11
-308.83640205764999
 21
-163.49980199999979
 31
0.0
  0
LINE
  8
SIZE
  6
CONTINUOUS
 62
    30
 10
-69.0
 20
-215.4998019999999
 30
0.0
 11
-308.83640205764999
 21
-215.4998019999997
 31
0.0
  0
LINE
  8
SIZE
  6
CONTINUOUS
 62
    30
 10
-288.83640205764999
 20
-151.49980199999979
 30
0.0
 11
-288.83640205764999
 21
-139.49980199999979
 31
0.0
  0
LINE
  8
SIZE
  6
CONTINUOUS
 62
    30
 10
-288.83640205764999
 20
-227.4998019999997
 30
0.0
 11
-288.83640205764999
 21
-382.75694485714263
 31
0.0
  0
LINE
  8
SIZE
  6
CONTINUOUS
 62
    30
 10
-288.83640205764999
 20
-163.49980199999979
 30
0.0
 11
-288.83640205764999
 21
-215.4998019999997
 31
0.0
  0
CIRCLE
  8
SIZE
  6
CONTINUOUS
 62
    30
 10
-288.83640205764999
 20
-163.49980199999979
 30
0.0
 40
6.0
  0
LINE
  8
SIZE
  6
CONTINUOUS
 62
    30
 10
-288.83640205764999
 20
-163.49980199999979
 30
0.0
 11
-288.83640205764999
 21
-151.49980199999979
 31
0.0
  0
CIRCLE
  8
SIZE
  6
CONTINUOUS
 62
    30
 10
-288.83640205764999
 20
-215.4998019999997
 30
0.0
 40
6.0
  0
LINE
  8
SIZE
  6
CONTINUOUS
 62
    30
 10
-288.83640205764999
 20
-215.4998019999997
 30
0.0
 11
-288.83640205764999
 21
-227.4998019999997
 31
0.0
  0
TEXT
  8
SIZE
  6
CONTINUOUS
 62
    30
 10
-313.83640205764999
 20
-357.75694485714263
 30
0.0
 40
64.0
  1
52
 50
90.0
 41
0.9
 72
     1
 11
-313.83640205764999
 21
-311.12837342857119
 31
0.0
  0
POINT
  8
DEFPOINTS
  6
CONTINUOUS
 62
    30
 10
-52.5
 20
-163.4998019999999
 30
0.0
  0
POINT
  8
DEFPOINTS
  6
CONTINUOUS
 62
    30
 10
-49.0
 20
-215.4998019999999
 30
0.0
  0
POINT
  8
DEFPOINTS
  6
CONTINUOUS
 62
    30
 10
-288.83640205764999
 20
-215.4998019999997
 30
0.0
  0
LINE
  8
SIZE
  6
CONTINUOUS
 62
    30
 10
-121.5
 20
-101.4999999999999
 30
0.0
 11
-422.64408219382858
 21
-101.4999999999998
 31
0.0
  0
LINE
  8
SIZE
  6
CONTINUOUS
 62
    30
 10
-69.0
 20
-215.4998019999999
 30
0.0
 11
-422.64408219382858
 21
-215.4998019999997
 31
0.0
  0
LINE
  8
SIZE
  6
CONTINUOUS
 62
    30
 10
-402.64408219382858
 20
-113.4999999999998
 30
0.0
 11
-402.64408219382858
 21
-203.4998019999997
 31
0.0
  0
LINE
  8
SIZE
  6
CONTINUOUS
 62
    30
 10
-402.64408219382858
 20
-215.4998019999997
 30
0.0
 11
-402.64408219382858
 21
-410.52837342857117
 31
0.0
  0
CIRCLE
  8
SIZE
  6
CONTINUOUS
 62
    30
 10
-402.64408219382858
 20
-101.4999999999998
 30
0.0
 40
6.0
  0
LINE
  8
SIZE
  6
CONTINUOUS
 62
    30
 10
-402.64408219382858
 20
-101.4999999999998
 30
0.0
 11
-402.64408219382858
 21
-113.4999999999998
 31
0.0
  0
CIRCLE
  8
SIZE
  6
CONTINUOUS
 62
    30
 10
-402.64408219382858
 20
-215.4998019999997
 30
0.0
 40
6.0
  0
LINE
  8
SIZE
  6
CONTINUOUS
 62
    30
 10
-402.64408219382858
 20
-215.4998019999997
 30
0.0
 11
-402.64408219382858
 21
-203.4998019999997
 31
0.0
  0
TEXT
  8
SIZE
  6
CONTINUOUS
 62
    30
 10
-427.64408219382858
 20
-385.52837342857129
 30
0.0
 40
64.0
  1
114
 50
90.0
 41
0.9
 72
     1
 11
-427.64408219382858
 21
-321.07123057142849
 31
0.0
  0
POINT
  8
DEFPOINTS
  6
CONTINUOUS
 62
    30
 10
-101.5
 20
-101.4999999999999
 30
0.0
  0
POINT
  8
DEFPOINTS
  6
CONTINUOUS
 62
    30
 10
-49.0
 20
-215.4998019999999
 30
0.0
  0
POINT
  8
DEFPOINTS
  6
CONTINUOUS
 62
    30
 10
-402.64408219382858
 20
-215.4998019999997
 30
0.0
  0
LINE
  8
SIZE
  6
CONTINUOUS
 62
    30
 10
-121.5
 20
-101.4999999999999
 30
0.0
 11
-543.96527991711991
 21
-101.4999999999998
 31
0.0
  0
LINE
  8
SIZE
  6
CONTINUOUS
 62
    30
 10
-121.5
 20
101.5
 30
0.0
 11
-543.96527991711991
 21
101.5000000000001
 31
0.0
  0
LINE
  8
SIZE
  6
CONTINUOUS
 62
    30
 10
-523.96527991711991
 20
89.500000000000114
 30
0.0
 11
-523.96527991711991
 21
-89.499999999999773
 31
0.0
  0
LINE
  8
SIZE
  6
CONTINUOUS
 62
    30
 10
-523.96527991711991
 20
-101.4999999999998
 30
0.0
 11
-523.96527991711991
 21
-376.8942857142855
 31
0.0
  0
CIRCLE
  8
SIZE
  6
CONTINUOUS
 62
    30
 10
-523.96527991711991
 20
101.5000000000001
 30
0.0
 40
6.0
  0
LINE
  8
SIZE
  6
CONTINUOUS
 62
    30
 10
-523.96527991711991
 20
101.5000000000001
 30
0.0
 11
-523.96527991711991
 21
89.500000000000114
 31
0.0
  0
CIRCLE
  8
SIZE
  6
CONTINUOUS
 62
    30
 10
-523.96527991711991
 20
-101.4999999999998
 30
0.0
 40
6.0
  0
LINE
  8
SIZE
  6
CONTINUOUS
 62
    30
 10
-523.96527991711991
 20
-101.4999999999998
 30
0.0
 11
-523.96527991711991
 21
-89.499999999999773
 31
0.0
  0
TEXT
  8
SIZE
  6
CONTINUOUS
 62
    30
 10
-548.96527991711991
 20
-355.73428571428548
 30
0.0
 40
64.0
  1
□203
 50
90.0
 41
0.9
 72
     1
 11
-548.96527991711991
 21
-245.19714285714269
 31
0.0
  0
POINT
  8
DEFPOINTS
  6
CONTINUOUS
 62
    30
 10
-101.5
 20
-101.4999999999999
 30
0.0
  0
POINT
  8
DEFPOINTS
  6
CONTINUOUS
 62
    30
 10
-101.5
 20
101.5
 30
0.0
  0
POINT
  8
DEFPOINTS
  6
CONTINUOUS
 62
    30
 10
-523.96527991711991
 20
101.5000000000001
 30
0.0
  0
LINE
  8
SIZE
  6
CONTINUOUS
 62
    30
 10
-49.0
 20
-235.4998019999999
 30
0.0
 11
-49.0
 21
-365.22266353792662
 31
0.0
  0
LINE
  8
SIZE
  6
CONTINUOUS
 62
    30
 10
49.000336000000061
 20
-235.4998019999999
 30
0.0
 11
49.000336000000061
 21
-365.22266353792662
 31
0.0
  0
LINE
  8
SIZE
  6
CONTINUOUS
 62
    30
 10
-37.0
 20
-345.22266353792662
 30
0.0
 11
37.000336000000061
 21
-345.22266353792662
 31
0.0
  0
LINE
  8
SIZE
  6
CONTINUOUS
 62
    30
 10
49.000336000000061
 20
-345.22266353792662
 30
0.0
 11
340.08818180317849
 21
-345.22266353792662
 31
0.0
  0
CIRCLE
  8
SIZE
  6
CONTINUOUS
 62
    30
 10
-49.0
 20
-345.22266353792662
 30
0.0
 40
6.0
  0
LINE
  8
SIZE
  6
CONTINUOUS
 62
    30
 10
-49.0
 20
-345.22266353792662
 30
0.0
 11
-37.0
 21
-345.22266353792662
 31
0.0
  0
CIRCLE
  8
SIZE
  6
CONTINUOUS
 62
    30
 10
49.000336000000061
 20
-345.22266353792662
 30
0.0
 40
6.0
  0
LINE
  8
SIZE
  6
CONTINUOUS
 62
    30
 10
49.000336000000061
 20
-345.22266353792662
 30
0.0
 11
37.000336000000061
 21
-345.22266353792662
 31
0.0
  0
TEXT
  8
SIZE
  6
CONTINUOUS
 62
    30
 10
151.33961037460691
 20
-309.55599687125982
 30
0.0
 40
64.0
  1
φ98
 41
0.9
 72
     1
 11
238.2881818031783
 21
-309.55599687125982
 31
0.0
  0
POINT
  8
DEFPOINTS
  6
CONTINUOUS
 62
    30
 10
-49.0
 20
-215.4998019999999
 30
0.0
  0
POINT
  8
DEFPOINTS
  6
CONTINUOUS
 62
    30
 10
49.000336000000061
 20
-215.4998019999999
 30
0.0
  0
POINT
  8
DEFPOINTS
  6
CONTINUOUS
 62
    30
 10
49.000336000000061
 20
-345.22266353792662
 30
0.0
  0
LINE
  8
SIZE
  6
CONTINUOUS
 62
    30
 10
-52.5
 20
-204.9998019999999
 30
0.0
 11
-52.5
 21
-490.30396928034583
 31
0.0
  0
LINE
  8
SIZE
  6
CONTINUOUS
 62
    30
 10
52.500380000000398
 20
-204.99942196351631
 30
0.0
 11
52.500380000000398
 21
-490.30396928034583
 31
0.0
  0
LINE
  8
SIZE
  6
CONTINUOUS
 62
    30
 10
-40.5
 20
-470.30396928034583
 30
0.0
 11
40.500380000000398
 21
-470.30396928034583
 31
0.0
  0
LINE
  8
SIZE
  6
CONTINUOUS
 62
    30
 10
52.500380000000398
 20
-470.30396928034583
 30
0.0
 11
366.90064509621152
 21
-470.30396928034583
 31
0.0
  0
CIRCLE
  8
SIZE
  6
CONTINUOUS
 62
    30
 10
-52.5
 20
-470.30396928034583
 30
0.0
 40
6.0
  0
LINE
  8
SIZE
  6
CONTINUOUS
 62
    30
 10
-52.5
 20
-470.30396928034583
 30
0.0
 11
-40.5
 21
-470.30396928034583
 31
0.0
  0
CIRCLE
  8
SIZE
  6
CONTINUOUS
 62
    30
 10
52.500380000000398
 20
-470.30396928034583
 30
0.0
 40
6.0
  0
LINE
  8
SIZE
  6
CONTINUOUS
 62
    30
 10
52.500380000000398
 20
-470.30396928034583
 30
0.0
 11
40.500380000000398
 21
-470.30396928034583
 31
0.0
  0
TEXT
  8
SIZE
  6
CONTINUOUS
 62
    30
 10
134.2663593819257
 20
-434.63730261367931
 30
0.0
 40
64.0
  1
φ105
 41
0.9
 72
     1
 11
243.1577879533543
 21
-434.63730261367931
 31
0.0
  0
POINT
  8
DEFPOINTS
  6
CONTINUOUS
 62
    30
 10
-52.5
 20
-184.9998019999999
 30
0.0
  0
POINT
  8
DEFPOINTS
  6
CONTINUOUS
 62
    30
 10
52.500380000000398
 20
-184.99942196351631
 30
0.0
  0
POINT
  8
DEFPOINTS
  6
CONTINUOUS
 62
    30
 10
52.500380000000398
 20
-470.30396928034583
 30
0.0
  0
TEXT
  8
NOTE
  6
CONTINUOUS
 62
     4
 10
-39.587276634982118
 20
-325.75234790816819
 30
0.0
 40
64.0
  1
EA
 41
0.9
  0
LINE
  8
DETAIL
  6
CONTINUOUS
 62
     5
 10
-63.000046000000111
 20
-142.99999999999989
 30
0.0
 11
-142.0
 21
-142.99999999999989
 31
0.0
  0
LINE
  8
OUTLINE
  6
CONTINUOUS
 62
     3
 10
-63.000046000000111
 20
-143.00000000000011
 30
0.0
 11
-142.0
 21
-143.00000000000011
 31
0.0
  0
LINE
  8
NOTE
  6
CENTER
 62
     4
 10
97.5
 20
-62.999999999999893
 30
0.0
 11
68.5
 21
-62.999999999999893
 31
0.0
  0
LINE
  8
NOTE
  6
CENTER
 62
     4
 10
83.0
 20
-48.499999999999893
 30
0.0
 11
83.0
 21
-77.499999999999886
 31
0.0
  0
LINE
  8
DETAIL
  6
CONTINUOUS
 62
     5
 10
101.5
 20
101.5
 30
0.0
 11
-101.5
 21
101.5
 31
0.0
  0
LINE
  8
DETAIL
  6
CONTINUOUS
 62
     5
 10
101.5
 20
-101.4999999999999
 30
0.0
 11
-101.5
 21
-101.4999999999999
 31
0.0
  0
LINE
  8
DETAIL
  6
CONTINUOUS
 62
     5
 10
101.5
 20
-101.4999999999999
 30
0.0
 11
101.5
 21
101.5
 31
0.0
  0
LINE
  8
DETAIL
  6
CONTINUOUS
 62
     5
 10
-101.5
 20
-101.4999999999999
 30
0.0
 11
-101.5
 21
101.5
 31
0.0
  0
LINE
  8
DETAIL
  6
CONTINUOUS
 62
     5
 10
-52.5
 20
-184.9998019999999
 30
0.0
 11
-49.0
 21
-188.4998019999999
 31
0.0
  0
LINE
  8
OUTLINE
  6
CONTINUOUS
 62
     3
 10
-52.5
 20
-184.9998019999999
 30
0.0
 11
-49.0
 21
-188.4998019999999
 31
0.0
  0
LINE
  8
DETAIL
  6
CONTINUOUS
 62
     5
 10
52.5
 20
-184.9998019999999
 30
0.0
 11
49.000336000000061
 21
-188.4998019999999
 31
0.0
  0
LINE
  8
OUTLINE
  6
CONTINUOUS
 62
     3
 10
52.5
 20
-184.9998019999999
 30
0.0
 11
49.000336000000061
 21
-188.4998019999999
 31
0.0
  0
LINE
  8
DETAIL
  6
CONTINUOUS
 62
     5
 10
-52.5
 20
-184.9998019999999
 30
0.0
 11
52.5
 21
-184.9998019999999
 31
0.0
  0
LINE
  8
OUTLINE
  6
CONTINUOUS
 62
     3
 10
-52.5
 20
-184.9998019999999
 30
0.0
 11
52.5
 21
-184.9998019999999
 31
0.0
  0
LINE
  8
DETAIL
  6
CONTINUOUS
 62
     5
 10
49.000336000000061
 20
-188.4998019999999
 30
0.0
 11
-49.0
 21
-188.4998019999999
 31
0.0
  0
LINE
  8
OUTLINE
  6
CONTINUOUS
 62
     3
 10
49.000336000000061
 20
-188.4998019999999
 30
0.0
 11
-49.0
 21
-188.4998019999999
 31
0.0
  0
LINE
  8
DETAIL
  6
CONTINUOUS
 62
     5
 10
-49.0
 20
-215.4998019999999
 30
0.0
 11
49.000336000000061
 21
-215.4998019999999
 31
0.0
  0
LINE
  8
OUTLINE
  6
CONTINUOUS
 62
     3
 10
-49.0
 20
-215.4998019999999
 30
0.0
 11
49.000336000000061
 21
-215.4998019999999
 31
0.0
  0
LINE
  8
BASIS
  6
DASHDOT
 62
     6
 10
0.0
 20
-220.43932000000001
 30
0.0
 11
0.0
 21
173.18262999999999
 31
0.0
  0
LINE
  8
BASIS
  6
DASHDOT
 62
     6
 10
161.87807100000009
 20
0.0
 30
0.0
 11
-168.24323600000031
 21
0.0
 31
0.0
  0
CIRCLE
  8
DETAIL
  6
CONTINUOUS
 62
     5
 10
83.0
 20
-62.999999999999893
 30
0.0
 40
9.5
  0
LINE
  8
DETAIL
  6
CONTINUOUS
 62
     5
 10
-63.000046000000111
 20
-152.99975599999991
 30
0.0
 11
-63.000046000000111
 21
-103.6195639999999
 31
0.0
  0
LINE
  8
OUTLINE
  6
CONTINUOUS
 62
     3
 10
-63.000046000000111
 20
-152.99975599999991
 30
0.0
 11
-63.000046000000111
 21
-143.00000000000011
 31
0.0
  0
LINE
  8
DETAIL
  6
CONTINUOUS
 62
     5
 10
-63.000046000000111
 20
-152.99975599999991
 30
0.0
 11
-52.5
 21
-163.4998019999999
 31
0.0
  0
LINE
  8
OUTLINE
  6
CONTINUOUS
 62
     3
 10
-63.000046000000111
 20
-152.99975599999991
 30
0.0
 11
-52.5
 21
-163.49980199999999
 31
0.0
  0
LINE
  8
DETAIL
  6
CONTINUOUS
 62
     5
 10
-52.5
 20
-163.4998019999999
 30
0.0
 11
-52.5
 21
-184.9998019999999
 31
0.0
  0
LINE
  8
OUTLINE
  6
CONTINUOUS
 62
     3
 10
-52.5
 20
-163.49980199999999
 30
0.0
 11
-52.5
 21
-184.9998019999999
 31
0.0
  0
LINE
  8
DETAIL
  6
CONTINUOUS
 62
     5
 10
-52.5
 20
-163.4998019999999
 30
0.0
 11
52.5
 21
-163.4998019999999
 31
0.0
  0
LINE
  8
OUTLINE
  6
CONTINUOUS
 62
     3
 10
-52.5
 20
-163.49980199999999
 30
0.0
 11
52.5
 21
-163.49980199999999
 31
0.0
  0
LINE
  8
DETAIL
  6
CONTINUOUS
 62
     5
 10
63.000046000000111
 20
-152.99975599999991
 30
0.0
 11
63.000046000000111
 21
-103.6195639999999
 31
0.0
  0
LINE
  8
OUTLINE
  6
CONTINUOUS
 62
     3
 10
63.000046000000111
 20
-152.99975599999991
 30
0.0
 11
63.000046000000111
 21
-143.00000000000011
 31
0.0
  0
LINE
  8
DETAIL
  6
CONTINUOUS
 62
     5
 10
63.000046000000111
 20
-152.99975599999991
 30
0.0
 11
52.5
 21
-163.4998019999999
 31
0.0
  0
LINE
  8
OUTLINE
  6
CONTINUOUS
 62
     3
 10
63.000046000000111
 20
-152.99975599999991
 30
0.0
 11
52.5
 21
-163.49980199999999
 31
0.0
  0
LINE
  8
DETAIL
  6
CONTINUOUS
 62
     5
 10
52.5
 20
-163.4998019999999
 30
0.0
 11
52.5
 21
-184.9998019999999
 31
0.0
  0
LINE
  8
OUTLINE
  6
CONTINUOUS
 62
     3
 10
52.5
 20
-163.49980199999999
 30
0.0
 11
52.5
 21
-184.9998019999999
 31
0.0
  0
LINE
  8
DETAIL
  6
CONTINUOUS
 62
     5
 10
49.000336000000061
 20
-188.4998019999999
 30
0.0
 11
49.000336000000061
 21
-215.4998019999999
 31
0.0
  0
LINE
  8
OUTLINE
  6
CONTINUOUS
 62
     3
 10
49.000336000000061
 20
-188.4998019999999
 30
0.0
 11
49.000336000000061
 21
-215.4998019999999
 31
0.0
  0
LINE
  8
DETAIL
  6
CONTINUOUS
 62
     5
 10
-49.0
 20
-188.4998019999999
 30
0.0
 11
-49.0
 21
-215.4998019999999
 31
0.0
  0
LINE
  8
OUTLINE
  6
CONTINUOUS
 62
     3
 10
-49.0
 20
-188.4998019999999
 30
0.0
 11
-49.0
 21
-215.4998019999999
 31
0.0
  0
LINE
  8
DETAIL
  6
CONTINUOUS
 62
     5
 10
67.598637000000053
 20
-103.6195639999999
 30
0.0
 11
67.598637000000053
 21
-101.4999999999999
 31
0.0
  0
LINE
  8
DETAIL
  6
CONTINUOUS
 62
     5
 10
67.598637000000053
 20
-103.6195639999999
 30
0.0
 11
-67.598301999999876
 21
-103.6195639999999
 31
0.0
  0
LINE
  8
DETAIL
  6
CONTINUOUS
 62
     5
 10
67.598637000000053
 20
-101.51916799999979
 30
0.0
 11
-67.598301999999876
 21
-101.51916799999979
 31
0.0
  0
LINE
  8
DETAIL
  6
CONTINUOUS
 62
     5
 10
-67.598301999999876
 20
-103.6195639999999
 30
0.0
 11
-67.598301999999876
 21
-101.4999999999999
 31
0.0
  0
CIRCLE
  8
DETAIL
  6
CONTINUOUS
 62
     5
 10
12.00226599999996
 20
6.5012270000000854
 30
0.0
 40
31.505949000000001
  0
LINE
  8
DETAIL
  6
CONTINUOUS
 62
     5
 10
-143.0
 20
142.0
 30
0.0
 11
-143.0
 21
0.0
 31
0.0
  0
LINE
  8
OUTLINE
  6
CONTINUOUS
 62
     3
 10
-143.0
 20
142.0
 30
0.0
 11
-143.0
 21
0.0
 31
0.0
  0
LINE
  8
DETAIL
  6
CONTINUOUS
 62
     5
 10
-143.0
 20
-141.99999999999989
 30
0.0
 11
-143.0
 21
0.0
 31
0.0
  0
LINE
  8
OUTLINE
  6
CONTINUOUS
 62
     3
 10
-143.0
 20
-142.00000000000011
 30
0.0
 11
-143.0
 21
0.0
 31
0.0
  0
ARC
  8
DETAIL
  6
CONTINUOUS
 62
     5
 10
-142.0
 20
142.0
 30
0.0
 40
1.0
 50
90.0
 51
180.0
  0
ARC
  8
OUTLINE
  6
CONTINUOUS
 62
     3
 10
-142.0
 20
142.0
 30
0.0
 40
1.0
 50
90.0
 51
180.0
  0
ARC
  8
DETAIL
  6
CONTINUOUS
 62
     5
 10
-142.0
 20
-141.99999999999989
 30
0.0
 40
1.0
 50
180.0
 51
270.0
  0
ARC
  8
OUTLINE
  6
CONTINUOUS
 62
     3
 10
-142.0
 20
-142.00000000000011
 30
0.0
 40
1.0
 50
180.0
 51
270.0
  0
LINE
  8
DETAIL
  6
CONTINUOUS
 62
     5
 10
142.0
 20
143.0
 30
0.0
 11
-142.0
 21
143.0
 31
0.0
  0
LINE
  8
OUTLINE
  6
CONTINUOUS
 62
     3
 10
142.0
 20
143.0
 30
0.0
 11
-142.0
 21
143.0
 31
0.0
  0
LINE
  8
DETAIL
  6
CONTINUOUS
 62
     5
 10
142.0
 20
-142.99999999999989
 30
0.0
 11
63.000046000000111
 21
-142.99999999999989
 31
0.0
  0
LINE
  8
OUTLINE
  6
CONTINUOUS
 62
     3
 10
142.0
 20
-143.00000000000011
 30
0.0
 11
63.000046000000111
 21
-143.00000000000011
 31
0.0
  0
LINE
  8
DETAIL
  6
CONTINUOUS
 62
     5
 10
143.0
 20
142.0
 30
0.0
 11
143.0
 21
0.0
 31
0.0
  0
LINE
  8
OUTLINE
  6
CONTINUOUS
 62
     3
 10
143.0
 20
142.0
 30
0.0
 11
143.0
 21
0.0
 31
0.0
  0
LINE
  8
DETAIL
  6
CONTINUOUS
 62
     5
 10
143.0
 20
-141.99999999999989
 30
0.0
 11
143.0
 21
0.0
 31
0.0
  0
LINE
  8
OUTLINE
  6
CONTINUOUS
 62
     3
 10
143.0
 20
-142.00000000000011
 30
0.0
 11
143.0
 21
0.0
 31
0.0
  0
ARC
  8
DETAIL
  6
CONTINUOUS
 62
     5
 10
142.0
 20
142.0
 30
0.0
 40
1.0
 50
0.0
 51
90.0
  0
ARC
  8
OUTLINE
  6
CONTINUOUS
 62
     3
 10
142.0
 20
142.0
 30
0.0
 40
1.0
 50
0.0
 51
90.0
  0
ARC
  8
DETAIL
  6
CONTINUOUS
 62
     5
 10
142.0
 20
-141.99999999999989
 30
0.0
 40
1.0
 50
270.0
 51
0.0
  0
ARC
  8
OUTLINE
  6
CONTINUOUS
 62
     3
 10
142.0
 20
-142.00000000000011
 30
0.0
 40
1.0
 50
270.0
 51
0.0
  0
LINE
  8
DETAIL
  6
CONTINUOUS
 62
     5
 10
-115.00007600000031
 20
-62.499999999999893
 30
0.0
 11
-120.00007600000031
 21
-62.499999999999893
 31
0.0
  0
LINE
  8
DETAIL
  6
CONTINUOUS
 62
     5
 10
115.00007600000031
 20
-62.499999999999893
 30
0.0
 11
120.00007600000031
 21
-62.499999999999893
 31
0.0
  0
LINE
  8
DETAIL
  6
CONTINUOUS
 62
     5
 10
115.00007600000031
 20
62.5
 30
0.0
 11
120.00007600000031
 21
62.5
 31
0.0
  0
LINE
  8
DETAIL
  6
CONTINUOUS
 62
     5
 10
-115.00007600000031
 20
62.5
 30
0.0
 11
-120.00007600000031
 21
62.5
 31
0.0
  0
ARC
  8
DETAIL
  6
CONTINUOUS
 62
     5
 10
-120.00007600000031
 20
-64.999999999999886
 30
0.0
 40
2.5
 50
90.0
 51
270.0
  0
ARC
  8
DETAIL
  6
CONTINUOUS
 62
     5
 10
120.00007600000031
 20
-64.999999999999886
 30
0.0
 40
2.5
 50
270.0
 51
90.0
  0
ARC
  8
DETAIL
  6
CONTINUOUS
 62
     5
 10
120.00007600000031
 20
65.0
 30
0.0
 40
2.5
 50
270.0
 51
90.0
  0
ARC
  8
DETAIL
  6
CONTINUOUS
 62
     5
 10
-120.00007600000031
 20
65.0
 30
0.0
 40
2.5
 50
90.0
 51
270.0
  0
LINE
  8
NOTE
  6
CENTER
 62
     4
 10
-105.49996899999999
 20
-64.999999999999886
 30
0.0
 11
-129.49996899999999
 21
-64.999999999999886
 31
0.0
  0
LINE
  8
NOTE
  6
CENTER
 62
     4
 10
105.49996899999999
 20
-64.999999999999886
 30
0.0
 11
129.49996899999999
 21
-64.999999999999886
 31
0.0
  0
LINE
  8
NOTE
  6
CENTER
 62
     4
 10
105.49996899999999
 20
65.0
 30
0.0
 11
129.49996899999999
 21
65.0
 31
0.0
  0
LINE
  8
NOTE
  6
CENTER
 62
     4
 10
-105.49996899999999
 20
65.0
 30
0.0
 11
-129.49996899999999
 21
65.0
 31
0.0
  0
LINE
  8
NOTE
  6
CENTER
 62
     4
 10
-117.49996899999999
 20
-52.999999999999893
 30
0.0
 11
-117.49996899999999
 21
-76.999999999999886
 31
0.0
  0
LINE
  8
NOTE
  6
CENTER
 62
     4
 10
117.49996899999999
 20
-52.999999999999893
 30
0.0
 11
117.49996899999999
 21
-76.999999999999886
 31
0.0
  0
LINE
  8
NOTE
  6
CENTER
 62
     4
 10
117.49996899999999
 20
53.0
 30
0.0
 11
117.49996899999999
 21
77.0
 31
0.0
  0
LINE
  8
NOTE
  6
CENTER
 62
     4
 10
-117.49996899999999
 20
53.0
 30
0.0
 11
-117.49996899999999
 21
77.0
 31
0.0
  0
LINE
  8
DETAIL
  6
CONTINUOUS
 62
     5
 10
-120.00007600000031
 20
-67.499999999999886
 30
0.0
 11
-115.00007600000031
 21
-67.499999999999886
 31
0.0
  0
LINE
  8
DETAIL
  6
CONTINUOUS
 62
     5
 10
120.00007600000031
 20
-67.499999999999886
 30
0.0
 11
115.00007600000031
 21
-67.499999999999886
 31
0.0
  0
LINE
  8
DETAIL
  6
CONTINUOUS
 62
     5
 10
120.00007600000031
 20
67.5
 30
0.0
 11
115.00007600000031
 21
67.5
 31
0.0
  0
LINE
  8
DETAIL
  6
CONTINUOUS
 62
     5
 10
-120.00007600000031
 20
67.5
 30
0.0
 11
-115.00007600000031
 21
67.5
 31
0.0
  0
ARC
  8
DETAIL
  6
CONTINUOUS
 62
     5
 10
-115.00007600000031
 20
-64.999999999999886
 30
0.0
 40
2.5
 50
270.0
 51
90.0
  0
ARC
  8
DETAIL
  6
CONTINUOUS
 62
     5
 10
115.00007600000031
 20
-64.999999999999886
 30
0.0
 40
2.5
 50
90.0
 51
270.0
  0
ARC
  8
DETAIL
  6
CONTINUOUS
 62
     5
 10
115.00007600000031
 20
65.0
 30
0.0
 40
2.5
 50
90.0
 51
270.0
  0
ARC
  8
DETAIL
  6
CONTINUOUS
 62
     5
 10
-115.00007600000031
 20
65.0
 30
0.0
 40
2.5
 50
270.0
 51
90.0
  0
LINE
  8
DETAIL
  6
CONTINUOUS
 62
     5
 10
-127.49996899999999
 20
-96.399993999999879
 30
0.0
 11
-127.49996899999999
 21
0.0
 31
0.0
  0
LINE
  8
DETAIL
  6
CONTINUOUS
 62
     5
 10
127.49996899999999
 20
-96.399993999999879
 30
0.0
 11
127.49996899999999
 21
0.0
 31
0.0
  0
LINE
  8
DETAIL
  6
CONTINUOUS
 62
     5
 10
127.49996899999999
 20
96.399994000000106
 30
0.0
 11
127.49996899999999
 21
0.0
 31
0.0
  0
LINE
  8
DETAIL
  6
CONTINUOUS
 62
     5
 10
-127.49996899999999
 20
96.399994000000106
 30
0.0
 11
-127.49996899999999
 21
0.0
 31
0.0
  0
ARC
  8
DETAIL
  6
CONTINUOUS
 62
     5
 10
-124.49996899999999
 20
-96.399993999999879
 30
0.0
 40
3.0
 50
179.99994599998939
 51
269.99987299999759
  0
ARC
  8
DETAIL
  6
CONTINUOUS
 62
     5
 10
124.49996899999999
 20
-96.399993999999879
 30
0.0
 40
3.0
 50
270.00012700000241
 51
0.0000540000106457
  0
ARC
  8
DETAIL
  6
CONTINUOUS
 62
     5
 10
124.49996899999999
 20
96.399994000000106
 30
0.0
 40
3.0
 50
359.99994599998928
 51
89.999872999997635
  0
ARC
  8
DETAIL
  6
CONTINUOUS
 62
     5
 10
-124.49996899999999
 20
96.399994000000106
 30
0.0
 40
3.0
 50
90.000127000002351
 51
180.00005399999759
  0
LINE
  8
DETAIL
  6
CONTINUOUS
 62
     5
 10
-124.49996899999999
 20
-99.399993999999879
 30
0.0
 11
-101.5
 21
-99.399993999999879
 31
0.0
  0
LINE
  8
DETAIL
  6
CONTINUOUS
 62
     5
 10
124.49996899999999
 20
-99.399993999999879
 30
0.0
 11
101.5
 21
-99.399993999999879
 31
0.0
  0
LINE
  8
DETAIL
  6
CONTINUOUS
 62
     5
 10
124.49996899999999
 20
99.399994000000106
 30
0.0
 11
101.5
 21
99.399994000000106
 31
0.0
  0
LINE
  8
DETAIL
  6
CONTINUOUS
 62
     5
 10
-124.49996899999999
 20
99.399994000000106
 30
0.0
 11
-101.5
 21
99.399994000000106
 31
0.0
  0
LINE
  8
DETAIL
  6
CONTINUOUS
 62
     5
 10
-107.4289319999998
 20
-117.071068
 30
0.0
 11
-112.25
 21
-112.2499999999999
 31
0.0
  0
LINE
  8
DETAIL
  6
CONTINUOUS
 62
     5
 10
107.4289319999998
 20
-117.071068
 30
0.0
 11
112.25
 21
-112.2499999999999
 31
0.0
  0
LINE
  8
DETAIL
  6
CONTINUOUS
 62
     5
 10
107.4289319999998
 20
117.0710670000001
 30
0.0
 11
112.25
 21
112.25
 31
0.0
  0
LINE
  8
DETAIL
  6
CONTINUOUS
 62
     5
 10
-107.4289319999998
 20
117.0710670000001
 30
0.0
 11
-112.25
 21
112.25
 31
0.0
  0
LINE
  8
DETAIL
  6
CONTINUOUS
 62
     5
 10
-100.35786400000011
 20
-119.9999999999999
 30
0.0
 11
-99.399993999999879
 21
-119.9999999999999
 31
0.0
  0
LINE
  8
DETAIL
  6
CONTINUOUS
 62
     5
 10
100.35786400000011
 20
-119.9999999999999
 30
0.0
 11
99.399993999999879
 21
-119.9999999999999
 31
0.0
  0
LINE
  8
DETAIL
  6
CONTINUOUS
 62
     5
 10
100.35786400000011
 20
120.0
 30
0.0
 11
99.399993999999879
 21
120.0
 31
0.0
  0
LINE
  8
DETAIL
  6
CONTINUOUS
 62
     5
 10
-100.35786400000011
 20
120.0
 30
0.0
 11
-99.399993999999879
 21
120.0
 31
0.0
  0
ARC
  8
DETAIL
  6
CONTINUOUS
 62
     5
 10
-100.35786400000011
 20
-109.9999999999999
 30
0.0
 40
10.0
 50
225.00000000001839
 51
270.0
  0
ARC
  8
DETAIL
  6
CONTINUOUS
 62
     5
 10
100.35786400000011
 20
-109.9999999999999
 30
0.0
 40
10.0
 50
270.0
 51
314.99999999998158
  0
ARC
  8
DETAIL
  6
CONTINUOUS
 62
     5
 10
100.35786400000011
 20
110.0
 30
0.0
 40
10.0
 50
45.000000000018417
 51
90.0
  0
ARC
  8
DETAIL
  6
CONTINUOUS
 62
     5
 10
-100.35786400000011
 20
110.0
 30
0.0
 40
10.0
 50
90.0
 51
134.99999999998161
  0
LINE
  8
DETAIL
  6
CONTINUOUS
 62
     5
 10
-120.0
 20
-100.3578649999999
 30
0.0
 11
-120.0
 21
-99.399993999999879
 31
0.0
  0
LINE
  8
DETAIL
  6
CONTINUOUS
 62
     5
 10
120.0
 20
-100.3578649999999
 30
0.0
 11
120.0
 21
-99.399993999999879
 31
0.0
  0
LINE
  8
DETAIL
  6
CONTINUOUS
 62
     5
 10
120.0
 20
100.35786400000021
 30
0.0
 11
120.0
 21
99.399994000000106
 31
0.0
  0
LINE
  8
DETAIL
  6
CONTINUOUS
 62
     5
 10
-120.0
 20
100.35786400000021
 30
0.0
 11
-120.0
 21
99.399994000000106
 31
0.0
  0
ARC
  8
DETAIL
  6
CONTINUOUS
 62
     5
 10
-110.0
 20
-100.3578649999999
 30
0.0
 40
10.0
 50
180.0
 51
225.00000000001839
  0
ARC
  8
DETAIL
  6
CONTINUOUS
 62
     5
 10
110.0
 20
-100.3578649999999
 30
0.0
 40
10.0
 50
314.99999999998158
 51
0.0
  0
ARC
  8
DETAIL
  6
CONTINUOUS
 62
     5
 10
110.0
 20
100.35786400000021
 30
0.0
 40
10.0
 50
0.0
 51
45.000000000018417
  0
ARC
  8
DETAIL
  6
CONTINUOUS
 62
     5
 10
-110.0
 20
100.35786400000021
 30
0.0
 40
10.0
 50
134.99999999998161
 51
180.0
  0
LINE
  8
DETAIL
  6
CONTINUOUS
 62
     5
 10
-99.399811000000227
 20
-124.500063
 30
0.0
 11
-99.399811000000227
 21
-101.4999999999999
 31
0.0
  0
LINE
  8
DETAIL
  6
CONTINUOUS
 62
     5
 10
99.399811000000227
 20
-124.500063
 30
0.0
 11
99.399811000000227
 21
-101.4999999999999
 31
0.0
  0
LINE
  8
DETAIL
  6
CONTINUOUS
 62
     5
 10
99.399811000000227
 20
124.5000630000001
 30
0.0
 11
99.399811000000227
 21
101.5
 31
0.0
  0
LINE
  8
DETAIL
  6
CONTINUOUS
 62
     5
 10
-99.399811000000227
 20
124.5000630000001
 30
0.0
 11
-99.399811000000227
 21
101.5
 31
0.0
  0
LINE
  8
DETAIL
  6
CONTINUOUS
 62
     5
 10
-117.0710680000002
 20
-107.4289329999999
 30
0.0
 11
-112.25
 21
-112.2499999999999
 31
0.0
  0
LINE
  8
DETAIL
  6
CONTINUOUS
 62
     5
 10
117.0710680000002
 20
-107.4289329999999
 30
0.0
 11
112.25
 21
-112.2499999999999
 31
0.0
  0
LINE
  8
DETAIL
  6
CONTINUOUS
 62
     5
 10
117.0710680000002
 20
107.428932
 30
0.0
 11
112.25
 21
112.25
 31
0.0
  0
LINE
  8
DETAIL
  6
CONTINUOUS
 62
     5
 10
-117.0710680000002
 20
107.428932
 30
0.0
 11
-112.25
 21
112.25
 31
0.0
  0
LINE
  8
NOTE
  6
CENTER
 62
     4
 10
-53.000152999999948
 20
-117.49996999999981
 30
0.0
 11
-77.000152999999955
 21
-117.49996999999981
 31
0.0
  0
LINE
  8
NOTE
  6
CENTER
 62
     4
 10
53.000152999999948
 20
-117.49996999999981
 30
0.0
 11
77.000152999999955
 21
-117.49996999999981
 31
0.0
  0
LINE
  8
NOTE
  6
CENTER
 62
     4
 10
53.000152999999948
 20
117.49996900000021
 30
0.0
 11
77.000152999999955
 21
117.49996900000021
 31
0.0
  0
LINE
  8
NOTE
  6
CENTER
 62
     4
 10
-53.000152999999948
 20
117.49996900000021
 30
0.0
 11
-77.000152999999955
 21
117.49996900000021
 31
0.0
  0
LINE
  8
NOTE
  6
CENTER
 62
     4
 10
-65.000152999999955
 20
-105.49996999999981
 30
0.0
 11
-65.000152999999955
 21
-129.49996999999979
 31
0.0
  0
LINE
  8
NOTE
  6
CENTER
 62
     4
 10
65.000152999999955
 20
-105.49996999999981
 30
0.0
 11
65.000152999999955
 21
-129.49996999999979
 31
0.0
  0
LINE
  8
NOTE
  6
CENTER
 62
     4
 10
65.000152999999955
 20
105.49996900000021
 30
0.0
 11
65.000152999999955
 21
129.49996900000019
 31
0.0
  0
LINE
  8
NOTE
  6
CENTER
 62
     4
 10
-65.000152999999955
 20
105.49996900000021
 30
0.0
 11
-65.000152999999955
 21
129.49996900000019
 31
0.0
  0
LINE
  8
DETAIL
  6
CONTINUOUS
 62
     5
 10
-62.500152999999948
 20
-115.00007699999991
 30
0.0
 11
-62.500152999999948
 21
-120.00007699999991
 31
0.0
  0
LINE
  8
DETAIL
  6
CONTINUOUS
 62
     5
 10
62.500152999999948
 20
-115.00007699999991
 30
0.0
 11
62.500152999999948
 21
-120.00007699999991
 31
0.0
  0
LINE
  8
DETAIL
  6
CONTINUOUS
 62
     5
 10
62.500152999999948
 20
115.00007600000001
 30
0.0
 11
62.500152999999948
 21
120.00007600000001
 31
0.0
  0
LINE
  8
DETAIL
  6
CONTINUOUS
 62
     5
 10
-62.500152999999948
 20
115.00007600000001
 30
0.0
 11
-62.500152999999948
 21
120.00007600000001
 31
0.0
  0
LINE
  8
DETAIL
  6
CONTINUOUS
 62
     5
 10
-67.500152999999955
 20
-120.00007699999991
 30
0.0
 11
-67.500152999999955
 21
-115.00007699999991
 31
0.0
  0
LINE
  8
DETAIL
  6
CONTINUOUS
 62
     5
 10
67.500152999999955
 20
-120.00007699999991
 30
0.0
 11
67.500152999999955
 21
-115.00007699999991
 31
0.0
  0
LINE
  8
DETAIL
  6
CONTINUOUS
 62
     5
 10
67.500152999999955
 20
120.00007600000001
 30
0.0
 11
67.500152999999955
 21
115.00007600000001
 31
0.0
  0
LINE
  8
DETAIL
  6
CONTINUOUS
 62
     5
 10
-67.500152999999955
 20
120.00007600000001
 30
0.0
 11
-67.500152999999955
 21
115.00007600000001
 31
0.0
  0
ARC
  8
DETAIL
  6
CONTINUOUS
 62
     5
 10
-65.000152999999955
 20
-115.00007699999991
 30
0.0
 40
2.5
 50
0.0
 51
180.00000099999491
  0
ARC
  8
DETAIL
  6
CONTINUOUS
 62
     5
 10
65.000152999999955
 20
-115.00007699999991
 30
0.0
 40
2.5
 50
359.9999989999921
 51
180.0
  0
ARC
  8
DETAIL
  6
CONTINUOUS
 62
     5
 10
65.000152999999955
 20
115.00007600000001
 30
0.0
 40
2.5
 50
180.0
 51
0.0000009999948896
  0
ARC
  8
DETAIL
  6
CONTINUOUS
 62
     5
 10
-65.000152999999955
 20
115.00007600000001
 30
0.0
 40
2.5
 50
179.9999989999921
 51
0.0
  0
ARC
  8
DETAIL
  6
CONTINUOUS
 62
     5
 10
-65.000152999999955
 20
-120.00007699999991
 30
0.0
 40
2.5
 50
180.00000099999491
 51
0.0
  0
ARC
  8
DETAIL
  6
CONTINUOUS
 62
     5
 10
65.000152999999955
 20
-120.00007699999991
 30
0.0
 40
2.5
 50
180.0
 51
359.9999989999921
  0
ARC
  8
DETAIL
  6
CONTINUOUS
 62
     5
 10
65.000152999999955
 20
120.00007600000001
 30
0.0
 40
2.5
 50
0.0000009999948896
 51
180.0
  0
ARC
  8
DETAIL
  6
CONTINUOUS
 62
     5
 10
-65.000152999999955
 20
120.00007600000001
 30
0.0
 40
2.5
 50
0.0
 51
179.9999989999921
  0
ARC
  8
DETAIL
  6
CONTINUOUS
 62
     5
 10
-96.399993999999879
 20
-124.49992399999999
 30
0.0
 40
3.0
 50
179.99994599998939
 51
269.99987299999759
  0
ARC
  8
DETAIL
  6
CONTINUOUS
 62
     5
 10
96.399993999999879
 20
-124.49992399999999
 30
0.0
 40
3.0
 50
270.00012700000241
 51
0.0000540000106457
  0
ARC
  8
DETAIL
  6
CONTINUOUS
 62
     5
 10
96.399993999999879
 20
124.49992300000009
 30
0.0
 40
3.0
 50
359.99994599998928
 51
89.999872999997635
  0
ARC
  8
DETAIL
  6
CONTINUOUS
 62
     5
 10
-96.399993999999879
 20
124.49992300000009
 30
0.0
 40
3.0
 50
90.000127000002351
 51
180.00005399999759
  0
LINE
  8
DETAIL
  6
CONTINUOUS
 62
     5
 10
-96.399993999999879
 20
-127.50007699999991
 30
0.0
 11
-63.000046000000111
 21
-127.50007699999991
 31
0.0
  0
LINE
  8
DETAIL
  6
CONTINUOUS
 62
     5
 10
96.399993999999879
 20
-127.50007699999991
 30
0.0
 11
63.000046000000111
 21
-127.50007699999991
 31
0.0
  0
LINE
  8
DETAIL
  6
CONTINUOUS
 62
     5
 10
96.399993999999879
 20
127.50007600000001
 30
0.0
 11
0.0
 21
127.50007600000001
 31
0.0
  0
LINE
  8
DETAIL
  6
CONTINUOUS
 62
     5
 10
-96.399993999999879
 20
127.50007600000001
 30
0.0
 11
0.0
 21
127.50007600000001
 31
0.0
  0
TEXT
  8
ETC
  6
CONTINUOUS
 62
    61
 10
500.73065566797192
 20
755.9083475179209
 30
0.0
 40
64.0
  1
VD-10ZSJ13_1
 41
0.9
  0
TEXT
  8
ETC
  6
CONTINUOUS
 62
    61
 10
496.54466166797152
 20
637.95303750308949
 30
0.0
 40
64.0
  1
換気扇
 41
0.9
  0
TEXT
  8
ETC
  6
CONTINUOUS
 62
    61
 10
547.24605991652743
 20
529.80426461686443
 30
0.0
 40
40.0
  1
VD-10ZSJ13
 41
0.9
  0
TEXT
  8
ETC
  6
CONTINUOUS
 62
    61
 10
547.24605991652743
 20
463.80426461686437
 30
0.0
 40
40.0
  1
VD-10ZS13-BL
 41
0.9
  0
ENDSEC
  0
EOF
