  0
SECTION
  2
HEADER
  9
$ACADVER
  1
AC1009
  9
$INSBASE
 10
0.0
 20
0.0
 30
0.0
  9
$EXTMIN
 10
-841.84702300000004
 20
-480.0587809999999
 30
0.0
  9
$EXTMAX
 10
940.57154940955809
 20
882.98084100000051
 30
50.0
  9
$LIMMIN
 10
-2970.0
 20
-2100.0
  9
$LIMMAX
 10
2970.0
 20
2100.0
  9
$ORTHOMODE
 70
     1
  9
$REGENMODE
 70
     0
  9
$FILLMODE
 70
     1
  9
$QTEXTMODE
 70
     0
  9
$MIRRTEXT
 70
     0
  9
$DRAGMODE
 70
     2
  9
$LTSCALE
 40
20.0
  9
$OSMODE
 70
   167
  9
$ATTMODE
 70
     1
  9
$TEXTSIZE
 40
64.0
  9
$TRACEWID
 40
0.05
  9
$TEXTSTYLE
  7
STANDARD
  9
$CLAYER
  8
SIZE
  9
$CELTYPE
  6
CONTINUOUS
  9
$CECOLOR
 62
    30
  9
$DIMSCALE
 40
1.0
  9
$DIMASZ
 40
12.0
  9
$DIMEXO
 40
20.0
  9
$DIMDLI
 40
200.0
  9
$DIMRND
 40
0.0
  9
$DIMDLE
 40
0.0
  9
$DIMEXE
 40
20.0
  9
$DIMTP
 40
0.0
  9
$DIMTM
 40
0.0
  9
$DIMTXT
 40
64.0
  9
$DIMCEN
 40
0.09
  9
$DIMTSZ
 40
0.0
  9
$DIMTOL
 70
     0
  9
$DIMLIM
 70
     0
  9
$DIMTIH
 70
     0
  9
$DIMTOH
 70
     0
  9
$DIMSE1
 70
     0
  9
$DIMSE2
 70
     0
  9
$DIMTAD
 70
     1
  9
$DIMZIN
 70
     8
  9
$DIMBLK
  1
DOT1
  9
$DIMASO
 70
     1
  9
$DIMSHO
 70
     0
  9
$DIMPOST
  1

  9
$DIMAPOST
  1

  9
$DIMALT
 70
     0
  9
$DIMALTD
 70
     2
  9
$DIMALTF
 40
25.399999999999999
  9
$DIMLFAC
 40
1.0
  9
$DIMTOFL
 70
     1
  9
$DIMTVP
 40
0.0
  9
$DIMTIX
 70
     1
  9
$DIMSOXD
 70
     0
  9
$DIMSAH
 70
     1
  9
$DIMBLK1
  1
ORIGIN
  9
$DIMBLK2
  1
ORIGIN
  9
$DIMSTYLE
  2
STANDARD
  9
$DIMCLRD
 70
     7
  9
$DIMCLRE
 70
     7
  9
$DIMCLRT
 70
     7
  9
$DIMTFAC
 40
1.0
  9
$DIMGAP
 40
25.0
  9
$LUNITS
 70
     2
  9
$LUPREC
 70
     4
  9
$SKETCHINC
 40
0.1
  9
$FILLETRAD
 40
4.0
  9
$AUNITS
 70
     1
  9
$AUPREC
 70
     3
  9
$MENU
  1
ACAD
  9
$ELEVATION
 40
0.0
  9
$PELEVATION
 40
0.0
  9
$THICKNESS
 40
50.0
  9
$LIMCHECK
 70
     0
  9
$BLIPMODE
 70
     0
  9
$CHAMFERA
 40
0.0
  9
$CHAMFERB
 40
0.0
  9
$SKPOLY
 70
     0
  9
$TDCREATE
 40
2453111.5468595251
  9
$TDUPDATE
 40
2454147.3722189581
  9
$TDINDWG
 40
0.0824597569
  9
$TDUSRTIMER
 40
0.0824597569
  9
$USRTIMER
 70
     1
  9
$ANGBASE
 50
0.0
  9
$ANGDIR
 70
     0
  9
$PDMODE
 70
     3
  9
$PDSIZE
 40
-2.0
  9
$PLINEWID
 40
0.0
  9
$COORDS
 70
     1
  9
$SPLFRAME
 70
     0
  9
$SPLINETYPE
 70
     6
  9
$SPLINESEGS
 70
     8
  9
$ATTDIA
 70
     0
  9
$ATTREQ
 70
     1
  9
$HANDLING
 70
 22529
  9
$HANDSEED
  5
26C
  9
$SURFTAB1
 70
     6
  9
$SURFTAB2
 70
     6
  9
$SURFTYPE
 70
     6
  9
$SURFU
 70
     6
  9
$SURFV
 70
     6
  9
$UCSNAME
  2

  9
$UCSORG
 10
0.0
 20
0.0
 30
0.0
  9
$UCSXDIR
 10
1.0
 20
0.0
 30
0.0
  9
$UCSYDIR
 10
0.0
 20
1.0
 30
0.0
  9
$PUCSNAME
  2

  9
$PUCSORG
 10
0.0
 20
0.0
 30
0.0
  9
$PUCSXDIR
 10
1.0
 20
0.0
 30
0.0
  9
$PUCSYDIR
 10
0.0
 20
1.0
 30
0.0
  9
$USERI1
 70
     0
  9
$USERI2
 70
     0
  9
$USERI3
 70
     0
  9
$USERI4
 70
     0
  9
$USERI5
 70
     0
  9
$USERR1
 40
20.0
  9
$USERR2
 40
0.0
  9
$USERR3
 40
0.0
  9
$USERR4
 40
0.0
  9
$USERR5
 40
0.0
  9
$WORLDVIEW
 70
     1
  9
$SHADEDGE
 70
     3
  9
$SHADEDIF
 70
    70
  9
$TILEMODE
 70
     1
  9
$MAXACTVP
 70
    48
  9
$PLIMCHECK
 70
     0
  9
$PEXTMIN
 10
-1.0000000000000000E+020
 20
-1.0000000000000000E+020
 30
-1.0000000000000000E+020
  9
$PEXTMAX
 10
1.0000000000000000E+020
 20
1.0000000000000000E+020
 30
1.0000000000000000E+020
  9
$PLIMMIN
 10
0.0
 20
0.0
  9
$PLIMMAX
 10
12.0
 20
9.0
  9
$UNITMODE
 70
     0
  9
$VISRETAIN
 70
     0
  9
$PLINEGEN
 70
     0
  9
$PSLTSCALE
 70
     0
  0
ENDSEC
  0
SECTION
  2
TABLES
  0
TABLE
  2
VPORT
 70
     5
  0
VPORT
  2
*ACTIVE
 70
     0
 10
0.0
 20
0.0
 11
1.0
 21
1.0
 12
15.63527376991032
 22
201.393137
 13
0.0
 23
0.0
 14
1.0
 24
1.0
 15
0.0
 25
0.0
 16
0.0
 26
0.0
 36
1.0
 17
0.0
 27
0.0
 37
0.0
 40
1374.992640571968
 41
1.710526315789473
 42
50.0
 43
0.0
 44
0.0
 50
0.0
 51
0.0
 71
     0
 72
  1000
 73
     1
 74
     0
 75
     0
 76
     0
 77
     0
 78
     0
  0
ENDTAB
  0
TABLE
  2
LTYPE
 70
     4
  0
LTYPE
  2
CONTINUOUS
 70
     0
  3
Ä└É³
 72
    65
 73
     0
 40
0.0
  0
LTYPE
  2
DASHDOT
 70
     0
  3
____ _ ____ _ ____ _ ____ _ ____ _ ____ _ ____
 72
    65
 73
     4
 40
5.5
 49
4.0
 49
-0.6
 49
0.3
 49
-0.6
  0
LTYPE
  2
DASHED
 70
     0
  3
-- -- -- -- -- -- -- -- -- -- -- -- -- -- --
 72
    65
 73
     2
 40
0.75
 49
0.5
 49
-0.25
  0
LTYPE
  2
CONTINOUS
 70
     0
  3
Solid line
 72
    65
 73
     0
 40
0.0
  0
ENDTAB
  0
TABLE
  2
LAYER
 70
    12
  0
LAYER
  2
0
 70
     0
 62
     7
  6
CONTINUOUS
  0
LAYER
  2
SIZE
 70
     0
 62
    30
  6
CONTINUOUS
  0
LAYER
  2
BASIS
 70
     0
 62
     6
  6
DASHDOT
  0
LAYER
  2
OUTLINE
 70
     0
 62
     3
  6
CONTINUOUS
  0
LAYER
  2
DETAIL
 70
     0
 62
     5
  6
CONTINUOUS
  0
LAYER
  2
ARRANGE
 70
     0
 62
     1
  6
CONTINUOUS
  0
LAYER
  2
DEFPOINTS
 70
     0
 62
     7
  6
CONTINUOUS
  0
LAYER
  2
ETC
 70
     0
 62
    61
  6
CONTINUOUS
  0
LAYER
  2
FIX
 70
     0
 62
    11
  6
CONTINUOUS
  0
LAYER
  2
NOTE
 70
     0
 62
     4
  6
CONTINUOUS
  0
LAYER
  2
SERVICESPACE
 70
     0
 62
     2
  6
DASHDOT
  0
LAYER
  2
SYMBOLLINE
 70
     0
 62
    15
  6
CONTINUOUS
  0
ENDTAB
  0
TABLE
  2
STYLE
 70
     1
  0
STYLE
  2
STANDARD
 70
     0
 40
64.0
 41
0.9
 50
0.0
 71
     0
 42
64.0
  3
SIMPLEX.shx
  4
BIGFONT.shx
  0
ENDTAB
  0
TABLE
  2
VIEW
 70
     1
  0
VIEW
  2
ALL
 70
     0
 40
4282.6198079999986
 10
0.0
 20
41.309903999999989
 41
5940.0
 11
0.0
 21
0.0
 31
1.0
 12
0.0
 22
0.0
 32
0.0
 42
50.0
 43
0.0
 44
0.0
 50
0.0
 71
     0
  0
ENDTAB
  0
TABLE
  2
UCS
 70
     0
  0
ENDTAB
  0
TABLE
  2
APPID
 70
     2
  0
APPID
  2
ACAD
 70
     0
  0
APPID
  2
AUTOCAD_POSTSCRIPT_FIGURE
 70
     0
  0
ENDTAB
  0
TABLE
  2
DIMSTYLE
 70
     1
  0
DIMSTYLE
  2
STANDARD
 70
     0
  3

  4

  5

  6

  7

 40
1.0
 41
0.18
 42
0.0625
 43
0.38
 44
0.18
 45
0.0
 46
0.0
 47
0.0
 48
0.0
140
0.18
141
0.09
142
0.0
143
25.399999999999999
144
1.0
145
0.0
146
1.0
147
0.09
 71
     0
 72
     0
 73
     1
 74
     1
 75
     0
 76
     0
 77
     0
 78
     0
170
     0
171
     2
172
     0
173
     0
174
     0
175
     0
176
     7
177
     7
178
     7
  0
ENDTAB
  0
ENDSEC
  0
SECTION
  2
BLOCKS
  0
BLOCK
  8
0
  2
$MODEL_SPACE
 70
     0
 10
0.0
 20
0.0
 30
0.0
  3
$MODEL_SPACE
  1

  0
ENDBLK
  5
20
  8
0
  0
BLOCK
 67
     1
  8
0
  2
$PAPER_SPACE
 70
     0
 10
0.0
 20
0.0
 30
0.0
  3
$PAPER_SPACE
  1

  0
ENDBLK
  5
1C
 67
     1
  8
0
  0
BLOCK
  8
0
  2
DOT1
 70
     0
 10
0.0
 20
0.0
 30
0.0
  3
DOT1
  1

  0
CIRCLE
  5
38
  8
SIZE
  6
CONTINUOUS
 62
     7
 10
0.0
 20
0.0
 30
0.0
 40
3.0
  0
ENDBLK
  5
39
  8
0
  0
BLOCK
  8
0
  2
_ORIGIN
 70
     0
 10
0.0
 20
0.0
 30
0.0
  3
_ORIGIN
  1

  0
CIRCLE
  5
3C
  8
0
  6
CONTINUOUS
 62
     7
 10
0.0
 20
0.0
 30
0.0
 40
0.5
  0
LINE
  5
3D
  8
0
  6
CONTINUOUS
 62
     7
 10
0.0
 20
0.0
 30
0.0
 11
-1.0
 21
0.0
 31
0.0
  0
ENDBLK
  5
3E
  8
0
  0
ENDSEC
  0
SECTION
  2
ENTITIES
  0
LINE
  5
41
  8
NOTE
  6
CONTINUOUS
 62
     4
 10
145.71080599999999
 20
-28.35754699999999
 30
0.0
 11
117.5
 21
0.0
 31
0.0
  0
LINE
  5
42
  8
NOTE
  6
CONTINUOUS
 62
     4
 10
117.5
 20
0.0
 30
0.0
 11
127.7525009999999
 21
-38.663758999999999
 31
0.0
  0
LINE
  5
43
  8
NOTE
  6
CONTINUOUS
 62
     4
 10
117.5
 20
0.0
 30
0.0
 11
311.92247400000002
 21
-341.44419299999998
 31
0.0
  0
CIRCLE
  5
44
  8
FIX
  6
CONTINUOUS
 62
    11
 10
65.0
 20
0.0
 30
0.0
 40
2.5
  0
LINE
  5
45
  8
NOTE
  6
CONTINUOUS
 62
     4
 10
65.0
 20
-20.0
 30
0.0
 11
65.0
 21
20.0
 31
0.0
  0
LINE
  5
46
  8
NOTE
  6
CONTINUOUS
 62
     4
 10
45.0
 20
0.0
 30
0.0
 11
85.0
 21
0.0
 31
0.0
  0
CIRCLE
  5
47
  8
FIX
  6
CONTINUOUS
 62
    11
 10
-65.0
 20
0.0
 30
0.0
 40
2.5
  0
LINE
  5
48
  8
NOTE
  6
CONTINUOUS
 62
     4
 10
-65.0
 20
-20.0
 30
0.0
 11
-65.0
 21
20.0
 31
0.0
  0
LINE
  5
49
  8
NOTE
  6
CONTINUOUS
 62
     4
 10
-85.0
 20
0.0
 30
0.0
 11
-45.0
 21
0.0
 31
0.0
  0
CIRCLE
  5
4A
  8
FIX
  6
CONTINUOUS
 62
    11
 10
0.0
 20
186.0
 30
0.0
 40
7.5
  0
LINE
  5
4B
  8
NOTE
  6
CONTINUOUS
 62
     4
 10
0.0
 20
206.49999999999989
 30
0.0
 11
0.0
 21
166.5
 31
0.0
  0
LINE
  5
4C
  8
NOTE
  6
CONTINUOUS
 62
     4
 10
20.0
 20
186.0
 30
0.0
 11
-20.0
 21
186.0
 31
0.0
  0
LINE
  5
4D
  8
BASIS
  6
DASHDOT
 62
     6
 10
6.0
 20
140.47322700000001
 30
0.0
 11
6.0
 21
209.352395
 31
0.0
  0
LINE
  5
4E
  8
BASIS
  6
DASHDOT
 62
     6
 10
0.0
 20
-49.328414000000002
 30
0.0
 11
0.0
 21
246.74818599999989
 31
0.0
  0
LINE
  5
4F
  8
NOTE
  6
CONTINUOUS
 62
     4
 10
33.966636999999992
 20
207.12504699999991
 30
0.0
 11
0.0
 21
186.0
 31
0.0
  0
LINE
  5
50
  8
NOTE
  6
CONTINUOUS
 62
     4
 10
0.0
 20
186.0
 30
0.0
 11
18.853445999999991
 21
221.27814599999991
 31
0.0
  0
LINE
  5
51
  8
NOTE
  6
CONTINUOUS
 62
     4
 10
745.598567
 20
-341.44419299999998
 30
0.0
 11
311.92247400000002
 21
-341.44419299999998
 31
0.0
  0
TEXT
  5
52
  8
NOTE
  6
CONTINUOUS
 62
     4
 10
325.630786
 20
-306.928697
 30
0.0
 40
64.0
  1
8-âË5ü~10
 41
0.9
  0
LINE
  5
53
  8
NOTE
  6
CONTINUOUS
 62
     4
 10
839.91509900000005
 20
365.18488500000001
 30
0.0
 11
182.18045599999991
 21
365.18488500000001
 31
0.0
  0
TEXT
  5
54
  8
NOTE
  6
CONTINUOUS
 62
     4
 10
213.484781
 20
397.241467
 30
0.0
 40
64.0
  1
AH 2-âË15ü~22
 41
0.9
  0
LINE
  5
55
  8
DETAIL
  6
CONTINUOUS
 62
     5
 10
-101.5
 20
0.0
 30
0.0
 11
-101.5
 21
172.0
 31
0.0
  0
LINE
  5
56
  8
DETAIL
  6
CONTINUOUS
 62
     5
 10
101.5
 20
0.0
 30
0.0
 11
101.5
 21
155.0
 31
0.0
  0
LINE
  5
57
  8
DETAIL
  6
CONTINOUS
 62
     5
 10
101.5
 20
155.0
 30
0.0
 11
17.5
 21
155.0
 31
0.0
  0
LINE
  5
58
  8
DETAIL
  6
CONTINUOUS
 62
     5
 10
-101.5
 20
172.0
 30
0.0
 11
-103.4999999999999
 21
172.0
 31
0.0
  0
LINE
  5
59
  8
DETAIL
  6
CONTINUOUS
 62
     5
 10
17.5
 20
0.0
 30
0.0
 11
17.5
 21
186.0
 31
0.0
  0
LINE
  5
5A
  8
DETAIL
  6
CONTINUOUS
 62
     5
 10
-17.5
 20
0.0
 30
0.0
 11
-17.5
 21
186.0
 31
0.0
  0
LINE
  5
5B
  8
DETAIL
  6
CONTINUOUS
 62
     5
 10
17.5
 20
186.0
 30
0.0
 11
-17.5
 21
186.0
 31
0.0
  0
LINE
  5
5C
  8
DETAIL
  6
CONTINUOUS
 62
     5
 10
17.5
 20
182.0
 30
0.0
 11
-17.5
 21
182.0
 31
0.0
  0
LINE
  5
5D
  8
DETAIL
  6
CONTINOUS
 62
     5
 10
-17.5
 20
155.0
 30
0.0
 11
-101.5
 21
155.0
 31
0.0
  0
LINE
  5
5E
  8
BASIS
  6
DASHDOT
 62
     6
 10
-231.280091
 20
107.0
 30
0.0
 11
-92.063225000000003
 21
107.0
 31
0.0
  0
LINE
  5
5F
  8
NOTE
  6
CONTINUOUS
 62
     4
 10
0.0
 20
186.0
 30
0.0
 11
182.18045599999991
 21
365.18488500000001
 31
0.0
  0
POINT
  5
60
  8
ARRANGE
  6
CONTINUOUS
 62
     1
 10
0.0
 20
0.0
 30
0.0
  0
CIRCLE
  5
61
  8
ARRANGE
  6
CONTINUOUS
 62
     1
 10
0.0
 20
0.0
 30
0.0
 40
40.0
  0
LINE
  5
62
  8
DETAIL
  6
CONTINUOUS
 62
     5
 10
-127.887837
 20
0.0
 30
0.0
 11
-127.887837
 21
1.0
 31
0.0
  0
TEXT
  5
63
  8
NOTE
  6
CONTINUOUS
 62
     4
 10
-350.85895599999992
 20
64.372225
 30
0.0
 40
64.0
  1
EA
 41
0.9
  0
LINE
  5
64
  8
DETAIL
  6
CONTINOUS
 62
     5
 10
-188.49999999999989
 20
156.0
 30
0.0
 11
-188.49999999999989
 21
58.0
 31
0.0
  0
LINE
  5
65
  8
DETAIL
  6
CONTINOUS
 62
     5
 10
-163.49999999999989
 20
159.49999999999989
 30
0.0
 11
-163.49999999999989
 21
54.5
 31
0.0
  0
LINE
  5
66
  8
DETAIL
  6
CONTINOUS
 62
     5
 10
-184.49999999999989
 20
159.49999999999989
 30
0.0
 11
-184.49999999999989
 21
54.5
 31
0.0
  0
LINE
  5
67
  8
DETAIL
  6
CONTINOUS
 62
     5
 10
-215.5
 20
156.0
 30
0.0
 11
-215.5
 21
58.0
 31
0.0
  0
LINE
  5
68
  8
DETAIL
  6
CONTINOUS
 62
     5
 10
-215.5
 20
58.0
 30
0.0
 11
-188.49999999999989
 21
58.0
 31
0.0
  0
LINE
  5
69
  8
DETAIL
  6
CONTINUOUS
 62
     5
 10
-188.49999999999989
 20
58.0
 30
0.0
 11
-184.49999999999989
 21
54.5
 31
0.0
  0
LINE
  5
6A
  8
DETAIL
  6
CONTINUOUS
 62
     5
 10
-184.49999999999989
 20
54.5
 30
0.0
 11
-163.49999999999989
 21
54.5
 31
0.0
  0
LINE
  5
6B
  8
DETAIL
  6
CONTINOUS
 62
     5
 10
-215.5
 20
156.0
 30
0.0
 11
-188.49999999999989
 21
156.0
 31
0.0
  0
LINE
  5
6C
  8
DETAIL
  6
CONTINUOUS
 62
     5
 10
-188.49999999999989
 20
156.0
 30
0.0
 11
-184.49999999999989
 21
159.49999999999989
 31
0.0
  0
LINE
  5
6D
  8
DETAIL
  6
CONTINUOUS
 62
     5
 10
-184.49999999999989
 20
159.49999999999989
 30
0.0
 11
-163.49999999999989
 21
159.49999999999989
 31
0.0
  0
LINE
  5
6E
  8
DETAIL
  6
CONTINUOUS
 62
     5
 10
-103.4999999999999
 20
1.0
 30
0.0
 11
-103.4999999999999
 21
172.0
 31
0.0
  0
LINE
  5
6F
  8
DETAIL
  6
CONTINOUS
 62
     5
 10
-103.4999999999999
 20
52.0
 30
0.0
 11
-161.509176
 21
52.0
 31
0.0
  0
LINE
  5
70
  8
DETAIL
  6
CONTINOUS
 62
     5
 10
-163.49999999999989
 20
54.5
 30
0.0
 11
-161.509176
 21
52.0
 31
0.0
  0
LINE
  5
71
  8
DETAIL
  6
CONTINOUS
 62
     5
 10
-103.4999999999999
 20
162.0
 30
0.0
 11
-161.509176
 21
162.0
 31
0.0
  0
LINE
  5
72
  8
DETAIL
  6
CONTINOUS
 62
     5
 10
-163.49999999999989
 20
159.49999999999989
 30
0.0
 11
-161.509176
 21
162.0
 31
0.0
  0
ARC
  5
73
  8
DETAIL
  6
DASHDOT
 62
     5
 10
-152.6556139999999
 20
132.0
 30
0.0
 40
5.0
 50
19.330576000000001
 51
161.48128700000001
  0
LINE
  5
74
  8
DETAIL
  6
DASHED
 62
     5
 10
-183.14553000000001
 20
125.990555
 30
0.0
 11
-133.01900900000001
 21
125.990555
 31
0.0
  0
LINE
  5
75
  8
DETAIL
  6
DASHED
 62
     5
 10
-183.21552099999991
 20
126.790555
 30
0.0
 11
-152.01868999999991
 21
126.790555
 31
0.0
  0
LINE
  5
76
  8
BASIS
  6
DASHDOT
 62
     6
 10
-171.95261499999989
 20
132.0
 30
0.0
 11
-132.729128
 21
132.0
 31
0.0
  0
LINE
  5
77
  8
DETAIL
  6
DASHED
 62
     5
 10
-133.01900900000001
 20
126.790555
 30
0.0
 11
-133.01900900000001
 21
125.990555
 31
0.0
  0
LINE
  5
78
  8
DETAIL
  6
DASHED
 62
     5
 10
-147.61858000000001
 20
126.790555
 30
0.0
 11
-133.01900900000001
 21
126.790555
 31
0.0
  0
LINE
  5
79
  8
DETAIL
  6
DASHED
 62
     5
 10
-148.848624
 20
131.02694700000001
 30
0.0
 11
-148.82283100000001
 21
127.386304
 31
0.0
  0
LINE
  5
7A
  8
DETAIL
  6
DASHED
 62
     5
 10
-147.64865399999991
 20
131.03544899999989
 30
0.0
 11
-148.848624
 21
131.02694700000001
 31
0.0
  0
LINE
  5
7B
  8
DETAIL
  6
DASHED
 62
     5
 10
-148.82283100000001
 20
127.386304
 30
0.0
 11
-148.81854899999999
 21
126.782053
 31
0.0
  0
ARC
  5
7C
  8
DETAIL
  6
DASHED
 62
     5
 10
-148.22284599999989
 20
127.39055500000001
 30
0.0
 40
0.6
 50
90.0
 51
180.40593200000001
  0
ARC
  5
7D
  8
DETAIL
  6
DASHED
 62
     5
 10
-152.62295599999999
 20
127.39055500000001
 30
0.0
 40
0.6
 50
0.4059320000000001
 51
90.0
  0
ARC
  5
7E
  8
DETAIL
  6
DASHED
 62
     5
 10
-152.62295599999999
 20
127.39055500000001
 30
0.0
 40
0.6
 50
90.0
 51
180.40593200000001
  0
CIRCLE
  5
7F
  8
DETAIL
  6
DASHED
 62
     5
 10
-152.6556139999999
 20
132.0
 30
0.0
 40
2.1000000000000001
  0
LINE
  5
80
  8
DETAIL
  6
DASHED
 62
     5
 10
-157.66139199999989
 20
132.797888
 30
0.0
 11
-157.396714
 21
133.58807200000001
 31
0.0
  0
LINE
  5
81
  8
DETAIL
  6
DASHED
 62
     5
 10
-157.66139199999989
 20
132.797888
 30
0.0
 11
-157.623051
 21
127.386304
 31
0.0
  0
LINE
  5
82
  8
DETAIL
  6
DASHED
 62
     5
 10
-156.44843399999999
 20
130.97310300000001
 30
0.0
 11
-157.64840399999991
 21
130.9646009999999
 31
0.0
  0
ARC
  5
83
  8
DETAIL
  6
DASHED
 62
     5
 10
-157.023066
 20
127.39055500000001
 30
0.0
 40
0.6
 50
90.0
 51
180.40593200000001
  0
ARC
  5
84
  8
DETAIL
  6
DASHED
 62
     5
 10
-157.023066
 20
127.39055500000001
 30
0.0
 40
0.6
 50
0.4059320000000001
 51
90.0
  0
LINE
  5
85
  8
DETAIL
  6
DASHED
 62
     5
 10
-156.44843399999999
 20
130.97310300000001
 30
0.0
 11
-156.42308199999991
 21
127.394806
 31
0.0
  0
LINE
  5
86
  8
DETAIL
  6
DASHED
 62
     5
 10
-147.66164299999991
 20
132.86873600000001
 30
0.0
 11
-147.93749199999991
 21
133.65508999999989
 31
0.0
  0
LINE
  5
87
  8
DETAIL
  6
DASHED
 62
     5
 10
-157.623051
 20
127.386304
 30
0.0
 11
-157.618831
 21
126.790555
 31
0.0
  0
LINE
  5
88
  8
DETAIL
  6
DASHED
 62
     5
 10
-156.42308199999991
 20
127.394806
 30
0.0
 11
-156.41886099999999
 21
126.79905599999999
 31
0.0
  0
LINE
  5
89
  8
DETAIL
  6
DASHED
 62
     5
 10
-153.22294099999999
 20
127.386304
 30
0.0
 11
-153.21871999999991
 21
126.790555
 31
0.0
  0
LINE
  5
8A
  8
DETAIL
  6
DASHED
 62
     5
 10
-152.0229709999999
 20
127.394806
 30
0.0
 11
-152.01868999999991
 21
126.790555
 31
0.0
  0
LINE
  5
8B
  8
DETAIL
  6
DASHED
 62
     5
 10
-152.01868999999991
 20
126.790555
 30
0.0
 11
-148.81861000000001
 21
126.790555
 31
0.0
  0
LINE
  5
8C
  8
DETAIL
  6
DASHED
 62
     5
 10
-147.66164299999991
 20
132.86873600000001
 30
0.0
 11
-147.62286099999989
 21
127.394806
 31
0.0
  0
LINE
  5
8D
  8
DETAIL
  6
DASHED
 62
     5
 10
-147.62286099999989
 20
127.394806
 30
0.0
 11
-147.61858000000001
 21
126.790555
 31
0.0
  0
ARC
  5
8E
  8
DETAIL
  6
DASHED
 62
     5
 10
-148.22284599999989
 20
127.39055500000001
 30
0.0
 40
0.6
 50
0.4059320000000001
 51
90.0
  0
LINE
  5
8F
  8
DETAIL
  6
DASHED
 62
     5
 10
-226.5
 20
119.357747
 30
0.0
 11
-217.671289
 21
120.715073
 31
0.0
  0
LINE
  5
90
  8
DETAIL
  6
DASHED
 62
     5
 10
-226.5
 20
118.545405
 30
0.0
 11
-217.671289
 21
119.902732
 31
0.0
  0
LINE
  5
91
  8
DETAIL
  6
DASHED
 62
     5
 10
-183.14553000000001
 20
125.990555
 30
0.0
 11
-166.6556139999999
 21
125.990555
 31
0.0
  0
LINE
  5
92
  8
DETAIL
  6
DASHED
 62
     5
 10
-183.21552099999991
 20
126.790555
 30
0.0
 11
-166.6556139999999
 21
126.790555
 31
0.0
  0
LINE
  5
93
  8
DETAIL
  6
DASHED
 62
     5
 10
-217.671289
 20
119.902732
 30
0.0
 11
-183.14553000000001
 21
125.990555
 31
0.0
  0
LINE
  5
94
  8
DETAIL
  6
DASHED
 62
     5
 10
-217.671289
 20
120.715073
 30
0.0
 11
-183.21552099999991
 21
126.790555
 31
0.0
  0
LINE
  5
95
  8
DETAIL
  6
CONTINUOUS
 62
     5
 10
-226.5
 20
118.545405
 30
0.0
 11
-226.5
 21
119.357747
 31
0.0
  0
ARC
  5
96
  8
DETAIL
  6
DASHED
 62
     5
 10
-152.88469900000001
 20
134.2715969999999
 30
0.0
 40
75.276329000000004
 50
192.05864899999989
 51
270.17436600000002
  0
LINE
  5
97
  8
DETAIL
  6
DASHED
 62
     5
 10
-152.6556139999999
 20
58.995617000000003
 30
0.0
 11
-152.6556139999999
 21
143.57933299999999
 31
0.0
  0
LINE
  5
98
  8
SIZE
  6
CONTINUOUS
 62
    30
 10
-65.0
 20
-40.0
 30
0.0
 11
-65.0
 21
-228.84724399999999
 31
0.0
  0
LINE
  5
99
  8
SIZE
  6
CONTINUOUS
 62
    30
 10
65.0
 20
-40.0
 30
0.0
 11
65.0
 21
-228.84724399999999
 31
0.0
  0
LINE
  5
9A
  8
SIZE
  6
CONTINUOUS
 62
    30
 10
-77.0
 20
-208.8472439999999
 30
0.0
 11
-89.0
 21
-208.8472439999999
 31
0.0
  0
LINE
  5
9B
  8
SIZE
  6
CONTINUOUS
 62
    30
 10
77.0
 20
-208.8472439999999
 30
0.0
 11
89.0
 21
-208.8472439999999
 31
0.0
  0
LINE
  5
9C
  8
SIZE
  6
CONTINUOUS
 62
    30
 10
-65.0
 20
-208.8472439999999
 30
0.0
 11
65.0
 21
-208.8472439999999
 31
0.0
  0
CIRCLE
  5
9D
  8
SIZE
  6
CONTINUOUS
 62
    30
 10
-65.0
 20
-208.8472439999999
 30
0.0
 40
6.0
  0
LINE
  5
9E
  8
SIZE
  6
CONTINUOUS
 62
    30
 10
-65.0
 20
-208.8472439999999
 30
0.0
 11
-77.0
 21
-208.8472439999999
 31
0.0
  0
CIRCLE
  5
9F
  8
SIZE
  6
CONTINUOUS
 62
    30
 10
65.0
 20
-208.8472439999999
 30
0.0
 40
6.0
  0
LINE
  5
A0
  8
SIZE
  6
CONTINUOUS
 62
    30
 10
65.0
 20
-208.8472439999999
 30
0.0
 11
77.0
 21
-208.8472439999999
 31
0.0
  0
TEXT
  5
A1
  8
SIZE
  6
CONTINUOUS
 62
    30
 10
-68.571428571428569
 20
-183.8472439999999
 30
0.0
 40
64.0
  1
130
 41
0.9
 72
     1
 11
0.0
 21
-183.8472439999999
 31
0.0
  0
LINE
  5
A5
  8
SIZE
  6
CONTINUOUS
 62
    30
 10
-117.5
 20
-40.0
 30
0.0
 11
-117.5
 21
-353.42345599999987
 31
0.0
  0
LINE
  5
A6
  8
SIZE
  6
CONTINUOUS
 62
    30
 10
117.5
 20
-40.0
 30
0.0
 11
117.5
 21
-353.42345599999987
 31
0.0
  0
LINE
  5
A7
  8
SIZE
  6
CONTINUOUS
 62
    30
 10
-105.4999999999999
 20
-333.42345599999999
 30
0.0
 11
105.4999999999999
 21
-333.42345599999999
 31
0.0
  0
CIRCLE
  5
A8
  8
SIZE
  6
CONTINUOUS
 62
    30
 10
-117.5
 20
-333.42345599999999
 30
0.0
 40
6.0
  0
LINE
  5
A9
  8
SIZE
  6
CONTINUOUS
 62
    30
 10
-117.5
 20
-333.42345599999999
 30
0.0
 11
-105.4999999999999
 21
-333.42345599999999
 31
0.0
  0
CIRCLE
  5
AA
  8
SIZE
  6
CONTINUOUS
 62
    30
 10
117.5
 20
-333.42345599999999
 30
0.0
 40
6.0
  0
LINE
  5
AB
  8
SIZE
  6
CONTINUOUS
 62
    30
 10
117.5
 20
-333.42345599999999
 30
0.0
 11
105.4999999999999
 21
-333.42345599999999
 31
0.0
  0
TEXT
  5
AC
  8
SIZE
  6
CONTINUOUS
 62
    30
 10
-74.05714285714285
 20
-308.42345599999999
 30
0.0
 40
64.0
  1
235
 41
0.9
 72
     1
 11
0.0
 21
-308.42345599999999
 31
0.0
  0
LINE
  5
B0
  8
SIZE
  6
CONTINUOUS
 62
    30
 10
-143.0
 20
-26.266200999999999
 30
0.0
 11
-143.0
 21
-480.0587809999999
 31
0.0
  0
LINE
  5
B1
  8
SIZE
  6
CONTINUOUS
 62
    30
 10
143.0
 20
-26.266200999999999
 30
0.0
 11
143.0
 21
-480.0587809999999
 31
0.0
  0
LINE
  5
B2
  8
SIZE
  6
CONTINUOUS
 62
    30
 10
-131.0
 20
-460.0587809999999
 30
0.0
 11
131.0
 21
-460.0587809999999
 31
0.0
  0
CIRCLE
  5
B3
  8
SIZE
  6
CONTINUOUS
 62
    30
 10
-143.0
 20
-460.0587809999999
 30
0.0
 40
6.0
  0
LINE
  5
B4
  8
SIZE
  6
CONTINUOUS
 62
    30
 10
-143.0
 20
-460.0587809999999
 30
0.0
 11
-131.0
 21
-460.0587809999999
 31
0.0
  0
CIRCLE
  5
B5
  8
SIZE
  6
CONTINUOUS
 62
    30
 10
143.0
 20
-460.0587809999999
 30
0.0
 40
6.0
  0
LINE
  5
B6
  8
SIZE
  6
CONTINUOUS
 62
    30
 10
143.0
 20
-460.0587809999999
 30
0.0
 11
131.0
 21
-460.0587809999999
 31
0.0
  0
TEXT
  5
B7
  8
SIZE
  6
CONTINUOUS
 62
    30
 10
-109.1657142857143
 20
-435.0587809999999
 30
0.0
 40
64.0
  1
üá286
 41
0.9
 72
     1
 11
0.0
 21
-435.0587809999999
 31
0.0
  0
LINE
  5
BB
  8
SIZE
  6
CONTINUOUS
 62
    30
 10
-163.0
 20
0.0
 30
0.0
 11
-772.84702300000004
 21
0.0
 31
0.0
  0
LINE
  5
BC
  8
SIZE
  6
CONTINUOUS
 62
    30
 10
-123.5
 20
172.0
 30
0.0
 11
-772.84702300000004
 21
172.0
 31
0.0
  0
LINE
  5
BD
  8
SIZE
  6
CONTINUOUS
 62
    30
 10
-752.84702300000004
 20
-12.0
 30
0.0
 11
-752.84702300000004
 21
-24.0
 31
0.0
  0
LINE
  5
BE
  8
SIZE
  6
CONTINUOUS
 62
    30
 10
-752.84702300000004
 20
184.0
 30
0.0
 11
-752.84702300000004
 21
196.0
 31
0.0
  0
LINE
  5
BF
  8
SIZE
  6
CONTINUOUS
 62
    30
 10
-752.84702300000004
 20
0.0
 30
0.0
 11
-752.84702300000004
 21
172.0
 31
0.0
  0
CIRCLE
  5
C0
  8
SIZE
  6
CONTINUOUS
 62
    30
 10
-752.84702300000004
 20
0.0
 30
0.0
 40
6.0
  0
LINE
  5
C1
  8
SIZE
  6
CONTINUOUS
 62
    30
 10
-752.84702300000004
 20
0.0
 30
0.0
 11
-752.84702300000004
 21
-12.0
 31
0.0
  0
CIRCLE
  5
C2
  8
SIZE
  6
CONTINUOUS
 62
    30
 10
-752.84702300000004
 20
172.0
 30
0.0
 40
6.0
  0
LINE
  5
C3
  8
SIZE
  6
CONTINUOUS
 62
    30
 10
-752.84702300000004
 20
172.0
 30
0.0
 11
-752.84702300000004
 21
184.0
 31
0.0
  0
TEXT
  5
C4
  8
SIZE
  6
CONTINUOUS
 62
    30
 10
-777.84702300000004
 20
17.428571428571431
 30
0.0
 40
64.0
  1
172
 50
90.0
 41
0.9
 72
     1
 11
-777.84702300000004
 21
86.0
 31
0.0
  0
LINE
  5
C8
  8
SIZE
  6
CONTINUOUS
 62
    30
 10
-145.0
 20
0.0
 30
0.0
 11
-509.18430299999989
 21
0.0
 31
0.0
  0
LINE
  5
C9
  8
SIZE
  6
CONTINUOUS
 62
    30
 10
-251.280091
 20
107.0
 30
0.0
 11
-509.18430299999989
 21
107.0
 31
0.0
  0
LINE
  5
CA
  8
SIZE
  6
CONTINUOUS
 62
    30
 10
-489.184303
 20
12.0
 30
0.0
 11
-489.184303
 21
95.0
 31
0.0
  0
LINE
  5
CB
  8
SIZE
  6
CONTINUOUS
 62
    30
 10
-489.184303
 20
-205.58227099999999
 30
0.0
 11
-489.184303
 21
0.0
 31
0.0
  0
TEXT
  5
CC
  8
SIZE
  6
CONTINUOUS
 62
    30
 10
-514.184303
 20
-180.5822705714285
 30
0.0
 40
64.0
  1
107
 50
90.0
 41
0.9
 72
     1
 11
-514.184303
 21
-112.0108419999999
 31
0.0
  0
CIRCLE
  5
CD
  8
SIZE
  6
CONTINUOUS
 62
    30
 10
-489.184303
 20
0.0
 30
0.0
 40
6.0
  0
LINE
  5
CE
  8
SIZE
  6
CONTINUOUS
 62
    30
 10
-489.184303
 20
0.0
 30
0.0
 11
-489.184303
 21
12.0
 31
0.0
  0
CIRCLE
  5
CF
  8
SIZE
  6
CONTINUOUS
 62
    30
 10
-489.184303
 20
107.0
 30
0.0
 40
6.0
  0
LINE
  5
D0
  8
SIZE
  6
CONTINUOUS
 62
    30
 10
-489.184303
 20
107.0
 30
0.0
 11
-489.184303
 21
95.0
 31
0.0
  0
LINE
  5
D4
  8
SIZE
  6
CONTINUOUS
 62
    30
 10
163.0
 20
0.0
 30
0.0
 11
574.49567200000001
 21
0.0
 31
0.0
  0
LINE
  5
D5
  8
SIZE
  6
CONTINUOUS
 62
    30
 10
53.5
 20
189.0
 30
0.0
 11
574.49567200000001
 21
189.0
 31
0.0
  0
LINE
  5
D6
  8
SIZE
  6
CONTINUOUS
 62
    30
 10
554.49567200000001
 20
12.0
 30
0.0
 11
554.49567200000001
 21
177.0
 31
0.0
  0
CIRCLE
  5
D7
  8
SIZE
  6
CONTINUOUS
 62
    30
 10
554.49567200000001
 20
0.0
 30
0.0
 40
6.0
  0
LINE
  5
D8
  8
SIZE
  6
CONTINUOUS
 62
    30
 10
554.49567200000001
 20
0.0
 30
0.0
 11
554.49567200000001
 21
12.0
 31
0.0
  0
CIRCLE
  5
D9
  8
SIZE
  6
CONTINUOUS
 62
    30
 10
554.49567200000001
 20
189.0
 30
0.0
 40
6.0
  0
LINE
  5
DA
  8
SIZE
  6
CONTINUOUS
 62
    30
 10
554.49567200000001
 20
189.0
 30
0.0
 11
554.49567200000001
 21
177.0
 31
0.0
  0
TEXT
  5
DB
  8
SIZE
  6
CONTINUOUS
 62
    30
 10
529.49567200000001
 20
27.300000000000011
 30
0.0
 40
64.0
  1
189
 50
90.0
 41
0.9
 72
     1
 11
529.49567200000001
 21
94.500000000000014
 31
0.0
  0
LINE
  5
DF
  8
SIZE
  6
CONTINUOUS
 62
    30
 10
159.0
 20
0.0
 30
0.0
 11
574.49567200000001
 21
0.0
 31
0.0
  0
LINE
  5
E0
  8
SIZE
  6
CONTINUOUS
 62
    30
 10
117.0
 20
-15.0
 30
0.0
 11
574.49567200000001
 21
-15.0
 31
0.0
  0
LINE
  5
E1
  8
SIZE
  6
CONTINUOUS
 62
    30
 10
554.49567200000001
 20
12.0
 30
0.0
 11
554.49567200000001
 21
24.0
 31
0.0
  0
LINE
  5
E2
  8
SIZE
  6
CONTINUOUS
 62
    30
 10
554.49567200000001
 20
-27.0
 30
0.0
 11
554.49567200000001
 21
-39.0
 31
0.0
  0
LINE
  5
E3
  8
SIZE
  6
CONTINUOUS
 62
    30
 10
554.49567200000001
 20
-182.34349900000001
 30
0.0
 11
554.49567200000001
 21
-15.0
 31
0.0
  0
TEXT
  5
E4
  8
SIZE
  6
CONTINUOUS
 62
    30
 10
529.49567200000001
 20
-157.3434991428571
 30
0.0
 40
64.0
  1
15
 50
90.0
 41
0.9
 72
     1
 11
529.49567200000001
 21
-116.2006419999999
 31
0.0
  0
LINE
  5
E5
  8
SIZE
  6
CONTINUOUS
 62
    30
 10
554.49567200000001
 20
0.0
 30
0.0
 11
554.49567200000001
 21
-15.0
 31
0.0
  0
LINE
  5
E6
  8
SIZE
  6
CONTINUOUS
 62
    30
 10
554.49567200000001
 20
0.0
 30
0.0
 11
554.49567200000001
 21
-15.0
 31
0.0
  0
CIRCLE
  5
E7
  8
SIZE
  6
CONTINUOUS
 62
    30
 10
554.49567200000001
 20
0.0
 30
0.0
 40
6.0
  0
LINE
  5
E8
  8
SIZE
  6
CONTINUOUS
 62
    30
 10
554.49567200000001
 20
0.0
 30
0.0
 11
554.49567200000001
 21
12.0
 31
0.0
  0
CIRCLE
  5
E9
  8
SIZE
  6
CONTINUOUS
 62
    30
 10
554.49567200000001
 20
-15.0
 30
0.0
 40
6.0
  0
LINE
  5
EA
  8
SIZE
  6
CONTINUOUS
 62
    30
 10
554.49567200000001
 20
-15.0
 30
0.0
 11
554.49567200000001
 21
-27.0
 31
0.0
  0
LINE
  5
EE
  8
SIZE
  6
CONTINUOUS
 62
    30
 10
163.0
 20
0.0
 30
0.0
 11
454.24845799999991
 21
0.0
 31
0.0
  0
LINE
  5
EF
  8
SIZE
  6
CONTINUOUS
 62
    30
 10
121.5
 20
155.0
 30
0.0
 11
454.24845799999991
 21
155.0
 31
0.0
  0
LINE
  5
F0
  8
SIZE
  6
CONTINUOUS
 62
    30
 10
434.24845800000003
 20
12.0
 30
0.0
 11
434.24845800000003
 21
143.0
 31
0.0
  0
LINE
  5
F1
  8
SIZE
  6
CONTINUOUS
 62
    30
 10
434.24845800000003
 20
-213.16263499999999
 30
0.0
 11
434.24845800000003
 21
0.0
 31
0.0
  0
TEXT
  5
F2
  8
SIZE
  6
CONTINUOUS
 62
    30
 10
409.24845800000003
 20
-188.1626345714285
 30
0.0
 40
64.0
  1
155
 50
90.0
 41
0.9
 72
     1
 11
409.24845800000003
 21
-119.5912059999999
 31
0.0
  0
CIRCLE
  5
F3
  8
SIZE
  6
CONTINUOUS
 62
    30
 10
434.24845800000003
 20
0.0
 30
0.0
 40
6.0
  0
LINE
  5
F4
  8
SIZE
  6
CONTINUOUS
 62
    30
 10
434.24845800000003
 20
0.0
 30
0.0
 11
434.24845800000003
 21
12.0
 31
0.0
  0
CIRCLE
  5
F5
  8
SIZE
  6
CONTINUOUS
 62
    30
 10
434.24845800000003
 20
155.0
 30
0.0
 40
6.0
  0
LINE
  5
F6
  8
SIZE
  6
CONTINUOUS
 62
    30
 10
434.24845800000003
 20
155.0
 30
0.0
 11
434.24845800000003
 21
143.0
 31
0.0
  0
LINE
  5
FA
  8
SIZE
  6
CONTINUOUS
 62
    30
 10
-101.5
 20
192.0
 30
0.0
 11
-101.5
 21
807.19662200000005
 31
0.0
  0
LINE
  5
FB
  8
SIZE
  6
CONTINUOUS
 62
    30
 10
101.5
 20
175.0
 30
0.0
 11
101.5
 21
807.19662200000005
 31
0.0
  0
LINE
  5
FC
  8
SIZE
  6
CONTINUOUS
 62
    30
 10
-113.5
 20
787.19662199999993
 30
0.0
 11
-125.5
 21
787.19662199999993
 31
0.0
  0
LINE
  5
FD
  8
SIZE
  6
CONTINUOUS
 62
    30
 10
113.5
 20
787.19662199999993
 30
0.0
 11
125.5
 21
787.19662199999993
 31
0.0
  0
LINE
  5
FE
  8
SIZE
  6
CONTINUOUS
 62
    30
 10
-101.5
 20
787.19662199999993
 30
0.0
 11
101.5
 21
787.19662199999993
 31
0.0
  0
CIRCLE
  5
FF
  8
SIZE
  6
CONTINUOUS
 62
    30
 10
-101.5
 20
787.19662199999993
 30
0.0
 40
6.0
  0
LINE
  5
100
  8
SIZE
  6
CONTINUOUS
 62
    30
 10
-101.5
 20
787.19662199999993
 30
0.0
 11
-113.5
 21
787.19662199999993
 31
0.0
  0
CIRCLE
  5
101
  8
SIZE
  6
CONTINUOUS
 62
    30
 10
101.5
 20
787.19662199999993
 30
0.0
 40
6.0
  0
LINE
  5
102
  8
SIZE
  6
CONTINUOUS
 62
    30
 10
101.5
 20
787.19662199999993
 30
0.0
 11
113.5
 21
787.19662199999993
 31
0.0
  0
TEXT
  5
103
  8
SIZE
  6
CONTINUOUS
 62
    30
 10
-110.5371428571428
 20
812.19662199999993
 30
0.0
 40
64.0
  1
üá203
 41
0.9
 72
     1
 11
0.0
 21
812.19662199999993
 31
0.0
  0
LINE
  5
107
  8
SIZE
  6
CONTINUOUS
 62
    30
 10
0.0
 20
266.74818599999992
 30
0.0
 11
0.0
 21
567.29884900000002
 31
0.0
  0
LINE
  5
108
  8
SIZE
  6
CONTINUOUS
 62
    30
 10
6.0
 20
229.352395
 30
0.0
 11
6.0
 21
567.29884900000002
 31
0.0
  0
LINE
  5
109
  8
SIZE
  6
CONTINUOUS
 62
    30
 10
-12.0
 20
547.29884900000002
 30
0.0
 11
-24.0
 21
547.29884900000002
 31
0.0
  0
LINE
  5
10A
  8
SIZE
  6
CONTINUOUS
 62
    30
 10
18.0
 20
547.29884900000002
 30
0.0
 11
30.0
 21
547.29884900000002
 31
0.0
  0
LINE
  5
10B
  8
SIZE
  6
CONTINUOUS
 62
    30
 10
0.0
 20
547.29884900000002
 30
0.0
 11
6.0
 21
547.29884900000002
 31
0.0
  0
CIRCLE
  5
10C
  8
SIZE
  6
CONTINUOUS
 62
    30
 10
0.0
 20
547.29884900000002
 30
0.0
 40
6.0
  0
LINE
  5
10D
  8
SIZE
  6
CONTINUOUS
 62
    30
 10
0.0
 20
547.29884900000002
 30
0.0
 11
-12.0
 21
547.29884900000002
 31
0.0
  0
CIRCLE
  5
10E
  8
SIZE
  6
CONTINUOUS
 62
    30
 10
6.0
 20
547.29884900000002
 30
0.0
 40
6.0
  0
LINE
  5
10F
  8
SIZE
  6
CONTINUOUS
 62
    30
 10
6.0
 20
547.29884900000002
 30
0.0
 11
18.0
 21
547.29884900000002
 31
0.0
  0
TEXT
  5
110
  8
SIZE
  6
CONTINUOUS
 62
    30
 10
-14.82857142857142
 20
572.29884900000002
 30
0.0
 40
64.0
  1
6
 41
0.9
 72
     1
 11
3.0
 21
572.29884900000002
 31
0.0
  0
LINE
  5
114
  8
SIZE
  6
CONTINUOUS
 62
    30
 10
-24.5
 20
206.0
 30
0.0
 11
-24.5
 21
682.22430599999996
 31
0.0
  0
LINE
  5
115
  8
SIZE
  6
CONTINUOUS
 62
    30
 10
36.5
 20
206.0
 30
0.0
 11
36.5
 21
682.22430599999996
 31
0.0
  0
LINE
  5
116
  8
SIZE
  6
CONTINUOUS
 62
    30
 10
-36.5
 20
662.22430599999996
 30
0.0
 11
-48.5
 21
662.22430599999996
 31
0.0
  0
LINE
  5
117
  8
SIZE
  6
CONTINUOUS
 62
    30
 10
48.5
 20
662.22430599999996
 30
0.0
 11
60.5
 21
662.22430599999996
 31
0.0
  0
LINE
  5
118
  8
SIZE
  6
CONTINUOUS
 62
    30
 10
-24.5
 20
662.22430599999996
 30
0.0
 11
36.5
 21
662.22430599999996
 31
0.0
  0
CIRCLE
  5
119
  8
SIZE
  6
CONTINUOUS
 62
    30
 10
-24.5
 20
662.22430599999996
 30
0.0
 40
6.0
  0
LINE
  5
11A
  8
SIZE
  6
CONTINUOUS
 62
    30
 10
-24.5
 20
662.22430599999996
 30
0.0
 11
-36.5
 21
662.22430599999996
 31
0.0
  0
CIRCLE
  5
11B
  8
SIZE
  6
CONTINUOUS
 62
    30
 10
36.5
 20
662.22430599999996
 30
0.0
 40
6.0
  0
LINE
  5
11C
  8
SIZE
  6
CONTINUOUS
 62
    30
 10
36.5
 20
662.22430599999996
 30
0.0
 11
48.5
 21
662.22430599999996
 31
0.0
  0
TEXT
  5
11D
  8
SIZE
  6
CONTINUOUS
 62
    30
 10
-68.605714285714299
 20
687.22430599999996
 30
0.0
 40
64.0
  1
âË61
 41
0.9
 72
     1
 11
6.0
 21
687.22430599999996
 31
0.0
  0
LINE
  5
121
  8
SIZE
  6
CONTINUOUS
 62
    30
 10
-101.5
 20
192.0
 30
0.0
 11
-101.5
 21
807.19662200000005
 31
0.0
  0
LINE
  5
122
  8
SIZE
  6
CONTINUOUS
 62
    30
 10
-215.5
 20
176.0
 30
0.0
 11
-215.5
 21
807.19662200000005
 31
0.0
  0
LINE
  5
123
  8
SIZE
  6
CONTINUOUS
 62
    30
 10
-113.5
 20
787.19662199999993
 30
0.0
 11
-203.5
 21
787.19662199999993
 31
0.0
  0
LINE
  5
124
  8
SIZE
  6
CONTINUOUS
 62
    30
 10
-419.881912
 20
787.19662199999993
 30
0.0
 11
-215.5
 21
787.19662199999993
 31
0.0
  0
TEXT
  5
125
  8
SIZE
  6
CONTINUOUS
 62
    30
 10
-394.88191185714282
 20
812.19662199999993
 30
0.0
 40
64.0
  1
114
 41
0.9
 72
     1
 11
-330.42476899999991
 21
812.19662199999993
 31
0.0
  0
CIRCLE
  5
126
  8
SIZE
  6
CONTINUOUS
 62
    30
 10
-101.5
 20
787.19662199999993
 30
0.0
 40
6.0
  0
LINE
  5
127
  8
SIZE
  6
CONTINUOUS
 62
    30
 10
-101.5
 20
787.19662199999993
 30
0.0
 11
-113.5
 21
787.19662199999993
 31
0.0
  0
CIRCLE
  5
128
  8
SIZE
  6
CONTINUOUS
 62
    30
 10
-215.5
 20
787.19662199999993
 30
0.0
 40
6.0
  0
LINE
  5
129
  8
SIZE
  6
CONTINUOUS
 62
    30
 10
-215.5
 20
787.19662199999993
 30
0.0
 11
-203.5
 21
787.19662199999993
 31
0.0
  0
LINE
  5
12D
  8
SIZE
  6
CONTINUOUS
 62
    30
 10
-163.49999999999989
 20
179.49999999999989
 30
0.0
 11
-163.49999999999989
 21
682.2725929999998
 31
0.0
  0
LINE
  5
12E
  8
SIZE
  6
CONTINUOUS
 62
    30
 10
-215.5
 20
176.0
 30
0.0
 11
-215.5
 21
682.2725929999998
 31
0.0
  0
LINE
  5
12F
  8
SIZE
  6
CONTINUOUS
 62
    30
 10
-151.5
 20
662.27259299999992
 30
0.0
 11
-139.5
 21
662.27259299999992
 31
0.0
  0
LINE
  5
130
  8
SIZE
  6
CONTINUOUS
 62
    30
 10
-227.49999999999989
 20
662.27259299999992
 30
0.0
 11
-239.5
 21
662.27259299999992
 31
0.0
  0
LINE
  5
131
  8
SIZE
  6
CONTINUOUS
 62
    30
 10
-396.28134999999992
 20
662.27259299999992
 30
0.0
 11
-215.5
 21
662.27259299999992
 31
0.0
  0
TEXT
  5
132
  8
SIZE
  6
CONTINUOUS
 62
    30
 10
-371.28134942857127
 20
687.27259299999992
 30
0.0
 40
64.0
  1
52
 41
0.9
 72
     1
 11
-324.6527779999999
 21
687.27259299999992
 31
0.0
  0
LINE
  5
133
  8
SIZE
  6
CONTINUOUS
 62
    30
 10
-163.49999999999989
 20
662.27259299999992
 30
0.0
 11
-215.5
 21
662.27259299999992
 31
0.0
  0
LINE
  5
134
  8
SIZE
  6
CONTINUOUS
 62
    30
 10
-163.49999999999989
 20
662.27259299999992
 30
0.0
 11
-215.5
 21
662.27259299999992
 31
0.0
  0
CIRCLE
  5
135
  8
SIZE
  6
CONTINUOUS
 62
    30
 10
-163.49999999999989
 20
662.27259299999992
 30
0.0
 40
6.0
  0
LINE
  5
136
  8
SIZE
  6
CONTINUOUS
 62
    30
 10
-163.49999999999989
 20
662.27259299999992
 30
0.0
 11
-151.5
 21
662.27259299999992
 31
0.0
  0
CIRCLE
  5
137
  8
SIZE
  6
CONTINUOUS
 62
    30
 10
-215.5
 20
662.27259299999992
 30
0.0
 40
6.0
  0
LINE
  5
138
  8
SIZE
  6
CONTINUOUS
 62
    30
 10
-215.5
 20
662.27259299999992
 30
0.0
 11
-227.49999999999989
 21
662.27259299999992
 31
0.0
  0
LINE
  5
13C
  8
SIZE
  6
CONTINUOUS
 62
    30
 10
-188.49999999999989
 20
176.0
 30
0.0
 11
-188.49999999999989
 21
551.546874
 31
0.0
  0
LINE
  5
13D
  8
SIZE
  6
CONTINUOUS
 62
    30
 10
-215.5
 20
176.0
 30
0.0
 11
-215.5
 21
551.546874
 31
0.0
  0
LINE
  5
13E
  8
SIZE
  6
CONTINUOUS
 62
    30
 10
-176.5
 20
531.546874
 30
0.0
 11
-164.5
 21
531.546874
 31
0.0
  0
LINE
  5
13F
  8
SIZE
  6
CONTINUOUS
 62
    30
 10
-227.49999999999989
 20
531.546874
 30
0.0
 11
-239.5
 21
531.546874
 31
0.0
  0
LINE
  5
140
  8
SIZE
  6
CONTINUOUS
 62
    30
 10
-390.67595799999992
 20
531.546874
 30
0.0
 11
-215.5
 21
531.546874
 31
0.0
  0
TEXT
  5
141
  8
SIZE
  6
CONTINUOUS
 62
    30
 10
-365.67595742857139
 20
556.546874
 30
0.0
 40
64.0
  1
27
 41
0.9
 72
     1
 11
-319.0473859999999
 21
556.546874
 31
0.0
  0
LINE
  5
142
  8
SIZE
  6
CONTINUOUS
 62
    30
 10
-188.49999999999989
 20
531.546874
 30
0.0
 11
-215.5
 21
531.546874
 31
0.0
  0
LINE
  5
143
  8
SIZE
  6
CONTINUOUS
 62
    30
 10
-188.49999999999989
 20
531.546874
 30
0.0
 11
-215.5
 21
531.546874
 31
0.0
  0
CIRCLE
  5
144
  8
SIZE
  6
CONTINUOUS
 62
    30
 10
-188.49999999999989
 20
531.546874
 30
0.0
 40
6.0
  0
LINE
  5
145
  8
SIZE
  6
CONTINUOUS
 62
    30
 10
-188.49999999999989
 20
531.546874
 30
0.0
 11
-176.5
 21
531.546874
 31
0.0
  0
CIRCLE
  5
146
  8
SIZE
  6
CONTINUOUS
 62
    30
 10
-215.5
 20
531.546874
 30
0.0
 40
6.0
  0
LINE
  5
147
  8
SIZE
  6
CONTINUOUS
 62
    30
 10
-215.5
 20
531.546874
 30
0.0
 11
-227.49999999999989
 21
531.546874
 31
0.0
  0
LINE
  5
14B
  8
SIZE
  6
CONTINUOUS
 62
    30
 10
-215.5
 20
176.0
 30
0.0
 11
-215.5
 21
422.95909599999999
 31
0.0
  0
LINE
  5
14C
  8
SIZE
  6
CONTINUOUS
 62
    30
 10
-226.5
 20
139.3577469999999
 30
0.0
 11
-226.5
 21
422.95909599999999
 31
0.0
  0
LINE
  5
14D
  8
SIZE
  6
CONTINUOUS
 62
    30
 10
-203.5
 20
402.95909599999999
 30
0.0
 11
-191.5
 21
402.95909599999999
 31
0.0
  0
LINE
  5
14E
  8
SIZE
  6
CONTINUOUS
 62
    30
 10
-238.5
 20
402.95909599999999
 30
0.0
 11
-250.49999999999989
 21
402.95909599999999
 31
0.0
  0
LINE
  5
14F
  8
SIZE
  6
CONTINUOUS
 62
    30
 10
-360.83583700000003
 20
402.95909599999999
 30
0.0
 11
-226.5
 21
402.95909599999999
 31
0.0
  0
TEXT
  5
150
  8
SIZE
  6
CONTINUOUS
 62
    30
 10
-335.83583700000003
 20
427.95909599999999
 30
0.0
 40
64.0
  1
11
 41
0.9
 72
     1
 11
-307.03583700000001
 21
427.95909599999999
 31
0.0
  0
LINE
  5
151
  8
SIZE
  6
CONTINUOUS
 62
    30
 10
-215.5
 20
402.95909599999999
 30
0.0
 11
-226.5
 21
402.95909599999999
 31
0.0
  0
LINE
  5
152
  8
SIZE
  6
CONTINUOUS
 62
    30
 10
-215.5
 20
402.95909599999999
 30
0.0
 11
-226.5
 21
402.95909599999999
 31
0.0
  0
CIRCLE
  5
153
  8
SIZE
  6
CONTINUOUS
 62
    30
 10
-215.5
 20
402.95909599999999
 30
0.0
 40
6.0
  0
LINE
  5
154
  8
SIZE
  6
CONTINUOUS
 62
    30
 10
-215.5
 20
402.95909599999999
 30
0.0
 11
-203.5
 21
402.95909599999999
 31
0.0
  0
CIRCLE
  5
155
  8
SIZE
  6
CONTINUOUS
 62
    30
 10
-226.5
 20
402.95909599999999
 30
0.0
 40
6.0
  0
LINE
  5
156
  8
SIZE
  6
CONTINUOUS
 62
    30
 10
-226.5
 20
402.95909599999999
 30
0.0
 11
-238.5
 21
402.95909599999999
 31
0.0
  0
LINE
  5
15A
  8
SIZE
  6
CONTINUOUS
 62
    30
 10
-147.88783699999999
 20
1.0
 30
0.0
 11
-402.30614300000002
 21
1.0
 31
0.0
  0
LINE
  5
15B
  8
SIZE
  6
CONTINUOUS
 62
    30
 10
-181.50917599999991
 20
52.0
 30
0.0
 11
-402.30614300000002
 21
52.0
 31
0.0
  0
LINE
  5
15C
  8
SIZE
  6
CONTINUOUS
 62
    30
 10
-382.30614300000002
 20
-11.0
 30
0.0
 11
-382.30614300000002
 21
-23.0
 31
0.0
  0
LINE
  5
15D
  8
SIZE
  6
CONTINUOUS
 62
    30
 10
-382.30614300000002
 20
64.0
 30
0.0
 11
-382.30614300000002
 21
76.0
 31
0.0
  0
LINE
  5
15E
  8
SIZE
  6
CONTINUOUS
 62
    30
 10
-382.30614300000002
 20
-145.3948739999999
 30
0.0
 11
-382.30614300000002
 21
1.0
 31
0.0
  0
TEXT
  5
15F
  8
SIZE
  6
CONTINUOUS
 62
    30
 10
-407.30614300000002
 20
-120.3948732857142
 30
0.0
 40
64.0
  1
51
 50
90.0
 41
0.9
 72
     1
 11
-407.30614300000002
 21
-86.109159000000005
 31
0.0
  0
LINE
  5
160
  8
SIZE
  6
CONTINUOUS
 62
    30
 10
-382.30614300000002
 20
1.0
 30
0.0
 11
-382.30614300000002
 21
52.0
 31
0.0
  0
LINE
  5
161
  8
SIZE
  6
CONTINUOUS
 62
    30
 10
-382.30614300000002
 20
1.0
 30
0.0
 11
-382.30614300000002
 21
52.0
 31
0.0
  0
CIRCLE
  5
162
  8
SIZE
  6
CONTINUOUS
 62
    30
 10
-382.30614300000002
 20
1.0
 30
0.0
 40
6.0
  0
LINE
  5
163
  8
SIZE
  6
CONTINUOUS
 62
    30
 10
-382.30614300000002
 20
1.0
 30
0.0
 11
-382.30614300000002
 21
-11.0
 31
0.0
  0
CIRCLE
  5
164
  8
SIZE
  6
CONTINUOUS
 62
    30
 10
-382.30614300000002
 20
52.0
 30
0.0
 40
6.0
  0
LINE
  5
165
  8
SIZE
  6
CONTINUOUS
 62
    30
 10
-382.30614300000002
 20
52.0
 30
0.0
 11
-382.30614300000002
 21
64.0
 31
0.0
  0
LINE
  5
169
  8
DETAIL
  6
CONTINUOUS
 62
     5
 10
-21.499999999999989
 20
189.0
 30
0.0
 11
33.5
 21
189.0
 31
0.0
  0
LINE
  5
16A
  8
DETAIL
  6
CONTINUOUS
 62
     5
 10
36.5
 20
186.0
 30
0.0
 11
36.5
 21
157.0
 31
0.0
  0
ARC
  5
16B
  8
DETAIL
  6
CONTINUOUS
 62
     5
 10
33.5
 20
186.0
 30
0.0
 40
3.0
 50
0.0
 51
90.0
  0
LINE
  5
16C
  8
DETAIL
  6
CONTINUOUS
 62
     5
 10
-24.5
 20
186.0
 30
0.0
 11
-24.5
 21
157.0
 31
0.0
  0
ARC
  5
16D
  8
DETAIL
  6
CONTINUOUS
 62
     5
 10
-21.499999999999989
 20
186.0
 30
0.0
 40
3.0
 50
90.0
 51
180.0
  0
LINE
  5
16E
  8
DETAIL
  6
CONTINUOUS
 62
     5
 10
49.351471999999987
 20
157.0
 30
0.0
 11
17.5
 21
157.0
 31
0.0
  0
LINE
  5
16F
  8
DETAIL
  6
CONTINUOUS
 62
     5
 10
51.0
 20
155.0
 30
0.0
 11
49.351471999999987
 21
157.0
 31
0.0
  0
LINE
  5
170
  8
DETAIL
  6
CONTINUOUS
 62
     5
 10
-39.0
 20
155.0
 30
0.0
 11
-37.351471999999987
 21
157.0
 31
0.0
  0
LINE
  5
171
  8
DETAIL
  6
CONTINUOUS
 62
     5
 10
-95.5
 20
-15.0
 30
0.0
 11
95.5
 21
-15.0
 31
0.0
  0
LINE
  5
172
  8
DETAIL
  6
CONTINUOUS
 62
     5
 10
143.0
 20
0.0
 30
0.0
 11
-143.0
 21
0.0
 31
0.0
  0
ARC
  5
173
  8
DETAIL
  6
CONTINUOUS
 62
     5
 10
137.0
 20
-6.2662009999999997
 30
0.0
 40
6.0
 50
277.81959599999999
 51
0.0
  0
LINE
  5
174
  8
DETAIL
  6
CONTINUOUS
 62
     5
 10
95.5
 20
-15.0
 30
0.0
 11
95.5
 21
0.0
 31
0.0
  0
LINE
  5
175
  8
DETAIL
  6
CONTINUOUS
 62
     5
 10
97.0
 20
-15.0
 30
0.0
 11
97.0
 21
0.0
 31
0.0
  0
ARC
  5
176
  8
DETAIL
  6
CONTINUOUS
 62
     5
 10
97.0
 20
285.0
 30
0.0
 40
300.0
 50
270.0
 51
277.81959599999999
  0
LINE
  5
177
  8
DETAIL
  6
CONTINUOUS
 62
     5
 10
97.0
 20
-14.0
 30
0.0
 11
95.5
 21
-14.0
 31
0.0
  0
LINE
  5
178
  8
DETAIL
  6
CONTINUOUS
 62
     5
 10
143.0
 20
0.0
 30
0.0
 11
143.0
 21
-6.2662009999999997
 31
0.0
  0
LINE
  5
179
  8
DETAIL
  6
CONTINUOUS
 62
     5
 10
-97.0
 20
-15.0
 30
0.0
 11
-97.0
 21
0.0
 31
0.0
  0
LINE
  5
17A
  8
DETAIL
  6
CONTINUOUS
 62
     5
 10
-95.5
 20
-15.0
 30
0.0
 11
-95.5
 21
0.0
 31
0.0
  0
ARC
  5
17B
  8
DETAIL
  6
CONTINUOUS
 62
     5
 10
-137.0
 20
-6.2662009999999997
 30
0.0
 40
6.0
 50
180.0
 51
262.18040400000001
  0
ARC
  5
17C
  8
DETAIL
  6
CONTINUOUS
 62
     5
 10
-97.0
 20
285.0
 30
0.0
 40
300.0
 50
262.18040400000001
 51
270.0
  0
LINE
  5
17D
  8
DETAIL
  6
CONTINUOUS
 62
     5
 10
-97.0
 20
-14.0
 30
0.0
 11
-95.5
 21
-14.0
 31
0.0
  0
LINE
  5
17E
  8
DETAIL
  6
CONTINUOUS
 62
     5
 10
-143.0
 20
0.0
 30
0.0
 11
-143.0
 21
-6.2662009999999997
 31
0.0
  0
LINE
  5
17F
  8
DETAIL
  6
CONTINOUS
 62
     5
 10
-103.4999999999999
 20
1.0
 30
0.0
 11
-127.887837
 21
1.0
 31
0.0
  0
LINE
  5
180
  8
DETAIL
  6
CONTINUOUS
 62
     5
 10
-17.5
 20
157.0
 30
0.0
 11
-37.351471999999987
 21
157.0
 31
0.0
  0
LINE
  5
181
  8
OUTLINE
  6
CONTINUOUS
 62
     3
 10
101.5
 20
0.0
 30
0.0
 11
101.5
 21
155.0
 31
0.0
  0
LINE
  5
182
  8
OUTLINE
  6
CONTINUOUS
 62
     3
 10
101.5
 20
155.0
 30
0.0
 11
17.5
 21
155.0
 31
0.0
  0
LINE
  5
183
  8
OUTLINE
  6
CONTINUOUS
 62
     3
 10
-17.5
 20
155.0
 30
0.0
 11
-101.5
 21
155.0
 31
0.0
  0
LINE
  5
184
  8
OUTLINE
  6
CONTINUOUS
 62
     3
 10
-101.5
 20
0.0
 30
0.0
 11
-101.5
 21
155.0
 31
0.0
  0
LINE
  5
185
  8
OUTLINE
  6
CONTINUOUS
 62
     3
 10
143.0
 20
0.0
 30
0.0
 11
-143.0
 21
0.0
 31
0.0
  0
LINE
  5
186
  8
OUTLINE
  6
DASHED
 62
     3
 39
50.0
 10
-17.5
 20
155.0
 30
0.0
 11
17.5
 21
155.0
 31
0.0
  0
LINE
  5
187
  8
DETAIL
  6
CONTINUOUS
 62
     5
 10
-99.500000000000014
 20
155.0
 30
0.0
 11
-99.500000000000014
 21
172.0
 31
0.0
  0
LINE
  5
188
  8
DETAIL
  6
CONTINUOUS
 62
     5
 10
-101.5
 20
172.0
 30
0.0
 11
-99.500000000000014
 21
172.0
 31
0.0
  0
LINE
  5
189
  8
SIZE
  6
CONTINUOUS
 62
    30
 10
-235.49999999999989
 20
156.0
 30
0.0
 11
-572.06933700000002
 21
156.0
 31
0.0
  0
LINE
  5
18A
  8
SIZE
  6
CONTINUOUS
 62
    30
 10
-235.49999999999989
 20
58.0
 30
0.0
 11
-572.06933700000002
 21
58.0
 31
0.0
  0
LINE
  5
18B
  8
SIZE
  6
CONTINUOUS
 62
    30
 10
-552.06933700000002
 20
144.0
 30
0.0
 11
-552.06933700000002
 21
70.0
 31
0.0
  0
LINE
  5
18C
  8
SIZE
  6
CONTINUOUS
 62
    30
 10
-552.06933700000002
 20
376.01723099999992
 30
0.0
 11
-552.06933700000002
 21
156.0
 31
0.0
  0
TEXT
  5
18D
  8
SIZE
  6
CONTINUOUS
 62
    30
 10
-577.06933700000002
 20
191.38294457142851
 30
0.0
 40
64.0
  1
âË98
 50
90.0
 41
0.9
 72
     1
 11
-577.06933700000002
 21
278.33151600000002
 31
0.0
  0
CIRCLE
  5
18E
  8
SIZE
  6
CONTINUOUS
 62
    30
 10
-552.06933700000002
 20
156.0
 30
0.0
 40
6.0
  0
LINE
  5
18F
  8
SIZE
  6
CONTINUOUS
 62
    30
 10
-552.06933700000002
 20
156.0
 30
0.0
 11
-552.06933700000002
 21
144.0
 31
0.0
  0
CIRCLE
  5
190
  8
SIZE
  6
CONTINUOUS
 62
    30
 10
-552.06933700000002
 20
58.0
 30
0.0
 40
6.0
  0
LINE
  5
191
  8
SIZE
  6
CONTINUOUS
 62
    30
 10
-552.06933700000002
 20
58.0
 30
0.0
 11
-552.06933700000002
 21
70.0
 31
0.0
  0
LINE
  5
195
  8
SIZE
  6
CONTINUOUS
 62
    30
 10
-204.49999999999989
 20
159.49999999999989
 30
0.0
 11
-685.49493700000005
 21
159.49999999999989
 31
0.0
  0
LINE
  5
196
  8
SIZE
  6
CONTINUOUS
 62
    30
 10
-204.49999999999989
 20
54.5
 30
0.0
 11
-685.49493700000005
 21
54.5
 31
0.0
  0
LINE
  5
197
  8
SIZE
  6
CONTINUOUS
 62
    30
 10
-665.49493700000005
 20
147.5
 30
0.0
 11
-665.49493700000005
 21
66.5
 31
0.0
  0
LINE
  5
198
  8
SIZE
  6
CONTINUOUS
 62
    30
 10
-665.49493700000005
 20
413.42081799999988
 30
0.0
 11
-665.49493700000005
 21
159.49999999999989
 31
0.0
  0
TEXT
  5
199
  8
SIZE
  6
CONTINUOUS
 62
    30
 10
-690.49493700000005
 20
184.9008184285714
 30
0.0
 40
64.0
  1
âË105
 50
90.0
 41
0.9
 72
     1
 11
-690.49493700000005
 21
293.79224699999997
 31
0.0
  0
CIRCLE
  5
19A
  8
SIZE
  6
CONTINUOUS
 62
    30
 10
-665.49493700000005
 20
159.49999999999989
 30
0.0
 40
6.0
  0
LINE
  5
19B
  8
SIZE
  6
CONTINUOUS
 62
    30
 10
-665.49493700000005
 20
159.49999999999989
 30
0.0
 11
-665.49493700000005
 21
147.5
 31
0.0
  0
CIRCLE
  5
19C
  8
SIZE
  6
CONTINUOUS
 62
    30
 10
-665.49493700000005
 20
54.5
 30
0.0
 40
6.0
  0
LINE
  5
19D
  8
SIZE
  6
CONTINUOUS
 62
    30
 10
-665.49493700000005
 20
54.5
 30
0.0
 11
-665.49493700000005
 21
66.5
 31
0.0
  0
CIRCLE
  5
1A1
  8
FIX
  6
CONTINUOUS
 62
    11
 10
-117.5
 20
0.0
 30
0.0
 40
2.5
  0
LINE
  5
1A2
  8
NOTE
  6
CONTINUOUS
 62
     4
 10
-117.5
 20
-20.0
 30
0.0
 11
-117.5
 21
20.0
 31
0.0
  0
LINE
  5
1A3
  8
NOTE
  6
CONTINUOUS
 62
     4
 10
-97.5
 20
0.0
 30
0.0
 11
-137.5
 21
0.0
 31
0.0
  0
LINE
  5
1A4
  8
SIZE
  6
CONTINUOUS
 62
    30
 10
121.5
 20
155.0
 30
0.0
 11
454.24845799999991
 21
155.0
 31
0.0
  0
LINE
  5
1A5
  8
SIZE
  6
CONTINUOUS
 62
    30
 10
69.351472000000001
 20
157.0
 30
0.0
 11
454.24845799999991
 21
157.0
 31
0.0
  0
LINE
  5
1A6
  8
SIZE
  6
CONTINUOUS
 62
    30
 10
434.24845800000003
 20
143.0
 30
0.0
 11
434.24845800000003
 21
131.0
 31
0.0
  0
LINE
  5
1A7
  8
SIZE
  6
CONTINUOUS
 62
    30
 10
434.24845800000003
 20
169.0
 30
0.0
 11
434.24845800000003
 21
181.0
 31
0.0
  0
LINE
  5
1A8
  8
SIZE
  6
CONTINUOUS
 62
    30
 10
434.24845800000003
 20
304.62916300000001
 30
0.0
 11
434.24845800000003
 21
157.0
 31
0.0
  0
TEXT
  5
1A9
  8
SIZE
  6
CONTINUOUS
 62
    30
 10
409.24845800000003
 20
241.229163
 30
0.0
 40
64.0
  1
2
 50
90.0
 41
0.9
 72
     1
 11
409.24845800000003
 21
260.42916300000002
 31
0.0
  0
LINE
  5
1AA
  8
SIZE
  6
CONTINUOUS
 62
    30
 10
434.24845800000003
 20
155.0
 30
0.0
 11
434.24845800000003
 21
157.0
 31
0.0
  0
LINE
  5
1AB
  8
SIZE
  6
CONTINUOUS
 62
    30
 10
434.24845800000003
 20
155.0
 30
0.0
 11
434.24845800000003
 21
157.0
 31
0.0
  0
CIRCLE
  5
1AC
  8
SIZE
  6
CONTINUOUS
 62
    30
 10
434.24845800000003
 20
155.0
 30
0.0
 40
6.0
  0
LINE
  5
1AD
  8
SIZE
  6
CONTINUOUS
 62
    30
 10
434.24845800000003
 20
155.0
 30
0.0
 11
434.24845800000003
 21
143.0
 31
0.0
  0
CIRCLE
  5
1AE
  8
SIZE
  6
CONTINUOUS
 62
    30
 10
434.24845800000003
 20
157.0
 30
0.0
 40
6.0
  0
LINE
  5
1AF
  8
SIZE
  6
CONTINUOUS
 62
    30
 10
434.24845800000003
 20
157.0
 30
0.0
 11
434.24845800000003
 21
169.0
 31
0.0
  0
LINE
  5
1B3
  8
SIZE
  6
CONTINUOUS
 62
    30
 10
121.5
 20
155.0
 30
0.0
 11
326.68175400000001
 21
155.0
 31
0.0
  0
LINE
  5
1B4
  8
SIZE
  6
CONTINUOUS
 62
    30
 10
40.0
 20
186.0
 30
0.0
 11
326.68175400000001
 21
186.0
 31
0.0
  0
LINE
  5
1B5
  8
SIZE
  6
CONTINUOUS
 62
    30
 10
306.68175400000001
 20
143.0
 30
0.0
 11
306.68175400000001
 21
131.0
 31
0.0
  0
LINE
  5
1B6
  8
SIZE
  6
CONTINUOUS
 62
    30
 10
306.68175400000001
 20
198.0
 30
0.0
 11
306.68175400000001
 21
210.0
 31
0.0
  0
LINE
  5
1B7
  8
SIZE
  6
CONTINUOUS
 62
    30
 10
306.68175400000001
 20
344.68427000000003
 30
0.0
 11
306.68175400000001
 21
186.0
 31
0.0
  0
TEXT
  5
1B8
  8
SIZE
  6
CONTINUOUS
 62
    30
 10
281.68175400000001
 20
251.11284171428559
 30
0.0
 40
64.0
  1
31
 50
90.0
 41
0.9
 72
     1
 11
281.68175400000001
 21
285.39855599999993
 31
0.0
  0
LINE
  5
1B9
  8
SIZE
  6
CONTINUOUS
 62
    30
 10
306.68175400000001
 20
155.0
 30
0.0
 11
306.68175400000001
 21
186.0
 31
0.0
  0
LINE
  5
1BA
  8
SIZE
  6
CONTINUOUS
 62
    30
 10
306.68175400000001
 20
155.0
 30
0.0
 11
306.68175400000001
 21
186.0
 31
0.0
  0
CIRCLE
  5
1BB
  8
SIZE
  6
CONTINUOUS
 62
    30
 10
306.68175400000001
 20
155.0
 30
0.0
 40
6.0
  0
LINE
  5
1BC
  8
SIZE
  6
CONTINUOUS
 62
    30
 10
306.68175400000001
 20
155.0
 30
0.0
 11
306.68175400000001
 21
143.0
 31
0.0
  0
CIRCLE
  5
1BD
  8
SIZE
  6
CONTINUOUS
 62
    30
 10
306.68175400000001
 20
186.0
 30
0.0
 40
6.0
  0
LINE
  5
1BE
  8
SIZE
  6
CONTINUOUS
 62
    30
 10
306.68175400000001
 20
186.0
 30
0.0
 11
306.68175400000001
 21
198.0
 31
0.0
  0
LINE
  5
1C2
  8
NOTE
  6
CONTINUOUS
 62
     4
 10
-63.0
 20
135.0
 30
0.0
 11
-63.0
 21
175.0
 31
0.0
  0
LINE
  5
1C3
  8
NOTE
  6
CONTINUOUS
 62
     4
 10
-43.0
 20
155.0
 30
0.0
 11
-83.0
 21
155.0
 31
0.0
  0
LINE
  5
1C4
  8
SIZE
  6
CONTINUOUS
 62
    30
 10
0.0
 20
266.74818599999992
 30
0.0
 11
0.0
 21
300.29880400000002
 31
0.0
  0
LINE
  5
1C5
  8
SIZE
  6
CONTINUOUS
 62
    30
 10
-63.0
 20
195.0
 30
0.0
 11
-63.0
 21
300.29880400000002
 31
0.0
  0
LINE
  5
1C6
  8
SIZE
  6
CONTINUOUS
 62
    30
 10
12.0
 20
280.29880400000002
 30
0.0
 11
24.0
 21
280.29880400000002
 31
0.0
  0
LINE
  5
1C7
  8
SIZE
  6
CONTINUOUS
 62
    30
 10
-75.0
 20
280.29880400000002
 30
0.0
 11
-87.0
 21
280.29880400000002
 31
0.0
  0
LINE
  5
1C8
  8
SIZE
  6
CONTINUOUS
 62
    30
 10
-371.32911999999999
 20
280.29880400000002
 30
0.0
 11
-63.0
 21
280.29880400000002
 31
0.0
  0
TEXT
  5
1C9
  8
SIZE
  6
CONTINUOUS
 62
    30
 10
-346.3291204285714
 20
305.29880400000002
 30
0.0
 40
64.0
  1
63
 41
0.9
 72
     1
 11
-299.70054900000002
 21
305.29880400000002
 31
0.0
  0
LINE
  5
1CA
  8
SIZE
  6
CONTINUOUS
 62
    30
 10
0.0
 20
280.29880400000002
 30
0.0
 11
-63.0
 21
280.29880400000002
 31
0.0
  0
LINE
  5
1CB
  8
SIZE
  6
CONTINUOUS
 62
    30
 10
0.0
 20
280.29880400000002
 30
0.0
 11
-63.0
 21
280.29880400000002
 31
0.0
  0
CIRCLE
  5
1CC
  8
SIZE
  6
CONTINUOUS
 62
    30
 10
0.0
 20
280.29880400000002
 30
0.0
 40
6.0
  0
LINE
  5
1CD
  8
SIZE
  6
CONTINUOUS
 62
    30
 10
0.0
 20
280.29880400000002
 30
0.0
 11
12.0
 21
280.29880400000002
 31
0.0
  0
CIRCLE
  5
1CE
  8
SIZE
  6
CONTINUOUS
 62
    30
 10
-63.0
 20
280.29880400000002
 30
0.0
 40
6.0
  0
LINE
  5
1CF
  8
SIZE
  6
CONTINUOUS
 62
    30
 10
-63.0
 20
280.29880400000002
 30
0.0
 11
-75.0
 21
280.29880400000002
 31
0.0
  0
LINE
  5
1D3
  8
NOTE
  6
CONTINUOUS
 62
     4
 10
-342.29267399999998
 20
-124.530675
 30
0.0
 11
-228.37320600000001
 21
-124.530675
 31
0.0
  0
TEXT
  5
1D4
  8
NOTE
  6
CONTINUOUS
 62
     4
 10
-323.87917900000002
 20
-90.015178000000006
 30
0.0
 40
64.0
  1
EL
 41
0.9
  0
LINE
  5
1D5
  8
NOTE
  6
CONTINUOUS
 62
     4
 39
50.0
 10
-63.0
 20
155.0
 30
0.0
 11
-228.37320600000001
 21
-124.530675
 31
0.0
  0
LINE
  5
1D6
  8
NOTE
  6
CONTINUOUS
 62
     4
 10
-73.594662999999997
 20
116.4285969999999
 30
0.0
 11
-63.0
 21
155.0
 31
0.0
  0
LINE
  5
1D7
  8
NOTE
  6
CONTINUOUS
 62
     4
 10
-63.0
 20
155.0
 30
0.0
 11
-91.460948999999985
 21
126.893517
 31
0.0
  0
CIRCLE
  5
1D8
  8
FIX
  6
CONTINUOUS
 62
    11
 10
117.5
 20
0.0
 30
0.0
 40
2.5
  0
LINE
  5
1D9
  8
NOTE
  6
CONTINUOUS
 62
     4
 10
117.5
 20
-20.0
 30
0.0
 11
117.5
 21
20.0
 31
0.0
  0
LINE
  5
1DA
  8
NOTE
  6
CONTINUOUS
 62
     4
 10
97.5
 20
0.0
 30
0.0
 11
137.5
 21
0.0
 31
0.0
  0
TEXT
  5
1E3
  8
ETC
  6
CONTINUOUS
 62
    61
 10
463.57282135000997
 20
634.45400975879579
 30
0.0
 40
50.0
  1
VD-10ZSJ7
 41
0.9
  0
TEXT
  5
1E4
  8
ETC
  6
CONTINUOUS
 62
    61
 10
338.80746965610371
 20
805.86490153537829
 30
0.0
 40
64.0
  1
VD-10ZSJ7_4
 41
0.9
  0
TEXT
  5
1E5
  8
ETC
  6
CONTINUOUS
 62
    61
 10
333.72944465610368
 20
709.91286053537829
 30
0.0
 40
64.0
  1
èÀïCÉ¯
 41
0.9
  0
TEXT
  5
22C
  8
ETC
  6
CONTINUOUS
 62
    61
 10
464.85726369527248
 20
567.71388162511744
 30
0.0
 40
50.0
  1
VD-10ZS7-BL
 41
0.9
  0
ENDSEC
  0
EOF
