  0
SECTION
  2
HEADER
  9
$ACADVER
  1
AC1009
  9
$DWGCODEPAGE
  3
dos932
  9
$INSBASE
 10
0.0
 20
0.0
 30
0.0
  9
$EXTMIN
 10
-468.59434360940389
 20
-535.44615539192091
 30
-0.0015258207003583
  9
$EXTMAX
 10
945.79926684475322
 20
635.1013264328958
 30
0.0000000349246037
  9
$LIMMIN
 10
-2970.0
 20
-2100.0
  9
$LIMMAX
 10
2970.0
 20
2100.0
  9
$ORTHOMODE
 70
     1
  9
$REGENMODE
 70
     1
  9
$FILLMODE
 70
     1
  9
$QTEXTMODE
 70
     0
  9
$MIRRTEXT
 70
     0
  9
$LTSCALE
 40
20.0
  9
$ATTMODE
 70
     1
  9
$TEXTSIZE
 40
64.0
  9
$TRACEWID
 40
0.05
  9
$TEXTSTYLE
  7
STANDARD
  9
$CLAYER
  8
SIZE
  9
$CELTYPE
  6
CONTINUOUS
  9
$CECOLOR
 62
     7
  9
$DIMSCALE
 40
1.0
  9
$DIMASZ
 40
12.0
  9
$DIMEXO
 40
20.0
  9
$DIMDLI
 40
200.0
  9
$DIMRND
 40
0.0
  9
$DIMDLE
 40
0.0
  9
$DIMEXE
 40
20.0
  9
$DIMTP
 40
0.0
  9
$DIMTM
 40
0.0
  9
$DIMTXT
 40
64.0
  9
$DIMCEN
 40
0.09
  9
$DIMTSZ
 40
0.0
  9
$DIMTOL
 70
     0
  9
$DIMLIM
 70
     0
  9
$DIMTIH
 70
     0
  9
$DIMTOH
 70
     0
  9
$DIMSE1
 70
     0
  9
$DIMSE2
 70
     0
  9
$DIMTAD
 70
     1
  9
$DIMZIN
 70
     8
  9
$DIMBLK
  1

  9
$DIMASO
 70
     1
  9
$DIMSHO
 70
     0
  9
$DIMPOST
  1

  9
$DIMAPOST
  1

  9
$DIMALT
 70
     0
  9
$DIMALTD
 70
     2
  9
$DIMALTF
 40
25.399999999999999
  9
$DIMLFAC
 40
1.0
  9
$DIMTOFL
 70
     1
  9
$DIMTVP
 40
0.0
  9
$DIMTIX
 70
     1
  9
$DIMSOXD
 70
     0
  9
$DIMSAH
 70
     0
  9
$DIMBLK1
  1

  9
$DIMBLK2
  1

  9
$DIMSTYLE
  2
STANDARD
  9
$DIMCLRD
 70
     7
  9
$DIMCLRE
 70
     7
  9
$DIMCLRT
 70
     7
  9
$DIMTFAC
 40
1.0
  9
$DIMGAP
 40
25.0
  9
$LUNITS
 70
     2
  9
$LUPREC
 70
     4
  9
$SKETCHINC
 40
0.1
  9
$FILLETRAD
 40
3.0
  9
$AUNITS
 70
     1
  9
$AUPREC
 70
     3
  9
$MENU
  1
ACAD
  9
$ELEVATION
 40
0.0
  9
$PELEVATION
 40
0.0
  9
$THICKNESS
 40
0.0
  9
$LIMCHECK
 70
     0
  9
$CHAMFERA
 40
0.0
  9
$CHAMFERB
 40
0.0
  9
$SKPOLY
 70
     0
  9
$TDCREATE
 40
2453019.62301037
  9
$TDUPDATE
 40
2459025.490341759
  9
$TDINDWG
 40
1.7128400579
  9
$TDUSRTIMER
 40
1.7128400579
  9
$USRTIMER
 70
     1
  9
$ANGBASE
 50
0.0
  9
$ANGDIR
 70
     0
  9
$PDMODE
 70
     3
  9
$PDSIZE
 40
-2.0
  9
$PLINEWID
 40
0.0
  9
$SPLFRAME
 70
     0
  9
$SPLINETYPE
 70
     6
  9
$SPLINESEGS
 70
     8
  9
$SURFTAB1
 70
     6
  9
$SURFTAB2
 70
     6
  9
$SURFTYPE
 70
     6
  9
$SURFU
 70
     6
  9
$SURFV
 70
     6
  9
$UCSNAME
  2

  9
$UCSORG
 10
0.0
 20
0.0
 30
0.0
  9
$UCSXDIR
 10
1.0
 20
0.0
 30
0.0
  9
$UCSYDIR
 10
0.0
 20
1.0
 30
0.0
  9
$PUCSNAME
  2

  9
$PUCSORG
 10
0.0
 20
0.0
 30
0.0
  9
$PUCSXDIR
 10
1.0
 20
0.0
 30
0.0
  9
$PUCSYDIR
 10
0.0
 20
1.0
 30
0.0
  9
$USERI1
 70
     0
  9
$USERI2
 70
     0
  9
$USERI3
 70
     0
  9
$USERI4
 70
     0
  9
$USERI5
 70
     0
  9
$USERR1
 40
20.0
  9
$USERR2
 40
0.0
  9
$USERR3
 40
0.0
  9
$USERR4
 40
0.0
  9
$USERR5
 40
0.0
  9
$WORLDVIEW
 70
     1
  9
$SHADEDGE
 70
     3
  9
$SHADEDIF
 70
    70
  9
$TILEMODE
 70
     1
  9
$MAXACTVP
 70
    48
  9
$PINSBASE
 10
0.0
 20
0.0
 30
0.0
  9
$PLIMCHECK
 70
     0
  9
$PEXTMIN
 10
-100000000000000000000.0
 20
-100000000000000000000.0
 30
-100000000000000000000.0
  9
$PEXTMAX
 10
100000000000000000000.0
 20
100000000000000000000.0
 30
100000000000000000000.0
  9
$PLIMMIN
 10
0.0
 20
0.0
  9
$PLIMMAX
 10
12.0
 20
9.0
  9
$UNITMODE
 70
     0
  9
$VISRETAIN
 70
     0
  9
$PLINEGEN
 70
     0
  9
$PSLTSCALE
 70
     0
  9
$TREEDEPTH
 70
  3020
  9
$ATTDIA
 70
     0
  9
$ATTREQ
 70
     1
  9
$BLIPMODE
 70
     1
  9
$COORDS
 70
     1
  9
$DRAGMODE
 70
     2
  9
$OSMODE
 70
     0
  9
$HANDLING
 70
     0
  9
$HANDSEED
  5
F078
  0
ENDSEC
  0
SECTION
  2
TABLES
  0
TABLE
  2
LTYPE
 70
     2
  0
LTYPE
  2
CONTINUOUS
 70
     0
  3
実線
 72
    65
 73
     0
 40
0.0
  0
LTYPE
  2
DASHDOT
 70
     0
  3
____ _ ____ _ ____ _ ____ _ ____ _ ____ _ ____
 72
    65
 73
     4
 40
5.5
 49
4.0
 49
-0.6
 49
0.3
 49
-0.6
  0
ENDTAB
  0
TABLE
  2
LAYER
 70
    12
  0
LAYER
  2
0
 70
     0
 62
     7
  6
CONTINUOUS
  0
LAYER
  2
BASIS
 70
     0
 62
     6
  6
DASHDOT
  0
LAYER
  2
OUTLINE
 70
     0
 62
     3
  6
CONTINUOUS
  0
LAYER
  2
DETAIL
 70
     0
 62
     5
  6
CONTINUOUS
  0
LAYER
  2
SIZE
 70
     0
 62
    30
  6
CONTINUOUS
  0
LAYER
  2
ARRANGE
 70
     0
 62
     1
  6
CONTINUOUS
  0
LAYER
  2
DEFPOINTS
 70
     0
 62
     7
  6
CONTINUOUS
  0
LAYER
  2
ETC
 70
     0
 62
    61
  6
CONTINUOUS
  0
LAYER
  2
FIX
 70
     0
 62
    11
  6
CONTINUOUS
  0
LAYER
  2
NOTE
 70
     0
 62
     4
  6
CONTINUOUS
  0
LAYER
  2
SERVICESPACE
 70
    64
 62
     2
  6
DASHDOT
  0
LAYER
  2
SYMBOLLINE
 70
    64
 62
    15
  6
CONTINUOUS
  0
ENDTAB
  0
TABLE
  2
STYLE
 70
     1
  0
STYLE
  2
STANDARD
 70
     0
 40
64.0
 41
0.9
 50
0.0
 71
     0
 42
64.0
  3
SIMPLEX.shx
  4
BIGFONT.shx
  0
ENDTAB
  0
TABLE
  2
APPID
 70
    19
  0
APPID
  2
ACAD
 70
     0
  0
APPID
  2
AUTOCAD_POSTSCRIPT_FIGURE
 70
     0
  0
APPID
  2
ACAD_EXEMPT_FROM_CAD_STANDARDS
 70
     0
  0
APPID
  2
ACAD_PSEXT
 70
     0
  0
APPID
  2
ACAUTHENVIRON
 70
     0
  0
APPID
  2
GENIUS_GENOENT_13
 70
     0
  0
APPID
  2
GENIUS_GENCFG_13
 70
     0
  0
APPID
  2
GENIUS_GENCFG0_13
 70
     0
  0
APPID
  2
GENIUS_GENCFG1_13
 70
     0
  0
APPID
  2
GENIUS_GENCFG2_13
 70
     0
  0
APPID
  2
GENIUS_GENCFG3_13
 70
     0
  0
APPID
  2
GENIUS_GENCFG4_13
 70
     0
  0
APPID
  2
GENIUS_GEVCFG0_13
 70
     0
  0
APPID
  2
CONTENTBLOCKICON
 70
     0
  0
APPID
  2
CONTENTBLOCKDESCRIPTION
 70
     0
  0
APPID
  2
ACAD_NAV_VCDISPLAY
 70
     0
  0
APPID
  2
ACAD_MLEADERVER
 70
     0
  0
APPID
  2
ACDBDYNAMICBLOCKTRUENAME
 70
     0
  0
APPID
  2
ACDBDYNAMICBLOCKGUID
 70
     0
  0
ENDTAB
  0
TABLE
  2
DIMSTYLE
 70
     1
  0
DIMSTYLE
  2
STANDARD
 70
     0
  3

  4

  5
_ORIGIN
  6

  7

 40
1.0
 41
12.0
 42
20.0
 43
200.0
 44
20.0
 45
0.0
 46
0.0
 47
0.0
 48
0.0
140
64.0
141
0.09
142
0.0
143
25.399999999999999
144
1.0
145
0.0
146
1.0
147
25.0
 71
     0
 72
     0
 73
     0
 74
     0
 75
     0
 76
     0
 77
     1
 78
     8
170
     0
171
     2
172
     1
173
     0
174
     1
175
     0
176
     7
177
     7
178
     7
  0
ENDTAB
  0
TABLE
  2
VIEW
 70
     1
  0
VIEW
  2
ALL
 70
     0
 40
4282.6198079999986
 10
0.0
 20
41.309904000000003
 41
5940.0
 11
0.0
 21
0.0
 31
1.0
 12
0.0
 22
0.0
 32
0.0
 42
50.0
 43
0.0
 44
0.0
 50
0.0
 71
     0
  0
ENDTAB
  0
TABLE
  2
UCS
 70
     0
  0
ENDTAB
  0
TABLE
  2
VPORT
 70
     1
  0
VPORT
  2
*ACTIVE
 70
     0
 10
0.0
 20
0.0
 11
1.0
 21
1.0
 12
238.60246161767449
 22
49.827585520487453
 13
0.0
 23
0.0
 14
1.0
 24
1.0
 15
0.0
 25
0.0
 16
0.0
 26
0.0
 36
1.0
 17
0.0
 27
0.0
 37
0.0
 40
1178.308017615921
 41
1.747787610619469
 42
50.0
 43
0.0
 44
0.0
 50
0.0
 51
0.0
 71
     0
 72
  1000
 73
     1
 74
     3
 75
     0
 76
     0
 77
     0
 78
     0
  0
ENDTAB
  0
ENDSEC
  0
SECTION
  2
BLOCKS
  0
BLOCK
  8
0
  2
_ORIGIN
 70
     0
 10
0.0
 20
0.0
 30
0.0
  3
_ORIGIN
  1
_ORIGIN
  0
CIRCLE
  8
0
  6
CONTINUOUS
 62
     7
 10
0.0
 20
0.0
 30
0.0
 40
0.5
  0
LINE
  8
0
  6
CONTINUOUS
 62
     7
 10
0.0
 20
0.0
 30
0.0
 11
-1.0
 21
0.0
 31
0.0
  0
ENDBLK
  8
0
  0
ENDSEC
  0
SECTION
  2
ENTITIES
  0
TEXT
  8
ETC
  6
CONTINUOUS
 62
    61
 10
202.2740747800726
 20
571.06058430152939
 30
0.0
 40
64.0
  1
VD-10ZUC3-IN_1
 41
0.9
  0
TEXT
  8
ETC
  6
CONTINUOUS
 62
    61
 10
198.0880807800722
 20
453.1052742866982
 30
0.0
 40
64.0
  1
換気扇
 41
0.9
  0
CIRCLE
  8
ARRANGE
  6
CONTINUOUS
 62
     1
 10
0.0
 20
0.0
 30
0.0
 40
40.0
  0
POINT
  8
ARRANGE
  6
CONTINUOUS
 62
     1
 10
0.0
 20
0.0
 30
0.0
 50
270.0
  0
TEXT
  8
ETC
  6
CONTINUOUS
 62
    61
 10
248.78947902862819
 20
344.95650140047292
 30
0.0
 40
40.0
  1
VD-10ZUC3-IN
 41
0.9
  0
LINE
  8
NOTE
  6
CONTINUOUS
 62
     4
 10
-98.656597821600371
 20
-85.278215189458479
 30
0.0
 11
-98.656597821600371
 21
-54.944360394541491
 31
0.0
  0
LINE
  8
NOTE
  6
CONTINUOUS
 62
     4
 10
-113.82352521905889
 20
-70.111287791999985
 30
0.0
 11
-83.489670424141877
 21
-70.111287791999985
 31
0.0
  0
LINE
  8
NOTE
  6
CONTINUOUS
 62
     4
 10
-85.278215189458933
 20
-98.656597821599917
 30
0.0
 11
-54.944360394541953
 21
-98.656597821599917
 31
0.0
  0
LINE
  8
NOTE
  6
CONTINUOUS
 62
     4
 10
-70.111287792000439
 20
-113.8235252190584
 30
0.0
 11
-70.111287792000439
 21
-83.489670424141877
 31
0.0
  0
LINE
  8
DETAIL
  6
CONTINUOUS
 62
     5
 10
52.357010389285279
 20
-149.58351526932071
 30
0.0
 11
52.357010389285279
 21
-149.89429102720121
 31
0.0
  0
LINE
  8
DETAIL
  6
CONTINUOUS
 62
     5
 10
-89.141494478400091
 20
-109.6740859031997
 30
0.0
 11
-65.103338664000148
 21
-109.6740859031997
 31
0.0
  0
CIRCLE
  8
DETAIL
  6
CONTINUOUS
 62
     5
 10
-70.111287792000439
 20
-98.656597821599917
 30
0.0
 40
2.50397456399996
  0
LINE
  8
DETAIL
  6
CONTINUOUS
 62
     5
 10
54.241783875317203
 20
-115.6580997706328
 30
0.0
 11
53.084260756799267
 21
-125.3990461651201
 31
0.0
  0
LINE
  8
DETAIL
  6
CONTINUOUS
 62
     5
 10
53.084260756799267
 20
-125.39904616471949
 30
0.0
 11
52.881806922309814
 21
-148.5979577816706
 31
0.0
  0
LINE
  8
DETAIL
  6
CONTINUOUS
 62
     5
 10
49.427531134013407
 20
-155.44674093312011
 30
0.0
 11
49.07790145439958
 21
-185.49443570112041
 31
0.0
  0
LINE
  8
DETAIL
  6
CONTINUOUS
 62
     5
 10
-49.427531133913362
 20
-155.44674093312011
 30
0.0
 11
-49.077901454400489
 21
-185.49443570112041
 31
0.0
  0
LINE
  8
DETAIL
  6
CONTINUOUS
 62
     5
 10
-53.084276519621199
 20
-125.3972399243698
 30
0.0
 11
-52.881806922209762
 21
-148.5979577816706
 31
0.0
  0
LINE
  8
DETAIL
  6
CONTINUOUS
 62
     5
 10
-53.084275321619323
 20
-125.3972587255134
 30
0.0
 11
-54.71586755694625
 21
-111.67726555439999
 31
0.0
  0
LINE
  8
DETAIL
  6
CONTINUOUS
 62
     5
 10
53.084260756799267
 20
-125.39904616451879
 30
0.0
 11
53.039504061204752
 21
-125.3957413085141
 31
0.0
  0
LINE
  8
DETAIL
  6
CONTINUOUS
 62
     5
 10
53.039504061204752
 20
-125.3957413085141
 30
0.0
 11
52.905165692935043
 21
-125.3934803817401
 31
0.0
  0
LINE
  8
DETAIL
  6
CONTINUOUS
 62
     5
 10
52.905165692935043
 20
-125.3934803817401
 30
0.0
 11
52.681297113977053
 21
-125.392092518382
 31
0.0
  0
LINE
  8
DETAIL
  6
CONTINUOUS
 62
     5
 10
52.681297113977053
 20
-125.392092518382
 30
0.0
 11
52.368341821294052
 21
-125.3920903157855
 31
0.0
  0
LINE
  8
DETAIL
  6
CONTINUOUS
 62
     5
 10
52.368341821294052
 20
-125.3920903157855
 30
0.0
 11
51.478434506774647
 21
-125.39760981850399
 31
0.0
  0
LINE
  8
DETAIL
  6
CONTINUOUS
 62
     5
 10
-50.229522263790393
 20
-125.39878518656769
 30
0.0
 11
-52.367235310227443
 21
-125.3899631077643
 31
0.0
  0
LINE
  8
DETAIL
  6
CONTINUOUS
 62
     5
 10
-52.367235310227443
 20
-125.3899631077643
 30
0.0
 11
-52.681204025017003
 21
-125.3926631119862
 31
0.0
  0
LINE
  8
DETAIL
  6
CONTINUOUS
 62
     5
 10
-52.681204025017003
 20
-125.3926631119862
 30
0.0
 11
-52.905367753967766
 21
-125.3959363862614
 31
0.0
  0
LINE
  8
DETAIL
  6
CONTINUOUS
 62
     5
 10
-52.905367753967766
 20
-125.3959363862614
 30
0.0
 11
-53.039610633367367
 21
-125.3971718728517
 31
0.0
  0
LINE
  8
DETAIL
  6
CONTINUOUS
 62
     5
 10
-53.039610633367367
 20
-125.3971718728517
 30
0.0
 11
-53.084275464145321
 21
-125.3972423939899
 31
0.0
  0
LINE
  8
DETAIL
  6
CONTINUOUS
 62
     5
 10
33.666785579022871
 20
-125.3988173155667
 30
0.0
 11
23.85626208520716
 21
-125.39175615817661
 31
0.0
  0
LINE
  8
DETAIL
  6
CONTINUOUS
 62
     5
 10
17.380170841192921
 20
-125.39718058988819
 30
0.0
 11
-47.73583777064141
 21
-125.3958723273809
 31
0.0
  0
LINE
  8
DETAIL
  6
CONTINUOUS
 62
     5
 10
23.85626208520716
 20
-125.39175615817661
 30
0.0
 11
17.380170841192921
 21
-125.39718058988819
 31
0.0
  0
LINE
  8
DETAIL
  6
CONTINUOUS
 62
     5
 10
48.661886436301756
 20
-125.39549824069221
 30
0.0
 11
33.666785579022871
 21
-125.3988173155667
 31
0.0
  0
LINE
  8
DETAIL
  6
CONTINUOUS
 62
     5
 10
51.478434506774647
 20
-125.39760981850399
 30
0.0
 11
48.661886436301756
 21
-125.39549824069221
 31
0.0
  0
LINE
  8
DETAIL
  6
CONTINUOUS
 62
     5
 10
-47.73583777064141
 20
-125.3958723273809
 30
0.0
 11
-50.229522263790393
 21
-125.39878518656769
 31
0.0
  0
LINE
  8
DETAIL
  6
CONTINUOUS
 62
     5
 10
49.427531134013407
 20
-155.44674093312011
 30
0.0
 11
52.881806922309814
 21
-148.5979577816706
 31
0.0
  0
LINE
  8
DETAIL
  6
CONTINUOUS
 62
     5
 10
-49.427531133913362
 20
-155.44674093312011
 30
0.0
 11
-52.881806922209762
 21
-148.5979577816706
 31
0.0
  0
LINE
  8
DETAIL
  6
CONTINUOUS
 62
     5
 10
52.881806922309814
 20
-148.5979577816706
 30
0.0
 11
-52.881806922209762
 21
-148.5979577816706
 31
0.0
  0
LINE
  8
DETAIL
  6
CONTINUOUS
 62
     5
 10
-49.427531133913362
 20
-155.44674093312011
 30
0.0
 11
49.427531134013407
 21
-155.44674093312011
 31
0.0
  0
LINE
  8
DETAIL
  6
CONTINUOUS
 62
     5
 10
-49.077901454400489
 20
-185.49443570112041
 30
0.0
 11
49.07790145439958
 21
-185.49443570112041
 31
0.0
  0
LINE
  8
DETAIL
  6
CONTINUOUS
 62
     5
 10
-90.143084304000695
 20
-111.67726555439999
 30
0.0
 11
-101.66136729840041
 21
-111.67726555439999
 31
0.0
  0
LINE
  8
DETAIL
  6
CONTINUOUS
 62
     5
 10
-109.67408590320061
 20
-89.141494478399636
 30
0.0
 11
-109.67408590320061
 21
-65.103338663999693
 31
0.0
  0
LINE
  8
DETAIL
  6
CONTINUOUS
 62
     5
 10
-111.67726555439999
 20
-90.141711659999146
 30
0.0
 11
-111.67726555439999
 21
-101.6613672983999
 31
0.0
  0
ARC
  8
DETAIL
  6
CONTINUOUS
 62
     5
 10
-101.66136729840041
 20
-101.6613672983999
 30
0.0
 40
10.015898256000041
 50
180.0
 51
270.0
  0
CIRCLE
  8
DETAIL
  6
CONTINUOUS
 62
     5
 10
-98.656597821600371
 20
-70.111287791999985
 30
0.0
 40
2.5039745640000111
  0
CIRCLE
  8
DETAIL
  6
CONTINUOUS
 62
     5
 10
-70.111287792000439
 20
98.656597821600826
 30
0.0
 40
2.50397456399996
  0
CIRCLE
  8
DETAIL
  6
CONTINUOUS
 62
     5
 10
-98.656597821600371
 20
70.111287792000439
 30
0.0
 40
2.5039745640000608
  0
CIRCLE
  8
DETAIL
  6
CONTINUOUS
 62
     5
 10
70.11128779199953
 20
-98.656597821599917
 30
0.0
 40
2.50397456399996
  0
CIRCLE
  8
DETAIL
  6
CONTINUOUS
 62
     5
 10
98.656597821599462
 20
-70.111287791999985
 30
0.0
 40
2.5039745640000111
  0
CIRCLE
  8
DETAIL
  6
CONTINUOUS
 62
     5
 10
70.11128779199953
 20
-98.656597821599917
 30
0.0
 40
6.0095401183487551
  0
CIRCLE
  8
DETAIL
  6
CONTINUOUS
 62
     5
 10
98.656597821599462
 20
-70.111287791999985
 30
0.0
 40
6.0095401183488049
  0
CIRCLE
  8
DETAIL
  6
CONTINUOUS
 62
     5
 10
98.656597821599462
 20
-70.111287791999985
 30
0.0
 40
8.5135111929100216
  0
CIRCLE
  8
DETAIL
  6
CONTINUOUS
 62
     5
 10
70.11128779199953
 20
-98.656597821599917
 30
0.0
 40
8.5135111929099736
  0
CIRCLE
  8
DETAIL
  6
CONTINUOUS
 62
     5
 10
70.11128779199953
 20
98.656597821599917
 30
0.0
 40
2.50397456399996
  0
CIRCLE
  8
DETAIL
  6
CONTINUOUS
 62
     5
 10
98.656597821599462
 20
70.111287791999985
 30
0.0
 40
2.50397456399996
  0
CIRCLE
  8
DETAIL
  6
CONTINUOUS
 62
     5
 10
70.11128779199953
 20
98.656597821599917
 30
0.0
 40
6.0095401183488573
  0
CIRCLE
  8
DETAIL
  6
CONTINUOUS
 62
     5
 10
98.656597821599462
 20
70.111287791999985
 30
0.0
 40
6.0095401183488573
  0
CIRCLE
  8
DETAIL
  6
CONTINUOUS
 62
     5
 10
98.656597821599462
 20
70.111287791999985
 30
0.0
 40
8.5135111929099736
  0
CIRCLE
  8
DETAIL
  6
CONTINUOUS
 62
     5
 10
70.11128779199953
 20
98.656597821599917
 30
0.0
 40
8.5135111929099736
  0
CIRCLE
  8
DETAIL
  6
CONTINUOUS
 62
     5
 10
-70.111287792000439
 20
-98.656597821599917
 30
0.0
 40
2.50397456399996
  0
CIRCLE
  8
DETAIL
  6
CONTINUOUS
 62
     5
 10
-98.656597821600371
 20
-70.111287791999985
 30
0.0
 40
2.5039745640000111
  0
CIRCLE
  8
DETAIL
  6
CONTINUOUS
 62
     5
 10
-70.111287792000439
 20
-98.656597821599917
 30
0.0
 40
6.0095401183487551
  0
CIRCLE
  8
DETAIL
  6
CONTINUOUS
 62
     5
 10
-98.656597821600371
 20
-70.111287791999985
 30
0.0
 40
6.0095401183488049
  0
CIRCLE
  8
DETAIL
  6
CONTINUOUS
 62
     5
 10
-98.656597821600371
 20
-70.111287791999985
 30
0.0
 40
8.5135111929099736
  0
CIRCLE
  8
DETAIL
  6
CONTINUOUS
 62
     5
 10
-70.111287792000439
 20
-98.656597821599917
 30
0.0
 40
8.5135111929099736
  0
ARC
  8
DETAIL
  6
CONTINUOUS
 62
     5
 10
-101.66136729840041
 20
-101.6613672983999
 30
0.0
 40
10.015898255999989
 50
180.0
 51
270.0
  0
LINE
  8
DETAIL
  6
CONTINUOUS
 62
     5
 10
-101.66136729840041
 20
-111.67726555439999
 30
0.0
 11
-90.141711659999601
 21
-111.67726555439999
 31
0.0
  0
LINE
  8
DETAIL
  6
CONTINUOUS
 62
     5
 10
-65.103338664000148
 20
-109.6740859031997
 30
0.0
 11
-89.141494478400091
 21
-109.6740859031997
 31
0.0
  0
LINE
  8
DETAIL
  6
CONTINUOUS
 62
     5
 10
105.66772660080009
 20
10.51669316880043
 30
0.0
 11
105.66772660080009
 21
-10.51669316879952
 31
0.0
  0
LINE
  8
DETAIL
  6
CONTINUOUS
 62
     5
 10
-105.66772660080009
 20
0.0
 30
0.0
 11
-105.66772660080009
 21
-10.51669316879952
 31
0.0
  0
LINE
  8
DETAIL
  6
CONTINUOUS
 62
     5
 10
-109.67408590320061
 20
-89.141494478399636
 30
0.0
 11
-109.67408590320061
 21
-65.103338663999693
 31
0.0
  0
LINE
  8
DETAIL
  6
CONTINUOUS
 62
     5
 10
-111.67726555439999
 20
-90.141711659899102
 30
0.0
 11
-111.67726555439999
 21
-101.6613672983999
 31
0.0
  0
LINE
  8
DETAIL
  6
CONTINUOUS
 62
     5
 10
-78.434380032914305
 20
-83.684701215844598
 30
0.0
 11
78.434380032914305
 21
-83.684701215844598
 31
0.0
  0
LINE
  8
DETAIL
  6
CONTINUOUS
 62
     5
 10
81.689470692545001
 20
-75.17126397171387
 30
0.0
 11
81.689470692545001
 21
36.380030579059621
 31
0.0
  0
LINE
  8
DETAIL
  6
CONTINUOUS
 62
     5
 10
78.935098672144704
 20
-83.183982576513699
 30
0.0
 11
78.935098672144704
 21
-77.674839916284782
 31
0.0
  0
LINE
  8
DETAIL
  6
CONTINUOUS
 62
     5
 10
82.20902395371013
 20
76.197525724815478
 30
0.0
 11
81.689470692545001
 21
69.053771623467128
 31
0.0
  0
LINE
  8
DETAIL
  6
CONTINUOUS
 62
     5
 10
74.197525724815023
 20
83.988991550521405
 30
0.0
 11
73.706149105591976
 21
77.234621695091846
 31
0.0
  0
LINE
  8
DETAIL
  6
CONTINUOUS
 62
     5
 10
-73.706149128928701
 20
77.234621695091846
 30
0.0
 11
-73.9236367451349
 21
80.224165379359874
 31
0.0
  0
LINE
  8
DETAIL
  6
CONTINUOUS
 62
     5
 10
73.706149105591976
 20
77.234621695091846
 30
0.0
 11
-61.67030653150141
 21
77.234621695091846
 31
0.0
  0
LINE
  8
DETAIL
  6
CONTINUOUS
 62
     5
 10
74.197525724815023
 20
83.988991550521405
 30
0.0
 11
0.0
 21
83.988991550521405
 31
0.0
  0
LINE
  8
DETAIL
  6
CONTINUOUS
 62
     5
 10
-78.935098672245658
 20
-77.674885263063516
 30
0.0
 11
-78.935098672245658
 21
-83.183982576513699
 31
0.0
  0
LINE
  8
DETAIL
  6
CONTINUOUS
 62
     5
 10
-79.964887172759518
 20
-85.215210359571756
 30
0.0
 11
79.964887172759518
 21
-85.215210359571756
 31
0.0
  0
LINE
  8
DETAIL
  6
CONTINUOUS
 62
     5
 10
83.219979836371749
 20
-76.701762273431086
 30
0.0
 11
83.219979836371749
 21
77.208386338455966
 31
0.0
  0
LINE
  8
DETAIL
  6
CONTINUOUS
 62
     5
 10
80.465607815971453
 20
-84.71448087823137
 30
0.0
 11
80.465607815971453
 21
-79.205366311995476
 31
0.0
  0
LINE
  8
DETAIL
  6
CONTINUOUS
 62
     5
 10
75.208381933262899
 20
85.219979836371749
 30
0.0
 11
0.0
 21
85.219979836371749
 31
0.0
  0
LINE
  8
DETAIL
  6
CONTINUOUS
 62
     5
 10
-80.465607815972362
 20
-79.205366311995476
 30
0.0
 11
-80.465607815972362
 21
-84.714480874625224
 31
0.0
  0
LINE
  8
DETAIL
  6
CONTINUOUS
 62
     5
 10
81.689470692545001
 20
36.380030579059621
 30
0.0
 11
81.689470692545001
 21
69.053771623467128
 31
0.0
  0
LINE
  8
DETAIL
  6
CONTINUOUS
 62
     5
 10
-81.689272247213012
 20
-36.379105909241389
 30
0.0
 11
-81.689470692645045
 21
-75.17126397171387
 31
0.0
  0
LINE
  8
DETAIL
  6
CONTINUOUS
 62
     5
 10
-81.689272247213012
 20
-36.379105909241389
 30
0.0
 11
-81.689470692545001
 21
69.053771623467128
 31
0.0
  0
LINE
  8
DETAIL
  6
CONTINUOUS
 62
     5
 10
-75.208381933264718
 20
85.219979836371749
 30
0.0
 11
-68.080481415342547
 21
85.219979836371749
 31
0.0
  0
LINE
  8
DETAIL
  6
CONTINUOUS
 62
     5
 10
-83.219979836371749
 20
-76.701762273431086
 30
0.0
 11
-83.219979836371749
 21
77.208386338455966
 31
0.0
  0
LINE
  8
DETAIL
  6
CONTINUOUS
 62
     5
 10
-74.197525724815932
 20
83.988991550521405
 30
0.0
 11
-68.080481415342547
 21
83.988991550521405
 31
0.0
  0
LINE
  8
DETAIL
  6
CONTINUOUS
 62
     5
 10
-73.706149105592885
 20
77.234621695091846
 30
0.0
 11
-68.080481415342547
 21
77.234621695091846
 31
0.0
  0
LINE
  8
DETAIL
  6
CONTINUOUS
 62
     5
 10
-74.197525724815932
 20
83.988991550521405
 30
0.0
 11
-73.706149105592885
 21
77.234621695091846
 31
0.0
  0
LINE
  8
DETAIL
  6
CONTINUOUS
 62
     5
 10
-82.20902395371013
 20
76.197525724815478
 30
0.0
 11
-81.689470692545001
 21
69.053771623467128
 31
0.0
  0
LINE
  8
DETAIL
  6
CONTINUOUS
 62
     5
 10
-101.66136729840041
 20
111.6772655543996
 30
0.0
 11
-90.141711659899556
 21
111.6772655543996
 31
0.0
  0
LINE
  8
DETAIL
  6
CONTINUOUS
 62
     5
 10
-64.103121482401548
 20
111.6772655543996
 30
0.0
 11
-52.58346584390074
 21
111.6772655543996
 31
0.0
  0
LINE
  8
DETAIL
  6
CONTINUOUS
 62
     5
 10
-27.543720204000241
 20
111.6772655543996
 30
0.0
 11
-14.52030718309925
 21
111.6772655543996
 31
0.0
  0
LINE
  8
DETAIL
  6
CONTINUOUS
 62
     5
 10
-65.103338664000148
 20
109.67408590320019
 30
0.0
 11
-89.141494478400091
 21
109.67408590320019
 31
0.0
  0
LINE
  8
DETAIL
  6
CONTINUOUS
 62
     5
 10
-10.51669316879997
 20
105.66772660080009
 30
0.0
 11
0.0
 21
105.66772660080009
 31
0.0
  0
LINE
  8
DETAIL
  6
CONTINUOUS
 62
     5
 10
-108.25885863222901
 20
52.461086135936512
 30
0.0
 11
-110.04100465389089
 21
52.461086135936512
 31
0.0
  0
LINE
  8
DETAIL
  6
CONTINUOUS
 62
     5
 10
-110.04100465389089
 20
27.666099912063601
 30
0.0
 11
-108.25885863222901
 21
27.666099912063601
 31
0.0
  0
LINE
  8
DETAIL
  6
CONTINUOUS
 62
     5
 10
-109.676831191302
 20
12.51987282000027
 30
0.0
 11
-107.67090625200029
 21
12.51987282000027
 31
0.0
  0
LINE
  8
DETAIL
  6
CONTINUOUS
 62
     5
 10
-12.51987282000027
 20
107.67090625200029
 30
0.0
 11
-12.51987282000027
 21
109.6768311913015
 31
0.0
  0
LINE
  8
DETAIL
  6
CONTINUOUS
 62
     5
 10
-27.666099912064059
 20
108.2864265095768
 30
0.0
 11
-27.666099912064059
 21
110.04100465399139
 31
0.0
  0
LINE
  8
DETAIL
  6
CONTINUOUS
 62
     5
 10
-52.583465844000777
 20
110.02096986723291
 30
0.0
 11
-52.583465844000777
 21
108.2659188431157
 31
0.0
  0
LINE
  8
DETAIL
  6
CONTINUOUS
 62
     5
 10
-65.103338664000148
 20
110.677048372901
 30
0.0
 11
-65.103338664000148
 21
109.67408590320019
 31
0.0
  0
LINE
  8
DETAIL
  6
CONTINUOUS
 62
     5
 10
-105.66772660080009
 20
10.51669316880043
 30
0.0
 11
-105.66772660080009
 21
-10.51669316879952
 31
0.0
  0
LINE
  8
DETAIL
  6
CONTINUOUS
 62
     5
 10
-109.67408590320061
 20
89.141494478400091
 30
0.0
 11
-109.67408590320061
 21
65.103338663999693
 31
0.0
  0
LINE
  8
DETAIL
  6
CONTINUOUS
 62
     5
 10
-111.67726555439999
 20
14.52030718309879
 30
0.0
 11
-111.67726555439999
 21
27.543720204100278
 31
0.0
  0
LINE
  8
DETAIL
  6
CONTINUOUS
 62
     5
 10
-111.67726555439999
 20
52.58346584389983
 30
0.0
 11
-111.67726555439999
 21
64.103121482501138
 31
0.0
  0
LINE
  8
DETAIL
  6
CONTINUOUS
 62
     5
 10
-111.67726555439999
 20
90.141711659999146
 30
0.0
 11
-111.67726555439999
 21
101.6613672983999
 31
0.0
  0
ARC
  8
DETAIL
  6
CONTINUOUS
 62
     5
 10
-10.51669316879997
 20
107.67090625200029
 30
0.0
 40
2.003179651200008
 50
180.0
 51
270.0
  0
ARC
  8
DETAIL
  6
CONTINUOUS
 62
     5
 10
-40.063593024000511
 20
33.928855342199768
 30
0.0
 40
78.750000037800092
 50
95.152628194894277
 51
99.147842519794736
  0
ARC
  8
DETAIL
  6
CONTINUOUS
 62
     5
 10
-40.063593024000511
 20
33.928855342199768
 30
0.0
 40
78.750000037800262
 50
80.852157480205264
 51
84.847371805105723
  0
ARC
  8
DETAIL
  6
CONTINUOUS
 62
     5
 10
-33.928855342200222
 20
40.063593024000063
 30
0.0
 40
78.750000037800049
 50
185.1526281948932
 51
189.1478425197954
  0
ARC
  8
DETAIL
  6
CONTINUOUS
 62
     5
 10
-33.928855342200222
 20
40.063593024000063
 30
0.0
 40
78.750000037799992
 50
170.8521574802046
 51
174.8473718051068
  0
ARC
  8
DETAIL
  6
CONTINUOUS
 62
     5
 10
-40.063593023995963
 20
-475.1177037300472
 30
0.0
 40
587.52089989640638
 50
89.31026702514221
 51
90.68973297485779
  0
ARC
  8
DETAIL
  6
CONTINUOUS
 62
     5
 10
475.11753563225187
 20
40.063593023999829
 30
0.0
 40
587.5207318107914
 50
179.3102668278126
 51
180.6897331721874
  0
ARC
  8
DETAIL
  6
CONTINUOUS
 62
     5
 10
-40.063593024000511
 20
33.928855342199768
 30
0.0
 40
77.115219693080604
 50
80.748648872596576
 51
99.343488352481828
  0
ARC
  8
DETAIL
  6
CONTINUOUS
 62
     5
 10
-33.928855342200222
 20
40.063593024000063
 30
0.0
 40
77.115219693080434
 50
170.74864887259551
 51
189.25135112740409
  0
ARC
  8
DETAIL
  6
CONTINUOUS
 62
     5
 10
-40.063593024000511
 20
33.928855342199768
 30
0.0
 40
75.383991837527731
 50
80.534255673011202
 51
99.560056259605659
  0
ARC
  8
DETAIL
  6
CONTINUOUS
 62
     5
 10
-33.928855342200222
 20
40.063593024000063
 30
0.0
 40
75.356799458007544
 50
170.53080853829641
 51
189.4691914617035
  0
ARC
  8
DETAIL
  6
CONTINUOUS
 62
     5
 10
-101.66136729840041
 20
101.6613672983999
 30
0.0
 40
10.01589825600001
 50
90.0
 51
180.0
  0
CIRCLE
  8
DETAIL
  6
CONTINUOUS
 62
     5
 10
-70.111287792000439
 20
98.656597821599917
 30
0.0
 40
8.5135111929099736
  0
CIRCLE
  8
DETAIL
  6
CONTINUOUS
 62
     5
 10
-98.656597821600371
 20
70.111287791999985
 30
0.0
 40
8.5135111929099736
  0
CIRCLE
  8
DETAIL
  6
CONTINUOUS
 62
     5
 10
-98.656597821600371
 20
70.111287791999985
 30
0.0
 40
6.0095401183488573
  0
CIRCLE
  8
DETAIL
  6
CONTINUOUS
 62
     5
 10
-70.111287792000439
 20
98.656597821599917
 30
0.0
 40
6.0095401183488573
  0
CIRCLE
  8
DETAIL
  6
CONTINUOUS
 62
     5
 10
-98.656597821600371
 20
70.111287791999985
 30
0.0
 40
2.50397456399996
  0
CIRCLE
  8
DETAIL
  6
CONTINUOUS
 62
     5
 10
-70.111287792000439
 20
98.656597821599917
 30
0.0
 40
2.50397456399996
  0
ARC
  8
DETAIL
  6
CONTINUOUS
 62
     5
 10
-107.67090625200029
 20
10.51669316880043
 30
0.0
 40
2.003179651200008
 50
0.0
 51
90.0
  0
LINE
  8
DETAIL
  6
CONTINUOUS
 62
     5
 10
-57.025351629567922
 20
182.4583217481759
 30
0.0
 11
-58.016032184980759
 21
182.72377380295671
 31
0.0
  0
LINE
  8
DETAIL
  6
CONTINUOUS
 62
     5
 10
-64.375564333910006
 20
185.34504254232209
 30
0.0
 11
-65.401192315324806
 21
185.34504254232209
 31
0.0
  0
LINE
  8
DETAIL
  6
CONTINUOUS
 62
     5
 10
-71.734755761863198
 20
182.72377380295671
 30
0.0
 11
-72.725436317276035
 21
182.4583217481759
 31
0.0
  0
LINE
  8
DETAIL
  6
CONTINUOUS
 62
     5
 10
-65.401192315324806
 20
185.34504254232209
 30
0.0
 11
-65.401192315324806
 21
178.93486765848229
 31
0.0
  0
LINE
  8
DETAIL
  6
CONTINUOUS
 62
     5
 10
-64.375564333910006
 20
185.34504254232209
 30
0.0
 11
-64.375564333910006
 21
178.93486765848229
 31
0.0
  0
LINE
  8
DETAIL
  6
CONTINUOUS
 62
     5
 10
-58.016032184980759
 20
182.72377380295671
 30
0.0
 11
-59.675107527355983
 21
176.53202033162549
 31
0.0
  0
LINE
  8
DETAIL
  6
CONTINUOUS
 62
     5
 10
-57.025351629567922
 20
182.4583217481759
 30
0.0
 11
-58.68442697194314
 21
176.26656827684559
 31
0.0
  0
LINE
  8
DETAIL
  6
CONTINUOUS
 62
     5
 10
-71.066360974899908
 20
176.26656827684559
 30
0.0
 11
-72.725436317276035
 21
182.4583217481759
 31
0.0
  0
LINE
  8
DETAIL
  6
CONTINUOUS
 62
     5
 10
-70.075680419487981
 20
176.53202033162549
 30
0.0
 11
-71.734755761863198
 21
182.72377380295671
 31
0.0
  0
LINE
  8
DETAIL
  6
CONTINUOUS
 62
     5
 10
-49.067758928046707
 20
-185.59267343227381
 30
0.0
 11
49.088043980752452
 21
-185.59267343227381
 31
0.0
  0
LINE
  8
DETAIL
  6
CONTINUOUS
 62
     5
 10
52.893488465347218
 20
-148.51984165618299
 30
0.0
 11
49.3502662403871
 21
-155.54497866427391
 31
0.0
  0
LINE
  8
DETAIL
  6
CONTINUOUS
 62
     5
 10
49.3502662403871
 20
-155.54497866427391
 30
0.0
 11
49.088043980752452
 21
-185.59267343227381
 31
0.0
  0
LINE
  8
DETAIL
  6
CONTINUOUS
 62
     5
 10
-49.329981187681369
 20
-155.54497866427349
 30
0.0
 11
49.3502662403871
 21
-155.54497866427391
 31
0.0
  0
LINE
  8
DETAIL
  6
CONTINUOUS
 62
     5
 10
-52.873203412641487
 20
-148.51984165618299
 30
0.0
 11
52.893488465347218
 21
-148.51984165618299
 31
0.0
  0
LINE
  8
DETAIL
  6
CONTINUOUS
 62
     5
 10
-47.731675541926961
 20
-125.49411940627211
 30
0.0
 11
-50.222577597508462
 21
-125.49702326777739
 31
0.0
  0
LINE
  8
DETAIL
  6
CONTINUOUS
 62
     5
 10
51.490926257756662
 20
-125.4958526525575
 30
0.0
 11
48.678302843799429
 21
-125.4937475340985
 31
0.0
  0
LINE
  8
DETAIL
  6
CONTINUOUS
 62
     5
 10
23.561898262102659
 20
-125.48993141406341
 30
0.0
 11
-41.088066291335053
 21
-125.49719798049939
 31
0.0
  0
LINE
  8
DETAIL
  6
CONTINUOUS
 62
     5
 10
48.678302843799429
 20
-125.4937475340985
 30
0.0
 11
33.688618089411648
 21
-125.4970546607078
 31
0.0
  0
LINE
  8
DETAIL
  6
CONTINUOUS
 62
     5
 10
-41.088066291335053
 20
-125.49719798049939
 30
0.0
 11
-47.731675541926961
 21
-125.49411940627211
 31
0.0
  0
LINE
  8
DETAIL
  6
CONTINUOUS
 62
     5
 10
33.688618089411648
 20
-125.4970546607078
 30
0.0
 11
23.561898262102659
 21
-125.48993141406341
 31
0.0
  0
LINE
  8
DETAIL
  6
CONTINUOUS
 62
     5
 10
-53.02952035665021
 20
-125.49541581236009
 30
0.0
 11
-53.074132929177722
 21
-125.49548136140631
 31
0.0
  0
LINE
  8
DETAIL
  6
CONTINUOUS
 62
     5
 10
-52.895434177380587
 20
-125.4941870112816
 30
0.0
 11
-53.02952035665021
 21
-125.49541581236009
 31
0.0
  0
LINE
  8
DETAIL
  6
CONTINUOUS
 62
     5
 10
-52.671531896326997
 20
-125.4909245433596
 30
0.0
 11
-52.895434177380587
 21
-125.4941870112816
 31
0.0
  0
LINE
  8
DETAIL
  6
CONTINUOUS
 62
     5
 10
-52.357926113319991
 20
-125.4882321878781
 30
0.0
 11
-52.671531896326997
 21
-125.4909245433596
 31
0.0
  0
LINE
  8
DETAIL
  6
CONTINUOUS
 62
     5
 10
-50.222577597508462
 20
-125.49702326777739
 30
0.0
 11
-52.357926113319991
 21
-125.4882321878781
 31
0.0
  0
LINE
  8
DETAIL
  6
CONTINUOUS
 62
     5
 10
52.379550304442091
 20
-125.4903540075466
 30
0.0
 11
51.490926257756662
 21
-125.4958526525575
 31
0.0
  0
LINE
  8
DETAIL
  6
CONTINUOUS
 62
     5
 10
52.692044772456939
 20
-125.49035563903639
 30
0.0
 11
52.379550304442091
 21
-125.4903540075466
 31
0.0
  0
LINE
  8
DETAIL
  6
CONTINUOUS
 62
     5
 10
52.915579414256172
 20
-125.4917378562327
 30
0.0
 11
52.692044772456939
 21
-125.49035563903639
 31
0.0
  0
LINE
  8
DETAIL
  6
CONTINUOUS
 62
     5
 10
53.049714875551217
 20
-125.4939906021209
 30
0.0
 11
52.915579414256172
 21
-125.4917378562327
 31
0.0
  0
LINE
  8
DETAIL
  6
CONTINUOUS
 62
     5
 10
53.094403283153042
 20
-125.4972838957729
 30
0.0
 11
53.049714875551217
 21
-125.4939906021209
 31
0.0
  0
LINE
  8
DETAIL
  6
CONTINUOUS
 62
     5
 10
-53.074132787153758
 20
-125.49549763183219
 30
0.0
 11
-58.458881273060797
 21
-85.215210359571756
 31
0.0
  0
LINE
  8
DETAIL
  6
CONTINUOUS
 62
     5
 10
-49.329981187681369
 20
-155.54497866427349
 30
0.0
 11
-49.067758928046707
 21
-185.59267343227381
 31
0.0
  0
LINE
  8
DETAIL
  6
CONTINUOUS
 62
     5
 10
-53.074133982650892
 20
-125.4954788730561
 30
0.0
 11
-52.873203412641487
 21
-148.51984165618299
 31
0.0
  0
LINE
  8
DETAIL
  6
CONTINUOUS
 62
     5
 10
-52.873203412641487
 20
-148.51984165618299
 30
0.0
 11
-49.329981187681369
 21
-155.54497866427349
 31
0.0
  0
LINE
  8
DETAIL
  6
CONTINUOUS
 62
     5
 10
58.475280970962103
 20
-85.215210359571756
 30
0.0
 11
53.094403283153042
 21
-125.497283896274
 31
0.0
  0
LINE
  8
DETAIL
  6
CONTINUOUS
 62
     5
 10
53.094463726799397
 20
-125.4903577400091
 30
0.0
 11
52.965294102203188
 21
-140.29173065821939
 31
0.0
  0
LINE
  8
DETAIL
  6
CONTINUOUS
 62
     5
 10
52.965294102203188
 20
-140.29173065821939
 30
0.0
 11
52.893488465347218
 21
-148.51984165618299
 31
0.0
  0
LINE
  8
BASIS
  6
DASHDOT
 62
     6
 10
156.37648969774179
 20
0.0
 30
0.0
 11
-140.19495644879041
 21
0.0
 31
0.0
  0
LINE
  8
BASIS
  6
DASHDOT
 62
     6
 10
0.0
 20
140.1956427707901
 30
0.0
 11
0.0
 21
-215.54213046912039
 31
0.0
  0
LINE
  8
DETAIL
  6
CONTINUOUS
 62
     5
 10
-63.926852092041372
 20
162.39798456738981
 30
0.0
 11
-60.108530270349547
 21
176.64815560559151
 31
0.0
  0
LINE
  8
DETAIL
  6
CONTINUOUS
 62
     5
 10
-65.84990455719344
 20
162.49490108411959
 30
0.0
 11
-69.64225767649441
 21
176.64815560559151
 31
0.0
  0
LINE
  8
DETAIL
  6
CONTINUOUS
 62
     5
 10
-65.84990455719344
 20
178.93486765848229
 30
0.0
 11
-65.84990455719344
 21
160.00741918760289
 31
0.0
  0
LINE
  8
DETAIL
  6
CONTINUOUS
 62
     5
 10
-63.926852092041372
 20
178.93486765848229
 30
0.0
 11
-63.926852092041372
 21
160.00741918760289
 31
0.0
  0
LINE
  8
DETAIL
  6
CONTINUOUS
 62
     5
 10
-63.926852092041372
 20
178.93486765848229
 30
0.0
 11
-65.84990455719344
 21
178.93486765848229
 31
0.0
  0
LINE
  8
DETAIL
  6
CONTINUOUS
 62
     5
 10
-67.174276202685178
 20
160.00741918760289
 30
0.0
 11
-71.499783717893479
 21
176.15043300287971
 31
0.0
  0
LINE
  8
DETAIL
  6
CONTINUOUS
 62
     5
 10
-62.576511744158779
 20
160.00741918760289
 30
0.0
 11
-58.251004228950478
 21
176.15043300287971
 31
0.0
  0
LINE
  8
DETAIL
  6
CONTINUOUS
 62
     5
 10
-61.67030653150141
 20
160.00741918760289
 30
0.0
 11
-68.080481415342547
 21
160.00741918760289
 31
0.0
  0
LINE
  8
DETAIL
  6
CONTINUOUS
 62
     5
 10
-61.67030653150141
 20
160.00741918760289
 30
0.0
 11
-61.67030653150141
 21
140.59046678560389
 31
0.0
  0
LINE
  8
DETAIL
  6
CONTINUOUS
 62
     5
 10
-68.080481415342547
 20
160.00741918760289
 30
0.0
 11
-68.080481415342547
 21
142.8228070520654
 31
0.0
  0
LINE
  8
DETAIL
  6
CONTINUOUS
 62
     5
 10
-69.64225767649441
 20
176.64815560559151
 30
0.0
 11
-71.499783717893479
 21
176.15043300287971
 31
0.0
  0
LINE
  8
DETAIL
  6
CONTINUOUS
 62
     5
 10
-58.251004228950478
 20
176.15043300287971
 30
0.0
 11
-60.108530270349547
 21
176.64815560559151
 31
0.0
  0
ARC
  8
DETAIL
  6
CONTINUOUS
 62
     5
 10
13.52146264559997
 20
-18.028616860799961
 30
0.0
 40
11.268300655769769
 50
54.707099489498972
 51
152.7298603886079
  0
CIRCLE
  8
DETAIL
  6
CONTINUOUS
 62
     5
 10
13.52146264559997
 20
-18.028616860799961
 30
0.0
 40
1.001589825600004
  0
ARC
  8
DETAIL
  6
CONTINUOUS
 62
     5
 10
13.52146264559997
 20
-18.028616860799961
 30
0.0
 40
11.26830065576994
 50
152.7298603886079
 51
206.57054338181771
  0
ARC
  8
DETAIL
  6
CONTINUOUS
 62
     5
 10
13.52146264559997
 20
-18.028616860799961
 30
0.0
 40
11.268300655769851
 50
206.57054338181771
 51
305.29290051050111
  0
ARC
  8
DETAIL
  6
CONTINUOUS
 62
     5
 10
13.52146264559997
 20
-18.028616860799961
 30
0.0
 40
11.26830065576989
 50
305.29290051050111
 51
54.707099489498972
  0
CIRCLE
  8
DETAIL
  6
CONTINUOUS
 62
     5
 10
13.52146264559997
 20
-18.028616860799961
 30
0.0
 40
31.499987411514251
  0
ARC
  8
DETAIL
  6
CONTINUOUS
 62
     5
 10
-67.418256345866212
 20
139.9255295356356
 30
0.0
 40
3.034674084824097
 50
38.934649594271129
 51
141.06535040572891
  0
ARC
  8
DETAIL
  6
CONTINUOUS
 62
     5
 10
-62.572684361646218
 20
143.4263904128768
 30
0.0
 40
2.9521821577980289
 50
212.67421738970509
 51
327.32578261029488
  0
ARC
  8
DETAIL
  6
CONTINUOUS
 62
     5
 10
-67.451671862967487
 20
136.72739162746029
 30
0.0
 40
3.034674084824097
 50
38.934649594271129
 51
141.06535040572891
  0
ARC
  8
DETAIL
  6
CONTINUOUS
 62
     5
 10
-62.606099878747948
 20
140.22825250470149
 30
0.0
 40
2.9521821577980289
 50
212.67421738970509
 51
327.32578261029488
  0
LINE
  8
DETAIL
  6
CONTINUOUS
 62
     5
 10
-90.141711659899556
 20
111.6772655543996
 30
0.0
 11
-89.141494478400091
 21
109.67408590320019
 31
0.0
  0
LINE
  8
DETAIL
  6
CONTINUOUS
 62
     5
 10
-111.67726555439999
 20
90.141711659999146
 30
0.0
 11
-109.67408590320061
 21
89.141494478400091
 31
0.0
  0
LINE
  8
DETAIL
  6
CONTINUOUS
 62
     5
 10
-111.67726555439999
 20
64.103121482501138
 30
0.0
 11
-109.67408590320061
 21
65.103338663999693
 31
0.0
  0
LINE
  8
DETAIL
  6
CONTINUOUS
 62
     5
 10
-111.67726555439999
 20
14.52030718309879
 30
0.0
 11
-109.676831191302
 21
12.51987282000027
 31
0.0
  0
LINE
  8
DETAIL
  6
CONTINUOUS
 62
     5
 10
-108.25885863222901
 20
-52.461086135936512
 30
0.0
 11
-110.04100465389089
 21
-52.461086135936512
 31
0.0
  0
LINE
  8
DETAIL
  6
CONTINUOUS
 62
     5
 10
-110.04100465389089
 20
-27.666099912063601
 30
0.0
 11
-108.25885863222901
 21
-27.666099912063601
 31
0.0
  0
LINE
  8
DETAIL
  6
CONTINUOUS
 62
     5
 10
-109.676831191302
 20
-12.51987282000027
 30
0.0
 11
-107.67090625200029
 21
-12.51987282000027
 31
0.0
  0
LINE
  8
DETAIL
  6
CONTINUOUS
 62
     5
 10
-111.67726555439999
 20
-14.52030718309879
 30
0.0
 11
-111.67726555439999
 21
-27.543720204100278
 31
0.0
  0
LINE
  8
DETAIL
  6
CONTINUOUS
 62
     5
 10
-111.67726555439999
 20
-52.58346584389983
 30
0.0
 11
-111.67726555439999
 21
-64.103121482501138
 31
0.0
  0
ARC
  8
DETAIL
  6
CONTINUOUS
 62
     5
 10
-33.928855342200222
 20
-40.063593024000063
 30
0.0
 40
78.750000037800049
 50
170.8521574802046
 51
174.8473718051068
  0
ARC
  8
DETAIL
  6
CONTINUOUS
 62
     5
 10
-33.928855342200222
 20
-40.063593024000063
 30
0.0
 40
78.750000037799992
 50
185.1526281948932
 51
189.1478425197954
  0
ARC
  8
DETAIL
  6
CONTINUOUS
 62
     5
 10
475.11753563225187
 20
-40.063593024000063
 30
0.0
 40
587.5207318107914
 50
179.3102668278126
 51
180.6897331721874
  0
ARC
  8
DETAIL
  6
CONTINUOUS
 62
     5
 10
-33.928855342200222
 20
-40.063593024000063
 30
0.0
 40
77.115219693080434
 50
170.74864887259551
 51
189.25135112740409
  0
ARC
  8
DETAIL
  6
CONTINUOUS
 62
     5
 10
-33.928855342200222
 20
-40.063593024000063
 30
0.0
 40
75.356799458007544
 50
170.53080853829641
 51
189.4691914617035
  0
ARC
  8
DETAIL
  6
CONTINUOUS
 62
     5
 10
-107.67090625200029
 20
-10.51669316880043
 30
0.0
 40
2.003179651200008
 50
270.0
 51
0.0
  0
LINE
  8
DETAIL
  6
CONTINUOUS
 62
     5
 10
-111.67726555439999
 20
-64.103121482501138
 30
0.0
 11
-109.67408590320061
 21
-65.103338663999693
 31
0.0
  0
LINE
  8
DETAIL
  6
CONTINUOUS
 62
     5
 10
-111.67726555439999
 20
-14.52030718309879
 30
0.0
 11
-109.676831191302
 21
-12.51987282000027
 31
0.0
  0
LINE
  8
DETAIL
  6
CONTINUOUS
 62
     5
 10
-90.141711659899556
 20
-111.6772655543996
 30
0.0
 11
-89.141494478400091
 21
-109.67408590320019
 31
0.0
  0
LINE
  8
DETAIL
  6
CONTINUOUS
 62
     5
 10
-111.67726555439999
 20
-90.141711659999146
 30
0.0
 11
-109.67408590320061
 21
-89.141494478400091
 31
0.0
  0
LINE
  8
DETAIL
  6
CONTINUOUS
 62
     5
 10
-12.51987282000027
 20
109.6768311913015
 30
0.0
 11
-14.52030718309925
 21
111.6772655543996
 31
0.0
  0
LINE
  8
DETAIL
  6
CONTINUOUS
 62
     5
 10
-65.103338664000148
 20
110.677048372901
 30
0.0
 11
-64.103121482401548
 21
111.6772655543996
 31
0.0
  0
LINE
  8
DETAIL
  6
CONTINUOUS
 62
     5
 10
64.103121482401548
 20
111.6772655543996
 30
0.0
 11
52.58346584390074
 21
111.6772655543996
 31
0.0
  0
LINE
  8
DETAIL
  6
CONTINUOUS
 62
     5
 10
27.543720204000241
 20
111.6772655543996
 30
0.0
 11
14.52030718309925
 21
111.6772655543996
 31
0.0
  0
LINE
  8
DETAIL
  6
CONTINUOUS
 62
     5
 10
10.51669316879997
 20
105.66772660080009
 30
0.0
 11
0.0
 21
105.66772660080009
 31
0.0
  0
LINE
  8
DETAIL
  6
CONTINUOUS
 62
     5
 10
12.51987282000027
 20
107.67090625200029
 30
0.0
 11
12.51987282000027
 21
109.6768311913015
 31
0.0
  0
LINE
  8
DETAIL
  6
CONTINUOUS
 62
     5
 10
27.666099912064059
 20
108.2864265095768
 30
0.0
 11
27.666099912064059
 21
110.04100465399139
 31
0.0
  0
LINE
  8
DETAIL
  6
CONTINUOUS
 62
     5
 10
52.583465844000777
 20
110.02096986723291
 30
0.0
 11
52.583465844000777
 21
108.2659188431157
 31
0.0
  0
LINE
  8
DETAIL
  6
CONTINUOUS
 62
     5
 10
65.103338664000148
 20
110.677048372901
 30
0.0
 11
65.103338664000148
 21
109.67408590320019
 31
0.0
  0
ARC
  8
DETAIL
  6
CONTINUOUS
 62
     5
 10
10.51669316879997
 20
107.67090625200029
 30
0.0
 40
2.003179651200008
 50
270.0
 51
0.0
  0
ARC
  8
DETAIL
  6
CONTINUOUS
 62
     5
 10
40.063593024000511
 20
33.928855342199768
 30
0.0
 40
78.750000037800092
 50
80.852157480205264
 51
84.847371805105723
  0
ARC
  8
DETAIL
  6
CONTINUOUS
 62
     5
 10
40.063593024000511
 20
33.928855342199768
 30
0.0
 40
78.750000037800262
 50
95.152628194894277
 51
99.147842519794736
  0
ARC
  8
DETAIL
  6
CONTINUOUS
 62
     5
 10
40.063593023995963
 20
-475.1177037300472
 30
0.0
 40
587.52089989640638
 50
89.31026702514221
 51
90.68973297485779
  0
ARC
  8
DETAIL
  6
CONTINUOUS
 62
     5
 10
40.063593024000511
 20
33.928855342199768
 30
0.0
 40
77.115219693080604
 50
80.656511647518499
 51
99.251351127403424
  0
ARC
  8
DETAIL
  6
CONTINUOUS
 62
     5
 10
40.063593024000511
 20
33.928855342199768
 30
0.0
 40
75.383991837527731
 50
80.439943740394369
 51
99.465744326988485
  0
LINE
  8
DETAIL
  6
CONTINUOUS
 62
     5
 10
12.51987282000027
 20
109.6768311913015
 30
0.0
 11
14.52030718309925
 21
111.6772655543996
 31
0.0
  0
LINE
  8
DETAIL
  6
CONTINUOUS
 62
     5
 10
65.103338664000148
 20
110.677048372901
 30
0.0
 11
64.103121482401548
 21
111.6772655543996
 31
0.0
  0
LINE
  8
DETAIL
  6
CONTINUOUS
 62
     5
 10
-64.103121482402457
 20
-111.6772655543989
 30
0.0
 11
-54.71586755694625
 21
-111.67726555440019
 31
0.0
  0
LINE
  8
DETAIL
  6
CONTINUOUS
 62
     5
 10
-65.103338664001058
 20
-110.6770483729002
 30
0.0
 11
-65.103338664001058
 21
-109.6740859031994
 31
0.0
  0
LINE
  8
DETAIL
  6
CONTINUOUS
 62
     5
 10
-65.103338664001058
 20
-110.6770483729002
 30
0.0
 11
-64.103121482402457
 21
-111.6772655543989
 31
0.0
  0
LINE
  8
DETAIL
  6
CONTINUOUS
 62
     5
 10
64.103121482400638
 20
-111.67726555439999
 30
0.0
 11
54.736638775762003
 21
-111.67726555439999
 31
0.0
  0
LINE
  8
DETAIL
  6
CONTINUOUS
 62
     5
 10
65.103338663999239
 20
-110.6770483729015
 30
0.0
 11
65.103338663999239
 21
-109.6740859032008
 31
0.0
  0
LINE
  8
DETAIL
  6
CONTINUOUS
 62
     5
 10
65.103338663999239
 20
-110.6770483729015
 30
0.0
 11
64.103121482400638
 21
-111.67726555439999
 31
0.0
  0
LINE
  8
DETAIL
  6
CONTINUOUS
 62
     5
 10
89.141494478400091
 20
-109.6740859031999
 30
0.0
 11
65.103338664000148
 21
-109.6740859031999
 31
0.0
  0
LINE
  8
DETAIL
  6
CONTINUOUS
 62
     5
 10
90.143084304000695
 20
-111.67726555439999
 30
0.0
 11
101.66136729840041
 21
-111.67726555439999
 31
0.0
  0
LINE
  8
DETAIL
  6
CONTINUOUS
 62
     5
 10
109.67408590320061
 20
-89.141494478399636
 30
0.0
 11
109.67408590320061
 21
-65.103338663999693
 31
0.0
  0
LINE
  8
DETAIL
  6
CONTINUOUS
 62
     5
 10
111.67726555439999
 20
-90.141711659999146
 30
0.0
 11
111.67726555439999
 21
-101.6613672983999
 31
0.0
  0
ARC
  8
DETAIL
  6
CONTINUOUS
 62
     5
 10
101.66136729840041
 20
-101.6613672983999
 30
0.0
 40
10.015898256000041
 50
270.0
 51
0.0
  0
ARC
  8
DETAIL
  6
CONTINUOUS
 62
     5
 10
101.66136729840041
 20
-101.6613672983999
 30
0.0
 40
10.015898255999989
 50
270.0
 51
0.0
  0
LINE
  8
DETAIL
  6
CONTINUOUS
 62
     5
 10
101.66136729840041
 20
-111.67726555439999
 30
0.0
 11
90.141711659999601
 21
-111.67726555439999
 31
0.0
  0
LINE
  8
DETAIL
  6
CONTINUOUS
 62
     5
 10
65.103338664000148
 20
-109.6740859031999
 30
0.0
 11
89.141494478400091
 21
-109.6740859031999
 31
0.0
  0
LINE
  8
DETAIL
  6
CONTINUOUS
 62
     5
 10
109.67408590320061
 20
-89.141494478399636
 30
0.0
 11
109.67408590320061
 21
-65.103338663999693
 31
0.0
  0
LINE
  8
DETAIL
  6
CONTINUOUS
 62
     5
 10
111.67726555439999
 20
-90.141711659899102
 30
0.0
 11
111.67726555439999
 21
-101.6613672983999
 31
0.0
  0
LINE
  8
DETAIL
  6
CONTINUOUS
 62
     5
 10
101.66136729840041
 20
111.6772655543996
 30
0.0
 11
90.141711659899556
 21
111.6772655543996
 31
0.0
  0
LINE
  8
DETAIL
  6
CONTINUOUS
 62
     5
 10
65.103338664000148
 20
109.67408590320019
 30
0.0
 11
89.141494478400091
 21
109.67408590320019
 31
0.0
  0
LINE
  8
DETAIL
  6
CONTINUOUS
 62
     5
 10
109.67408590320061
 20
89.141494478400091
 30
0.0
 11
109.67408590320061
 21
65.103338663999693
 31
0.0
  0
LINE
  8
DETAIL
  6
CONTINUOUS
 62
     5
 10
111.67726555439999
 20
90.141711659999146
 30
0.0
 11
111.67726555439999
 21
101.6613672983999
 31
0.0
  0
ARC
  8
DETAIL
  6
CONTINUOUS
 62
     5
 10
101.66136729840041
 20
101.6613672983999
 30
0.0
 40
10.01589825600001
 50
0.0
 51
90.0
  0
LINE
  8
DETAIL
  6
CONTINUOUS
 62
     5
 10
90.141711659899556
 20
111.6772655543996
 30
0.0
 11
89.141494478400091
 21
109.67408590320019
 31
0.0
  0
LINE
  8
DETAIL
  6
CONTINUOUS
 62
     5
 10
111.67726555439999
 20
90.141711659999146
 30
0.0
 11
109.67408590320061
 21
89.141494478400091
 31
0.0
  0
LINE
  8
DETAIL
  6
CONTINUOUS
 62
     5
 10
90.141711659899556
 20
-111.6772655543996
 30
0.0
 11
89.141494478400091
 21
-109.67408590320019
 31
0.0
  0
LINE
  8
DETAIL
  6
CONTINUOUS
 62
     5
 10
111.67726555439999
 20
-90.141711659999146
 30
0.0
 11
109.67408590320061
 21
-89.141494478400091
 31
0.0
  0
ARC
  8
DETAIL
  6
CONTINUOUS
 62
     5
 10
-72.841251340945291
 20
68.404900814015036
 30
0.0
 40
8.8719794308475901
 50
95.594447418656998
 51
175.80580825679229
  0
ARC
  8
DETAIL
  6
CONTINUOUS
 62
     5
 10
-69.118564958159823
 20
70.751994907504923
 30
0.0
 40
14.17793788237425
 50
110.9915256737758
 51
157.41306305586201
  0
ARC
  8
DETAIL
  6
CONTINUOUS
 62
     5
 10
-74.780733129904547
 20
76.780732894759694
 30
0.0
 40
8.4500752920030759
 50
92.900914169308166
 51
177.09905432651561
  0
ARC
  8
DETAIL
  6
CONTINUOUS
 62
     5
 10
72.841251340945291
 20
68.404900814014809
 30
0.0
 40
8.8719794308475901
 50
4.1941917432076696
 51
84.405552581316954
  0
ARC
  8
DETAIL
  6
CONTINUOUS
 62
     5
 10
69.118564958159823
 20
70.751994907504923
 30
0.0
 40
14.17793788237425
 50
22.58693694413806
 51
69.008474326225837
  0
ARC
  8
DETAIL
  6
CONTINUOUS
 62
     5
 10
74.780733129904547
 20
76.780732894759694
 30
0.0
 40
8.4500752920030759
 50
2.900945673484475
 51
87.099085830717897
  0
LINE
  8
DETAIL
  6
CONTINUOUS
 62
     5
 10
-80.465607815972362
 20
-84.714480874625224
 30
0.0
 11
-79.964887172759518
 21
-85.215210359571756
 31
0.0
  0
LINE
  8
DETAIL
  6
CONTINUOUS
 62
     5
 10
-78.935098672245658
 20
-83.183982576513699
 30
0.0
 11
-78.434380032914305
 21
-83.684701215844598
 31
0.0
  0
LINE
  8
DETAIL
  6
CONTINUOUS
 62
     5
 10
-83.219979836371749
 20
-76.701762273431086
 30
0.0
 11
-80.465607815972362
 21
-79.205366311995476
 31
0.0
  0
LINE
  8
DETAIL
  6
CONTINUOUS
 62
     5
 10
-81.689470692645045
 20
-75.17126397171387
 30
0.0
 11
-78.935098672245658
 21
-77.674885263063516
 31
0.0
  0
LINE
  8
DETAIL
  6
CONTINUOUS
 62
     5
 10
80.465607815972362
 20
-84.714480874625224
 30
0.0
 11
79.964887172759518
 21
-85.215210359571756
 31
0.0
  0
LINE
  8
DETAIL
  6
CONTINUOUS
 62
     5
 10
78.935098672245658
 20
-83.183982576513699
 30
0.0
 11
78.434380032914305
 21
-83.684701215844598
 31
0.0
  0
LINE
  8
DETAIL
  6
CONTINUOUS
 62
     5
 10
83.219979836371749
 20
-76.701762273431086
 30
0.0
 11
80.465607815972362
 21
-79.205366311995476
 31
0.0
  0
LINE
  8
DETAIL
  6
CONTINUOUS
 62
     5
 10
81.689470692645045
 20
-75.17126397171387
 30
0.0
 11
78.935098672245658
 21
-77.674885263063516
 31
0.0
  0
LINE
  8
DETAIL
  6
CONTINUOUS
 62
     5
 10
109.67408590320061
 20
-89.141494478399636
 30
0.0
 11
109.67408590320061
 21
-65.103338663999693
 31
0.0
  0
LINE
  8
DETAIL
  6
CONTINUOUS
 62
     5
 10
109.67408590320061
 20
-89.141494478399636
 30
0.0
 11
109.67408590320061
 21
-65.103338663999693
 31
0.0
  0
LINE
  8
DETAIL
  6
CONTINUOUS
 62
     5
 10
108.25885863222901
 20
52.461086135936512
 30
0.0
 11
110.04100465389089
 21
52.461086135936512
 31
0.0
  0
LINE
  8
DETAIL
  6
CONTINUOUS
 62
     5
 10
110.04100465389089
 20
27.666099912063601
 30
0.0
 11
108.25885863222901
 21
27.666099912063601
 31
0.0
  0
LINE
  8
DETAIL
  6
CONTINUOUS
 62
     5
 10
109.676831191302
 20
12.51987282000027
 30
0.0
 11
107.67090625200029
 21
12.51987282000027
 31
0.0
  0
LINE
  8
DETAIL
  6
CONTINUOUS
 62
     5
 10
109.67408590320061
 20
89.141494478400091
 30
0.0
 11
109.67408590320061
 21
65.103338663999693
 31
0.0
  0
LINE
  8
DETAIL
  6
CONTINUOUS
 62
     5
 10
111.67726555439999
 20
14.52030718309879
 30
0.0
 11
111.67726555439999
 21
27.543720204100278
 31
0.0
  0
LINE
  8
DETAIL
  6
CONTINUOUS
 62
     5
 10
111.67726555439999
 20
52.58346584389983
 30
0.0
 11
111.67726555439999
 21
64.103121482501138
 31
0.0
  0
ARC
  8
DETAIL
  6
CONTINUOUS
 62
     5
 10
33.928855342200222
 20
40.063593024000063
 30
0.0
 40
78.750000037800049
 50
350.8521574802046
 51
354.84737180510677
  0
ARC
  8
DETAIL
  6
CONTINUOUS
 62
     5
 10
33.928855342200222
 20
40.063593024000063
 30
0.0
 40
78.750000037799992
 50
5.152628194893218
 51
9.1478425197953683
  0
ARC
  8
DETAIL
  6
CONTINUOUS
 62
     5
 10
-475.11753563225187
 20
40.063593024000063
 30
0.0
 40
587.5207318107914
 50
359.31026682781248
 51
0.689733172187429
  0
ARC
  8
DETAIL
  6
CONTINUOUS
 62
     5
 10
33.928855342200222
 20
40.063593024000063
 30
0.0
 40
77.115219693080434
 50
350.74864887259548
 51
9.2513511274045364
  0
ARC
  8
DETAIL
  6
CONTINUOUS
 62
     5
 10
33.928855342200222
 20
40.063593024000063
 30
0.0
 40
75.356799458007544
 50
350.53080853829641
 51
9.4691914617035522
  0
ARC
  8
DETAIL
  6
CONTINUOUS
 62
     5
 10
107.67090625200029
 20
10.51669316880043
 30
0.0
 40
2.003179651200008
 50
90.0
 51
180.0
  0
LINE
  8
DETAIL
  6
CONTINUOUS
 62
     5
 10
111.67726555439999
 20
64.103121482501138
 30
0.0
 11
109.67408590320061
 21
65.103338663999693
 31
0.0
  0
LINE
  8
DETAIL
  6
CONTINUOUS
 62
     5
 10
111.67726555439999
 20
14.52030718309879
 30
0.0
 11
109.676831191302
 21
12.51987282000027
 31
0.0
  0
LINE
  8
DETAIL
  6
CONTINUOUS
 62
     5
 10
108.25885863222901
 20
-52.461086135936512
 30
0.0
 11
110.04100465389089
 21
-52.461086135936512
 31
0.0
  0
LINE
  8
DETAIL
  6
CONTINUOUS
 62
     5
 10
110.04100465389089
 20
-27.666099912063601
 30
0.0
 11
108.25885863222901
 21
-27.666099912063601
 31
0.0
  0
LINE
  8
DETAIL
  6
CONTINUOUS
 62
     5
 10
109.676831191302
 20
-12.51987282000027
 30
0.0
 11
107.67090625200029
 21
-12.51987282000027
 31
0.0
  0
LINE
  8
DETAIL
  6
CONTINUOUS
 62
     5
 10
111.67726555439999
 20
-14.52030718309879
 30
0.0
 11
111.67726555439999
 21
-27.543720204100278
 31
0.0
  0
LINE
  8
DETAIL
  6
CONTINUOUS
 62
     5
 10
111.67726555439999
 20
-52.58346584389983
 30
0.0
 11
111.67726555439999
 21
-64.103121482501138
 31
0.0
  0
ARC
  8
DETAIL
  6
CONTINUOUS
 62
     5
 10
33.928855342200222
 20
-40.063593024000063
 30
0.0
 40
78.750000037800049
 50
5.152628194893218
 51
9.1478425197953683
  0
ARC
  8
DETAIL
  6
CONTINUOUS
 62
     5
 10
33.928855342200222
 20
-40.063593024000063
 30
0.0
 40
78.750000037799992
 50
350.8521574802046
 51
354.84737180510677
  0
ARC
  8
DETAIL
  6
CONTINUOUS
 62
     5
 10
-475.11753563225187
 20
-40.063593023999829
 30
0.0
 40
587.5207318107914
 50
359.31026682781248
 51
0.689733172187429
  0
ARC
  8
DETAIL
  6
CONTINUOUS
 62
     5
 10
33.928855342200222
 20
-40.063593024000063
 30
0.0
 40
77.115219693080434
 50
350.74864887259548
 51
9.2513511274045364
  0
ARC
  8
DETAIL
  6
CONTINUOUS
 62
     5
 10
33.928855342200222
 20
-40.063593024000063
 30
0.0
 40
75.356799458007544
 50
350.53080853829641
 51
9.4691914617035522
  0
ARC
  8
DETAIL
  6
CONTINUOUS
 62
     5
 10
107.67090625200029
 20
-10.51669316880043
 30
0.0
 40
2.003179651200008
 50
180.0
 51
270.0
  0
LINE
  8
DETAIL
  6
CONTINUOUS
 62
     5
 10
111.67726555439999
 20
-64.103121482501138
 30
0.0
 11
109.67408590320061
 21
-65.103338663999693
 31
0.0
  0
LINE
  8
DETAIL
  6
CONTINUOUS
 62
     5
 10
111.67726555439999
 20
-14.52030718309879
 30
0.0
 11
109.676831191302
 21
-12.51987282000027
 31
0.0
  0
LINE
  8
OUTLINE
  6
CONTINUOUS
 62
     3
 10
52.357010389285279
 20
-149.58351526932071
 30
0.0
 11
52.357010389285279
 21
-149.89429102720121
 31
0.0
  0
LINE
  8
OUTLINE
  6
CONTINUOUS
 62
     3
 10
-89.141494478400091
 20
-109.6740859031997
 30
0.0
 11
-65.103338664000148
 21
-109.6740859031997
 31
0.0
  0
LINE
  8
OUTLINE
  6
CONTINUOUS
 62
     3
 10
54.241783875317203
 20
-115.6580997706328
 30
0.0
 11
53.084260756799267
 21
-125.3990461651201
 31
0.0
  0
LINE
  8
OUTLINE
  6
CONTINUOUS
 62
     3
 10
53.084260756799267
 20
-125.39904616471949
 30
0.0
 11
52.881806922309814
 21
-148.5979577816706
 31
0.0
  0
LINE
  8
OUTLINE
  6
CONTINUOUS
 62
     3
 10
49.427531134013407
 20
-155.44674093312011
 30
0.0
 11
49.07790145439958
 21
-185.49443570112041
 31
0.0
  0
LINE
  8
OUTLINE
  6
CONTINUOUS
 62
     3
 10
-49.427531133913362
 20
-155.44674093312011
 30
0.0
 11
-49.077901454400489
 21
-185.49443570112041
 31
0.0
  0
LINE
  8
OUTLINE
  6
CONTINUOUS
 62
     3
 10
-53.084276519621199
 20
-125.3972399243698
 30
0.0
 11
-52.881806922209762
 21
-148.5979577816706
 31
0.0
  0
LINE
  8
OUTLINE
  6
CONTINUOUS
 62
     3
 10
-53.084275321619323
 20
-125.3972587255134
 30
0.0
 11
-54.71586755694625
 21
-111.67726555439999
 31
0.0
  0
LINE
  8
OUTLINE
  6
CONTINUOUS
 62
     3
 10
53.084260756799267
 20
-125.39904616451879
 30
0.0
 11
53.039504061204752
 21
-125.3957413085141
 31
0.0
  0
LINE
  8
OUTLINE
  6
CONTINUOUS
 62
     3
 10
53.039504061204752
 20
-125.3957413085141
 30
0.0
 11
52.905165692935043
 21
-125.3934803817401
 31
0.0
  0
LINE
  8
OUTLINE
  6
CONTINUOUS
 62
     3
 10
52.905165692935043
 20
-125.3934803817401
 30
0.0
 11
52.681297113977053
 21
-125.392092518382
 31
0.0
  0
LINE
  8
OUTLINE
  6
CONTINUOUS
 62
     3
 10
-52.367235310227443
 20
-125.3899631077643
 30
0.0
 11
-52.681204025017003
 21
-125.3926631119862
 31
0.0
  0
LINE
  8
OUTLINE
  6
CONTINUOUS
 62
     3
 10
-52.681204025017003
 20
-125.3926631119862
 30
0.0
 11
-52.905367753967766
 21
-125.3959363862614
 31
0.0
  0
LINE
  8
OUTLINE
  6
CONTINUOUS
 62
     3
 10
-52.905367753967766
 20
-125.3959363862614
 30
0.0
 11
-53.039610633367367
 21
-125.3971718728517
 31
0.0
  0
LINE
  8
OUTLINE
  6
CONTINUOUS
 62
     3
 10
-53.039610633367367
 20
-125.3971718728517
 30
0.0
 11
-53.084275464145321
 21
-125.3972423939899
 31
0.0
  0
LINE
  8
OUTLINE
  6
CONTINUOUS
 62
     3
 10
49.427531134013407
 20
-155.44674093312011
 30
0.0
 11
52.881806922309814
 21
-148.5979577816706
 31
0.0
  0
LINE
  8
OUTLINE
  6
CONTINUOUS
 62
     3
 10
-49.427531133913362
 20
-155.44674093312011
 30
0.0
 11
-52.881806922209762
 21
-148.5979577816706
 31
0.0
  0
LINE
  8
OUTLINE
  6
CONTINUOUS
 62
     3
 10
-49.077901454400489
 20
-185.49443570112041
 30
0.0
 11
49.07790145439958
 21
-185.49443570112041
 31
0.0
  0
LINE
  8
OUTLINE
  6
CONTINUOUS
 62
     3
 10
-90.143084304000695
 20
-111.67726555439999
 30
0.0
 11
-101.66136729840041
 21
-111.67726555439999
 31
0.0
  0
LINE
  8
OUTLINE
  6
CONTINUOUS
 62
     3
 10
-109.67408590320061
 20
-89.141494478399636
 30
0.0
 11
-109.67408590320061
 21
-65.103338663999693
 31
0.0
  0
LINE
  8
OUTLINE
  6
CONTINUOUS
 62
     3
 10
-111.67726555439999
 20
-90.141711659999146
 30
0.0
 11
-111.67726555439999
 21
-101.6613672983999
 31
0.0
  0
ARC
  8
OUTLINE
  6
CONTINUOUS
 62
     3
 10
-101.66136729840041
 20
-101.6613672983999
 30
0.0
 40
10.015898256000041
 50
180.0
 51
270.0
  0
ARC
  8
OUTLINE
  6
CONTINUOUS
 62
     3
 10
-101.66136729840041
 20
-101.6613672983999
 30
0.0
 40
10.015898255999989
 50
180.0
 51
270.0
  0
LINE
  8
OUTLINE
  6
CONTINUOUS
 62
     3
 10
-101.66136729840041
 20
-111.67726555439999
 30
0.0
 11
-90.141711659999601
 21
-111.67726555439999
 31
0.0
  0
LINE
  8
OUTLINE
  6
CONTINUOUS
 62
     3
 10
-65.103338664000148
 20
-109.6740859031997
 30
0.0
 11
-89.141494478400091
 21
-109.6740859031997
 31
0.0
  0
LINE
  8
OUTLINE
  6
CONTINUOUS
 62
     3
 10
105.66772660080009
 20
10.51669316880043
 30
0.0
 11
105.66772660080009
 21
-10.51669316879952
 31
0.0
  0
LINE
  8
OUTLINE
  6
CONTINUOUS
 62
     3
 10
-105.66772660080009
 20
0.0
 30
0.0
 11
-105.66772660080009
 21
-10.51669316879952
 31
0.0
  0
LINE
  8
OUTLINE
  6
CONTINUOUS
 62
     3
 10
-109.67408590320061
 20
-89.141494478399636
 30
0.0
 11
-109.67408590320061
 21
-65.103338663999693
 31
0.0
  0
LINE
  8
OUTLINE
  6
CONTINUOUS
 62
     3
 10
-111.67726555439999
 20
-90.141711659899102
 30
0.0
 11
-111.67726555439999
 21
-101.6613672983999
 31
0.0
  0
LINE
  8
OUTLINE
  6
CONTINUOUS
 62
     3
 10
-101.66136729840041
 20
111.6772655543996
 30
0.0
 11
-90.141711659899556
 21
111.6772655543996
 31
0.0
  0
LINE
  8
OUTLINE
  6
CONTINUOUS
 62
     3
 10
-64.103121482401548
 20
111.6772655543996
 30
0.0
 11
-52.58346584390074
 21
111.6772655543996
 31
0.0
  0
LINE
  8
OUTLINE
  6
CONTINUOUS
 62
     3
 10
-27.543720204000241
 20
111.6772655543996
 30
0.0
 11
-14.52030718309925
 21
111.6772655543996
 31
0.0
  0
LINE
  8
OUTLINE
  6
CONTINUOUS
 62
     3
 10
-65.103338664000148
 20
109.67408590320019
 30
0.0
 11
-89.141494478400091
 21
109.67408590320019
 31
0.0
  0
LINE
  8
OUTLINE
  6
CONTINUOUS
 62
     3
 10
-10.51669316879997
 20
105.66772660080009
 30
0.0
 11
0.0
 21
105.66772660080009
 31
0.0
  0
LINE
  8
OUTLINE
  6
CONTINUOUS
 62
     3
 10
-109.676831191302
 20
12.51987282000027
 30
0.0
 11
-107.67090625200029
 21
12.51987282000027
 31
0.0
  0
LINE
  8
OUTLINE
  6
CONTINUOUS
 62
     3
 10
-12.51987282000027
 20
107.67090625200029
 30
0.0
 11
-12.51987282000027
 21
109.6768311913015
 31
0.0
  0
LINE
  8
OUTLINE
  6
CONTINUOUS
 62
     3
 10
-65.103338664000148
 20
110.677048372901
 30
0.0
 11
-65.103338664000148
 21
109.67408590320019
 31
0.0
  0
LINE
  8
OUTLINE
  6
CONTINUOUS
 62
     3
 10
-105.66772660080009
 20
10.51669316880043
 30
0.0
 11
-105.66772660080009
 21
-10.51669316879952
 31
0.0
  0
LINE
  8
OUTLINE
  6
CONTINUOUS
 62
     3
 10
-109.67408590320061
 20
89.141494478400091
 30
0.0
 11
-109.67408590320061
 21
65.103338663999693
 31
0.0
  0
LINE
  8
OUTLINE
  6
CONTINUOUS
 62
     3
 10
-111.67726555439999
 20
14.52030718309879
 30
0.0
 11
-111.67726555439999
 21
27.543720204100278
 31
0.0
  0
LINE
  8
OUTLINE
  6
CONTINUOUS
 62
     3
 10
-111.67726555439999
 20
52.58346584389983
 30
0.0
 11
-111.67726555439999
 21
64.103121482501138
 31
0.0
  0
LINE
  8
OUTLINE
  6
CONTINUOUS
 62
     3
 10
-111.67726555439999
 20
90.141711659999146
 30
0.0
 11
-111.67726555439999
 21
101.6613672983999
 31
0.0
  0
ARC
  8
OUTLINE
  6
CONTINUOUS
 62
     3
 10
-10.51669316879997
 20
107.67090625200029
 30
0.0
 40
2.003179651200008
 50
180.0
 51
270.0
  0
ARC
  8
OUTLINE
  6
CONTINUOUS
 62
     3
 10
-40.063593024000511
 20
33.928855342199768
 30
0.0
 40
78.750000037800092
 50
95.152628194894277
 51
99.147842519794736
  0
ARC
  8
OUTLINE
  6
CONTINUOUS
 62
     3
 10
-40.063593024000511
 20
33.928855342199768
 30
0.0
 40
78.750000037800262
 50
80.852157480205264
 51
84.847371805105723
  0
ARC
  8
OUTLINE
  6
CONTINUOUS
 62
     3
 10
-33.928855342200222
 20
40.063593024000063
 30
0.0
 40
78.750000037800049
 50
185.1526281948932
 51
189.1478425197954
  0
ARC
  8
OUTLINE
  6
CONTINUOUS
 62
     3
 10
-33.928855342200222
 20
40.063593024000063
 30
0.0
 40
78.750000037799992
 50
170.8521574802046
 51
174.8473718051068
  0
ARC
  8
OUTLINE
  6
CONTINUOUS
 62
     3
 10
-40.063593023995963
 20
-475.1177037300472
 30
0.0
 40
587.52089989640638
 50
89.310267025168272
 51
90.689732974831728
  0
ARC
  8
OUTLINE
  6
CONTINUOUS
 62
     3
 10
475.11753563225187
 20
40.063593024000063
 30
0.0
 40
587.5207318107914
 50
179.3102668278126
 51
180.6897331721874
  0
ARC
  8
OUTLINE
  6
CONTINUOUS
 62
     3
 10
-101.66136729840041
 20
101.6613672983999
 30
0.0
 40
10.01589825600001
 50
90.0
 51
180.0
  0
ARC
  8
OUTLINE
  6
CONTINUOUS
 62
     3
 10
-107.67090625200029
 20
10.51669316880043
 30
0.0
 40
2.003179651200008
 50
0.0
 51
90.0
  0
LINE
  8
OUTLINE
  6
CONTINUOUS
 62
     3
 10
-49.067758928046707
 20
-185.59267343227381
 30
0.0
 11
49.088043980752452
 21
-185.59267343227381
 31
0.0
  0
LINE
  8
OUTLINE
  6
CONTINUOUS
 62
     3
 10
52.893488465347218
 20
-148.51984165618299
 30
0.0
 11
49.3502662403871
 21
-155.54497866427391
 31
0.0
  0
LINE
  8
OUTLINE
  6
CONTINUOUS
 62
     3
 10
49.3502662403871
 20
-155.54497866427391
 30
0.0
 11
49.088043980752452
 21
-185.59267343227381
 31
0.0
  0
LINE
  8
OUTLINE
  6
CONTINUOUS
 62
     3
 10
-53.02952035665021
 20
-125.49541581236009
 30
0.0
 11
-53.074132929177722
 21
-125.49548136140631
 31
0.0
  0
LINE
  8
OUTLINE
  6
CONTINUOUS
 62
     3
 10
-52.895434177380587
 20
-125.4941870112816
 30
0.0
 11
-53.02952035665021
 21
-125.49541581236009
 31
0.0
  0
LINE
  8
OUTLINE
  6
CONTINUOUS
 62
     3
 10
-52.671531896326997
 20
-125.4909245433596
 30
0.0
 11
-52.895434177380587
 21
-125.4941870112816
 31
0.0
  0
LINE
  8
OUTLINE
  6
CONTINUOUS
 62
     3
 10
-52.357926113319991
 20
-125.4882321878781
 30
0.0
 11
-52.671531896326997
 21
-125.4909245433596
 31
0.0
  0
LINE
  8
OUTLINE
  6
CONTINUOUS
 62
     3
 10
52.915579414256172
 20
-125.4917378562327
 30
0.0
 11
52.692044772456939
 21
-125.49035563903639
 31
0.0
  0
LINE
  8
OUTLINE
  6
CONTINUOUS
 62
     3
 10
53.049714875551217
 20
-125.4939906021209
 30
0.0
 11
52.915579414256172
 21
-125.4917378562327
 31
0.0
  0
LINE
  8
OUTLINE
  6
CONTINUOUS
 62
     3
 10
53.094403283153042
 20
-125.4972838957729
 30
0.0
 11
53.049714875551217
 21
-125.4939906021209
 31
0.0
  0
LINE
  8
OUTLINE
  6
CONTINUOUS
 62
     3
 10
-53.074132787153758
 20
-125.49549763183219
 30
0.0
 11
-58.458881273060797
 21
-85.215210359571756
 31
0.0
  0
LINE
  8
OUTLINE
  6
CONTINUOUS
 62
     3
 10
-49.329981187681369
 20
-155.54497866427349
 30
0.0
 11
-49.067758928046707
 21
-185.59267343227381
 31
0.0
  0
LINE
  8
OUTLINE
  6
CONTINUOUS
 62
     3
 10
-53.074133982650892
 20
-125.4954788730561
 30
0.0
 11
-52.873203412641487
 21
-148.51984165618299
 31
0.0
  0
LINE
  8
OUTLINE
  6
CONTINUOUS
 62
     3
 10
-52.873203412641487
 20
-148.51984165618299
 30
0.0
 11
-49.329981187681369
 21
-155.54497866427349
 31
0.0
  0
LINE
  8
OUTLINE
  6
CONTINUOUS
 62
     3
 10
58.475280970962103
 20
-85.215210359571756
 30
0.0
 11
53.094403283153042
 21
-125.497283896274
 31
0.0
  0
LINE
  8
OUTLINE
  6
CONTINUOUS
 62
     3
 10
53.094463726799397
 20
-125.4903577400091
 30
0.0
 11
52.965294102203188
 21
-140.29173065821939
 31
0.0
  0
LINE
  8
OUTLINE
  6
CONTINUOUS
 62
     3
 10
52.965294102203188
 20
-140.29173065821939
 30
0.0
 11
52.893488465347218
 21
-148.51984165618299
 31
0.0
  0
LINE
  8
OUTLINE
  6
CONTINUOUS
 62
     3
 10
-90.141711659899556
 20
111.6772655543996
 30
0.0
 11
-89.141494478400091
 21
109.67408590320019
 31
0.0
  0
LINE
  8
OUTLINE
  6
CONTINUOUS
 62
     3
 10
-111.67726555439999
 20
90.141711659999146
 30
0.0
 11
-109.67408590320061
 21
89.141494478400091
 31
0.0
  0
LINE
  8
OUTLINE
  6
CONTINUOUS
 62
     3
 10
-111.67726555439999
 20
64.103121482501138
 30
0.0
 11
-109.67408590320061
 21
65.103338663999693
 31
0.0
  0
LINE
  8
OUTLINE
  6
CONTINUOUS
 62
     3
 10
-111.67726555439999
 20
14.52030718309879
 30
0.0
 11
-109.676831191302
 21
12.51987282000027
 31
0.0
  0
LINE
  8
OUTLINE
  6
CONTINUOUS
 62
     3
 10
-109.676831191302
 20
-12.51987282000027
 30
0.0
 11
-107.67090625200029
 21
-12.51987282000027
 31
0.0
  0
LINE
  8
OUTLINE
  6
CONTINUOUS
 62
     3
 10
-111.67726555439999
 20
-14.52030718309879
 30
0.0
 11
-111.67726555439999
 21
-27.543720204100278
 31
0.0
  0
LINE
  8
OUTLINE
  6
CONTINUOUS
 62
     3
 10
-111.67726555439999
 20
-52.58346584389983
 30
0.0
 11
-111.67726555439999
 21
-64.103121482501138
 31
0.0
  0
ARC
  8
OUTLINE
  6
CONTINUOUS
 62
     3
 10
-33.928855342200222
 20
-40.063593024000063
 30
0.0
 40
78.750000037800049
 50
170.8521574802046
 51
174.8473718051068
  0
ARC
  8
OUTLINE
  6
CONTINUOUS
 62
     3
 10
-33.928855342200222
 20
-40.063593024000063
 30
0.0
 40
78.750000037799992
 50
185.1526281948932
 51
189.1478425197954
  0
ARC
  8
OUTLINE
  6
CONTINUOUS
 62
     3
 10
475.11753563225187
 20
-40.063593023999942
 30
0.0
 40
587.5207318107914
 50
179.3102668278126
 51
180.6897331721874
  0
ARC
  8
OUTLINE
  6
CONTINUOUS
 62
     3
 10
-107.67090625200029
 20
-10.51669316880043
 30
0.0
 40
2.003179651200008
 50
270.0
 51
0.0
  0
LINE
  8
OUTLINE
  6
CONTINUOUS
 62
     3
 10
-111.67726555439999
 20
-64.103121482501138
 30
0.0
 11
-109.67408590320061
 21
-65.103338663999693
 31
0.0
  0
LINE
  8
OUTLINE
  6
CONTINUOUS
 62
     3
 10
-111.67726555439999
 20
-14.52030718309879
 30
0.0
 11
-109.676831191302
 21
-12.51987282000027
 31
0.0
  0
LINE
  8
OUTLINE
  6
CONTINUOUS
 62
     3
 10
-90.141711659899556
 20
-111.6772655543996
 30
0.0
 11
-89.141494478400091
 21
-109.67408590320019
 31
0.0
  0
LINE
  8
OUTLINE
  6
CONTINUOUS
 62
     3
 10
-111.67726555439999
 20
-90.141711659999146
 30
0.0
 11
-109.67408590320061
 21
-89.141494478400091
 31
0.0
  0
LINE
  8
OUTLINE
  6
CONTINUOUS
 62
     3
 10
-12.51987282000027
 20
109.6768311913015
 30
0.0
 11
-14.52030718309925
 21
111.6772655543996
 31
0.0
  0
LINE
  8
OUTLINE
  6
CONTINUOUS
 62
     3
 10
-65.103338664000148
 20
110.677048372901
 30
0.0
 11
-64.103121482401548
 21
111.6772655543996
 31
0.0
  0
LINE
  8
OUTLINE
  6
CONTINUOUS
 62
     3
 10
64.103121482401548
 20
111.6772655543996
 30
0.0
 11
52.58346584390074
 21
111.6772655543996
 31
0.0
  0
LINE
  8
OUTLINE
  6
CONTINUOUS
 62
     3
 10
27.543720204000241
 20
111.6772655543996
 30
0.0
 11
14.52030718309925
 21
111.6772655543996
 31
0.0
  0
LINE
  8
OUTLINE
  6
CONTINUOUS
 62
     3
 10
10.51669316879997
 20
105.66772660080009
 30
0.0
 11
0.0
 21
105.66772660080009
 31
0.0
  0
LINE
  8
OUTLINE
  6
CONTINUOUS
 62
     3
 10
12.51987282000027
 20
107.67090625200029
 30
0.0
 11
12.51987282000027
 21
109.6768311913015
 31
0.0
  0
LINE
  8
OUTLINE
  6
CONTINUOUS
 62
     3
 10
65.103338664000148
 20
110.677048372901
 30
0.0
 11
65.103338664000148
 21
109.67408590320019
 31
0.0
  0
ARC
  8
OUTLINE
  6
CONTINUOUS
 62
     3
 10
10.51669316879997
 20
107.67090625200029
 30
0.0
 40
2.003179651200008
 50
270.0
 51
0.0
  0
ARC
  8
OUTLINE
  6
CONTINUOUS
 62
     3
 10
40.063593024000511
 20
33.928855342199768
 30
0.0
 40
78.750000037800092
 50
80.852157480205264
 51
84.847371805105723
  0
ARC
  8
OUTLINE
  6
CONTINUOUS
 62
     3
 10
40.063593024000511
 20
33.928855342199768
 30
0.0
 40
78.750000037800262
 50
95.152628194894277
 51
99.147842519794736
  0
ARC
  8
OUTLINE
  6
CONTINUOUS
 62
     3
 10
40.063593023995963
 20
-475.1177037300472
 30
0.0
 40
587.52089989640638
 50
89.31026702514221
 51
90.68973297485779
  0
LINE
  8
OUTLINE
  6
CONTINUOUS
 62
     3
 10
12.51987282000027
 20
109.6768311913015
 30
0.0
 11
14.52030718309925
 21
111.6772655543996
 31
0.0
  0
LINE
  8
OUTLINE
  6
CONTINUOUS
 62
     3
 10
65.103338664000148
 20
110.677048372901
 30
0.0
 11
64.103121482401548
 21
111.6772655543996
 31
0.0
  0
LINE
  8
OUTLINE
  6
CONTINUOUS
 62
     3
 10
-64.103121482402457
 20
-111.6772655543989
 30
0.0
 11
-54.71586755694625
 21
-111.67726555439999
 31
0.0
  0
LINE
  8
OUTLINE
  6
CONTINUOUS
 62
     3
 10
-65.103338664001058
 20
-110.6770483729001
 30
0.0
 11
-65.103338664001058
 21
-109.6740859031993
 31
0.0
  0
LINE
  8
OUTLINE
  6
CONTINUOUS
 62
     3
 10
-65.103338664001058
 20
-110.6770483729001
 30
0.0
 11
-64.103121482402457
 21
-111.6772655543989
 31
0.0
  0
LINE
  8
OUTLINE
  6
CONTINUOUS
 62
     3
 10
64.103121482400638
 20
-111.67726555439999
 30
0.0
 11
54.736638775762003
 21
-111.6772655543999
 31
0.0
  0
LINE
  8
OUTLINE
  6
CONTINUOUS
 62
     3
 10
65.103338663999239
 20
-110.6770483729015
 30
0.0
 11
65.103338663999239
 21
-109.6740859032008
 31
0.0
  0
LINE
  8
OUTLINE
  6
CONTINUOUS
 62
     3
 10
65.103338663999239
 20
-110.6770483729015
 30
0.0
 11
64.103121482400638
 21
-111.67726555439999
 31
0.0
  0
LINE
  8
OUTLINE
  6
CONTINUOUS
 62
     3
 10
89.141494478400091
 20
-109.6740859031999
 30
0.0
 11
65.103338664000148
 21
-109.6740859031999
 31
0.0
  0
LINE
  8
OUTLINE
  6
CONTINUOUS
 62
     3
 10
90.143084304000695
 20
-111.67726555439999
 30
0.0
 11
101.66136729840041
 21
-111.67726555439999
 31
0.0
  0
LINE
  8
OUTLINE
  6
CONTINUOUS
 62
     3
 10
109.67408590320061
 20
-89.141494478399636
 30
0.0
 11
109.67408590320061
 21
-65.103338663999693
 31
0.0
  0
LINE
  8
OUTLINE
  6
CONTINUOUS
 62
     3
 10
111.67726555439999
 20
-90.141711659999146
 30
0.0
 11
111.67726555439999
 21
-101.6613672983999
 31
0.0
  0
ARC
  8
OUTLINE
  6
CONTINUOUS
 62
     3
 10
101.66136729840041
 20
-101.6613672983999
 30
0.0
 40
10.015898256000041
 50
270.0
 51
0.0
  0
ARC
  8
OUTLINE
  6
CONTINUOUS
 62
     3
 10
101.66136729840041
 20
-101.6613672983999
 30
0.0
 40
10.015898255999989
 50
270.0
 51
0.0
  0
LINE
  8
OUTLINE
  6
CONTINUOUS
 62
     3
 10
101.66136729840041
 20
-111.67726555439999
 30
0.0
 11
90.141711659999601
 21
-111.67726555439999
 31
0.0
  0
LINE
  8
OUTLINE
  6
CONTINUOUS
 62
     3
 10
65.103338664000148
 20
-109.6740859031999
 30
0.0
 11
89.141494478400091
 21
-109.6740859031999
 31
0.0
  0
LINE
  8
OUTLINE
  6
CONTINUOUS
 62
     3
 10
109.67408590320061
 20
-89.141494478399636
 30
0.0
 11
109.67408590320061
 21
-65.103338663999693
 31
0.0
  0
LINE
  8
OUTLINE
  6
CONTINUOUS
 62
     3
 10
111.67726555439999
 20
-90.141711659899102
 30
0.0
 11
111.67726555439999
 21
-101.6613672983999
 31
0.0
  0
LINE
  8
OUTLINE
  6
CONTINUOUS
 62
     3
 10
101.66136729840041
 20
111.6772655543996
 30
0.0
 11
90.141711659899556
 21
111.6772655543996
 31
0.0
  0
LINE
  8
OUTLINE
  6
CONTINUOUS
 62
     3
 10
65.103338664000148
 20
109.67408590320019
 30
0.0
 11
89.141494478400091
 21
109.67408590320019
 31
0.0
  0
LINE
  8
OUTLINE
  6
CONTINUOUS
 62
     3
 10
109.67408590320061
 20
89.141494478400091
 30
0.0
 11
109.67408590320061
 21
65.103338663999693
 31
0.0
  0
LINE
  8
OUTLINE
  6
CONTINUOUS
 62
     3
 10
111.67726555439999
 20
90.141711659999146
 30
0.0
 11
111.67726555439999
 21
101.6613672983999
 31
0.0
  0
ARC
  8
OUTLINE
  6
CONTINUOUS
 62
     3
 10
101.66136729840041
 20
101.6613672983999
 30
0.0
 40
10.01589825600001
 50
0.0
 51
90.0
  0
LINE
  8
OUTLINE
  6
CONTINUOUS
 62
     3
 10
90.141711659899556
 20
111.6772655543996
 30
0.0
 11
89.141494478400091
 21
109.67408590320019
 31
0.0
  0
LINE
  8
OUTLINE
  6
CONTINUOUS
 62
     3
 10
111.67726555439999
 20
90.141711659999146
 30
0.0
 11
109.67408590320061
 21
89.141494478400091
 31
0.0
  0
LINE
  8
OUTLINE
  6
CONTINUOUS
 62
     3
 10
90.141711659899556
 20
-111.6772655543996
 30
0.0
 11
89.141494478400091
 21
-109.67408590320019
 31
0.0
  0
LINE
  8
OUTLINE
  6
CONTINUOUS
 62
     3
 10
111.67726555439999
 20
-90.141711659999146
 30
0.0
 11
109.67408590320061
 21
-89.141494478400091
 31
0.0
  0
LINE
  8
OUTLINE
  6
CONTINUOUS
 62
     3
 10
109.67408590320061
 20
-89.141494478399636
 30
0.0
 11
109.67408590320061
 21
-65.103338663999693
 31
0.0
  0
LINE
  8
OUTLINE
  6
CONTINUOUS
 62
     3
 10
109.67408590320061
 20
-89.141494478399636
 30
0.0
 11
109.67408590320061
 21
-65.103338663999693
 31
0.0
  0
LINE
  8
OUTLINE
  6
CONTINUOUS
 62
     3
 10
109.676831191302
 20
12.51987282000027
 30
0.0
 11
107.67090625200029
 21
12.51987282000027
 31
0.0
  0
LINE
  8
OUTLINE
  6
CONTINUOUS
 62
     3
 10
109.67408590320061
 20
89.141494478400091
 30
0.0
 11
109.67408590320061
 21
65.103338663999693
 31
0.0
  0
LINE
  8
OUTLINE
  6
CONTINUOUS
 62
     3
 10
111.67726555439999
 20
14.52030718309879
 30
0.0
 11
111.67726555439999
 21
27.543720204100278
 31
0.0
  0
LINE
  8
OUTLINE
  6
CONTINUOUS
 62
     3
 10
111.67726555439999
 20
52.58346584389983
 30
0.0
 11
111.67726555439999
 21
64.103121482501138
 31
0.0
  0
ARC
  8
OUTLINE
  6
CONTINUOUS
 62
     3
 10
33.928855342200222
 20
40.063593024000063
 30
0.0
 40
78.750000037800049
 50
350.8521574802046
 51
354.84737180510677
  0
ARC
  8
OUTLINE
  6
CONTINUOUS
 62
     3
 10
33.928855342200222
 20
40.063593024000063
 30
0.0
 40
78.750000037799992
 50
5.152628194893218
 51
9.1478425197953683
  0
ARC
  8
OUTLINE
  6
CONTINUOUS
 62
     3
 10
-475.11753563225187
 20
40.063593024000063
 30
0.0
 40
587.5207318107914
 50
359.31026682781248
 51
0.689733172187429
  0
ARC
  8
OUTLINE
  6
CONTINUOUS
 62
     3
 10
107.67090625200029
 20
10.51669316880043
 30
0.0
 40
2.003179651200008
 50
90.0
 51
180.0
  0
LINE
  8
OUTLINE
  6
CONTINUOUS
 62
     3
 10
111.67726555439999
 20
64.103121482501138
 30
0.0
 11
109.67408590320061
 21
65.103338663999693
 31
0.0
  0
LINE
  8
OUTLINE
  6
CONTINUOUS
 62
     3
 10
111.67726555439999
 20
14.52030718309879
 30
0.0
 11
109.676831191302
 21
12.51987282000027
 31
0.0
  0
LINE
  8
OUTLINE
  6
CONTINUOUS
 62
     3
 10
109.676831191302
 20
-12.51987282000027
 30
0.0
 11
107.67090625200029
 21
-12.51987282000027
 31
0.0
  0
LINE
  8
OUTLINE
  6
CONTINUOUS
 62
     3
 10
111.67726555439999
 20
-14.52030718309879
 30
0.0
 11
111.67726555439999
 21
-27.543720204100278
 31
0.0
  0
LINE
  8
OUTLINE
  6
CONTINUOUS
 62
     3
 10
111.67726555439999
 20
-52.58346584389983
 30
0.0
 11
111.67726555439999
 21
-64.103121482501138
 31
0.0
  0
ARC
  8
OUTLINE
  6
CONTINUOUS
 62
     3
 10
33.928855342200222
 20
-40.063593024000063
 30
0.0
 40
78.750000037800049
 50
5.152628194893218
 51
9.1478425197953683
  0
ARC
  8
OUTLINE
  6
CONTINUOUS
 62
     3
 10
33.928855342200222
 20
-40.063593024000063
 30
0.0
 40
78.750000037799992
 50
350.8521574802046
 51
354.84737180510677
  0
ARC
  8
OUTLINE
  6
CONTINUOUS
 62
     3
 10
-475.11753563225187
 20
-40.063593023999722
 30
0.0
 40
587.5207318107914
 50
359.31026682781248
 51
0.689733172187429
  0
ARC
  8
OUTLINE
  6
CONTINUOUS
 62
     3
 10
107.67090625200029
 20
-10.51669316880043
 30
0.0
 40
2.003179651200008
 50
180.0
 51
270.0
  0
LINE
  8
OUTLINE
  6
CONTINUOUS
 62
     3
 10
111.67726555439999
 20
-64.103121482501138
 30
0.0
 11
109.67408590320061
 21
-65.103338663999693
 31
0.0
  0
LINE
  8
OUTLINE
  6
CONTINUOUS
 62
     3
 10
111.67726555439999
 20
-14.52030718309879
 30
0.0
 11
109.676831191302
 21
-12.51987282000027
 31
0.0
  0
CIRCLE
  8
FIX
  6
CONTINUOUS
 62
    11
 10
-70.111287792000439
 20
-98.656597821599917
 30
0.0
 40
5.0
  0
CIRCLE
  8
FIX
  6
CONTINUOUS
 62
    11
 10
-98.656597821600371
 20
-70.111287791999985
 30
0.0
 40
5.0
  0
CIRCLE
  8
FIX
  6
CONTINUOUS
 62
    11
 10
70.11128779199953
 20
-98.656597821599917
 30
0.0
 40
5.0
  0
CIRCLE
  8
FIX
  6
CONTINUOUS
 62
    11
 10
98.656597821599462
 20
-70.111287791999985
 30
0.0
 40
5.0
  0
CIRCLE
  8
FIX
  6
CONTINUOUS
 62
    11
 10
98.656597821599462
 20
70.111287791999985
 30
0.0
 40
5.0
  0
CIRCLE
  8
FIX
  6
CONTINUOUS
 62
    11
 10
70.11128779199953
 20
98.656597821599917
 30
0.0
 40
5.0
  0
CIRCLE
  8
FIX
  6
CONTINUOUS
 62
    11
 10
-70.111287792000439
 20
98.656597821599917
 30
0.0
 40
5.0
  0
CIRCLE
  8
FIX
  6
CONTINUOUS
 62
    11
 10
-98.656597821600371
 20
70.111287791999985
 30
0.0
 40
5.0
  0
LINE
  8
NOTE
  6
CONTINUOUS
 62
     4
 10
-98.656597821600371
 20
54.944360394541953
 30
0.0
 11
-98.656597821600371
 21
85.278215189458933
 31
0.0
  0
LINE
  8
NOTE
  6
CONTINUOUS
 62
     4
 10
-113.82352521905889
 20
70.111287792000439
 30
0.0
 11
-83.489670424141877
 21
70.111287792000439
 31
0.0
  0
LINE
  8
NOTE
  6
CONTINUOUS
 62
     4
 10
-70.111287792000439
 20
83.489670424141423
 30
0.0
 11
-70.111287792000439
 21
113.8235252190584
 31
0.0
  0
LINE
  8
NOTE
  6
CONTINUOUS
 62
     4
 10
-85.278215189458933
 20
98.656597821599917
 30
0.0
 11
-54.944360394541953
 21
98.656597821599917
 31
0.0
  0
LINE
  8
NOTE
  6
CONTINUOUS
 62
     4
 10
70.11128779199953
 20
83.489670424141423
 30
0.0
 11
70.11128779199953
 21
113.8235252190584
 31
0.0
  0
LINE
  8
NOTE
  6
CONTINUOUS
 62
     4
 10
54.944360394541043
 20
98.656597821599917
 30
0.0
 11
85.278215189458024
 21
98.656597821599917
 31
0.0
  0
LINE
  8
NOTE
  6
CONTINUOUS
 62
     4
 10
98.656597821599462
 20
54.944360394541491
 30
0.0
 11
98.656597821599462
 21
85.278215189458479
 31
0.0
  0
LINE
  8
NOTE
  6
CONTINUOUS
 62
     4
 10
83.489670424140968
 20
70.111287791999985
 30
0.0
 11
113.823525219058
 21
70.111287791999985
 31
0.0
  0
LINE
  8
NOTE
  6
CONTINUOUS
 62
     4
 10
98.656597821599462
 20
-85.278215189458479
 30
0.0
 11
98.656597821599462
 21
-54.944360394541491
 31
0.0
  0
LINE
  8
NOTE
  6
CONTINUOUS
 62
     4
 10
83.489670424140968
 20
-70.111287791999985
 30
0.0
 11
113.823525219058
 21
-70.111287791999985
 31
0.0
  0
LINE
  8
NOTE
  6
CONTINUOUS
 62
     4
 10
70.11128779199953
 20
-113.8235252190584
 30
0.0
 11
70.11128779199953
 21
-83.489670424141423
 31
0.0
  0
LINE
  8
NOTE
  6
CONTINUOUS
 62
     4
 10
54.944360394541043
 20
-98.656597821599917
 30
0.0
 11
85.278215189458024
 21
-98.656597821599917
 31
0.0
  0
LINE
  8
SIZE
  6
CONTINUOUS
 62
    30
 10
70.11128779199953
 20
133.82352521905841
 30
0.0
 11
70.11128779199953
 21
265.20000549977522
 31
0.0
  0
LINE
  8
SIZE
  6
CONTINUOUS
 62
    30
 10
-70.111287792000439
 20
133.82352521905841
 30
0.0
 11
-70.111287792000439
 21
265.20000549977522
 31
0.0
  0
LINE
  8
SIZE
  6
CONTINUOUS
 62
    30
 10
82.11128779199953
 20
245.20000549977519
 30
0.0
 11
94.11128779199953
 21
245.20000549977519
 31
0.0
  0
LINE
  8
SIZE
  6
CONTINUOUS
 62
    30
 10
-82.111287792000439
 20
245.20000549977519
 30
0.0
 11
-94.111287792000439
 21
245.20000549977519
 31
0.0
  0
LINE
  8
SIZE
  6
CONTINUOUS
 62
    30
 10
70.11128779199953
 20
245.20000549977519
 30
0.0
 11
-70.111287792000439
 21
245.20000549977519
 31
0.0
  0
CIRCLE
  8
SIZE
  6
CONTINUOUS
 62
    30
 10
70.11128779199953
 20
245.20000549977519
 30
0.0
 40
6.0
  0
LINE
  8
SIZE
  6
CONTINUOUS
 62
    30
 10
70.11128779199953
 20
245.20000549977519
 30
0.0
 11
82.11128779199953
 21
245.20000549977519
 31
0.0
  0
CIRCLE
  8
SIZE
  6
CONTINUOUS
 62
    30
 10
-70.111287792000439
 20
245.20000549977519
 30
0.0
 40
6.0
  0
LINE
  8
SIZE
  6
CONTINUOUS
 62
    30
 10
-70.111287792000439
 20
245.20000549977519
 30
0.0
 11
-82.111287792000439
 21
245.20000549977519
 31
0.0
  0
TEXT
  8
SIZE
  6
CONTINUOUS
 62
    30
 10
-68.571428571429024
 20
270.20000549977522
 30
0.0
 40
64.0
  1
140
 41
0.9
 72
     1
 11
-0.0000000000004547
 21
270.20000549977522
 31
0.0
  0
POINT
  8
DEFPOINTS
  6
CONTINUOUS
 62
    30
 10
70.11128779199953
 20
113.8235252190584
 30
0.0
  0
POINT
  8
DEFPOINTS
  6
CONTINUOUS
 62
    30
 10
-70.111287792000439
 20
113.8235252190584
 30
0.0
  0
POINT
  8
DEFPOINTS
  6
CONTINUOUS
 62
    30
 10
-70.111287792000439
 20
245.20000549977519
 30
0.0
  0
LINE
  8
SIZE
  6
CONTINUOUS
 62
    30
 10
98.656597821599462
 20
105.27821518945851
 30
0.0
 11
98.656597821599462
 21
387.76312285326372
 31
0.0
  0
LINE
  8
SIZE
  6
CONTINUOUS
 62
    30
 10
-98.656597821600371
 20
105.2782151894589
 30
0.0
 11
-98.656597821600371
 21
387.76312285326372
 31
0.0
  0
LINE
  8
SIZE
  6
CONTINUOUS
 62
    30
 10
86.656597821599462
 20
367.76312285326372
 30
0.0
 11
-86.656597821600371
 21
367.76312285326372
 31
0.0
  0
CIRCLE
  8
SIZE
  6
CONTINUOUS
 62
    30
 10
98.656597821599462
 20
367.76312285326372
 30
0.0
 40
6.0
  0
LINE
  8
SIZE
  6
CONTINUOUS
 62
    30
 10
98.656597821599462
 20
367.76312285326372
 30
0.0
 11
86.656597821599462
 21
367.76312285326372
 31
0.0
  0
CIRCLE
  8
SIZE
  6
CONTINUOUS
 62
    30
 10
-98.656597821600371
 20
367.76312285326372
 30
0.0
 40
6.0
  0
LINE
  8
SIZE
  6
CONTINUOUS
 62
    30
 10
-98.656597821600371
 20
367.76312285326372
 30
0.0
 11
-86.656597821600371
 21
367.76312285326372
 31
0.0
  0
TEXT
  8
SIZE
  6
CONTINUOUS
 62
    30
 10
-68.571428571429024
 20
392.76312285326372
 30
0.0
 40
64.0
  1
197
 41
0.9
 72
     1
 11
-0.0000000000004547
 21
392.76312285326372
 31
0.0
  0
POINT
  8
DEFPOINTS
  6
CONTINUOUS
 62
    30
 10
98.656597821599462
 20
85.278215189458479
 30
0.0
  0
POINT
  8
DEFPOINTS
  6
CONTINUOUS
 62
    30
 10
-98.656597821600371
 20
85.278215189458933
 30
0.0
  0
POINT
  8
DEFPOINTS
  6
CONTINUOUS
 62
    30
 10
-98.656597821600371
 20
367.76312285326372
 30
0.0
  0
LINE
  8
SIZE
  6
CONTINUOUS
 62
    30
 10
111.67726555440051
 20
121.6613672983999
 30
0.0
 11
111.67726555440051
 21
505.89380582960803
 31
0.0
  0
LINE
  8
SIZE
  6
CONTINUOUS
 62
    30
 10
-111.67726555439999
 20
121.6613672983999
 30
0.0
 11
-111.67726555439999
 21
505.89380582960803
 31
0.0
  0
LINE
  8
SIZE
  6
CONTINUOUS
 62
    30
 10
99.677265554400492
 20
485.89380582960803
 30
0.0
 11
-99.677265554400037
 21
485.89380582960803
 31
0.0
  0
CIRCLE
  8
SIZE
  6
CONTINUOUS
 62
    30
 10
111.67726555440051
 20
485.89380582960803
 30
0.0
 40
6.0
  0
LINE
  8
SIZE
  6
CONTINUOUS
 62
    30
 10
111.67726555440051
 20
485.89380582960803
 30
0.0
 11
99.677265554400492
 21
485.89380582960803
 31
0.0
  0
CIRCLE
  8
SIZE
  6
CONTINUOUS
 62
    30
 10
-111.67726555439999
 20
485.89380582960803
 30
0.0
 40
6.0
  0
LINE
  8
SIZE
  6
CONTINUOUS
 62
    30
 10
-111.67726555439999
 20
485.89380582960803
 30
0.0
 11
-99.677265554400037
 21
485.89380582960803
 31
0.0
  0
TEXT
  8
SIZE
  6
CONTINUOUS
 62
    30
 10
-74.057142857142836
 20
510.89380582960803
 30
0.0
 40
64.0
  1
223
 41
0.9
 72
     1
 11
0.0
 21
510.89380582960803
 31
0.0
  0
POINT
  8
DEFPOINTS
  6
CONTINUOUS
 62
    30
 10
111.67726555440051
 20
101.6613672983999
 30
0.0
  0
POINT
  8
DEFPOINTS
  6
CONTINUOUS
 62
    30
 10
-111.67726555439999
 20
101.6613672983999
 30
0.0
  0
POINT
  8
DEFPOINTS
  6
CONTINUOUS
 62
    30
 10
-111.67726555439999
 20
485.89380582960803
 30
0.0
  0
LINE
  8
SIZE
  6
CONTINUOUS
 62
    30
 10
105.278215189458
 20
98.656597821599917
 30
0.0
 11
611.5943741080373
 21
98.656597821599689
 31
0.0
  0
LINE
  8
SIZE
  6
CONTINUOUS
 62
    30
 10
105.278215189458
 20
-98.656597821599917
 30
0.0
 11
611.5943741080373
 21
-98.656597821600144
 31
0.0
  0
LINE
  8
SIZE
  6
CONTINUOUS
 62
    30
 10
591.5943741080373
 20
86.656597821599689
 30
0.0
 11
591.5943741080373
 21
-86.65659782160003
 31
0.0
  0
CIRCLE
  8
SIZE
  6
CONTINUOUS
 62
    30
 10
591.5943741080373
 20
98.656597821599689
 30
0.0
 40
6.0
  0
LINE
  8
SIZE
  6
CONTINUOUS
 62
    30
 10
591.5943741080373
 20
98.656597821599689
 30
0.0
 11
591.5943741080373
 21
86.656597821599689
 31
0.0
  0
CIRCLE
  8
SIZE
  6
CONTINUOUS
 62
    30
 10
591.5943741080373
 20
-98.65659782160003
 30
0.0
 40
6.0
  0
LINE
  8
SIZE
  6
CONTINUOUS
 62
    30
 10
591.5943741080373
 20
-98.65659782160003
 30
0.0
 11
591.5943741080373
 21
-86.65659782160003
 31
0.0
  0
TEXT
  8
SIZE
  6
CONTINUOUS
 62
    30
 10
566.5943741080373
 20
-68.571428571428569
 30
0.0
 40
64.0
  1
197
 50
90.0
 41
0.9
 72
     1
 11
566.5943741080373
 21
0.0
 31
0.0
  0
POINT
  8
DEFPOINTS
  6
CONTINUOUS
 62
    30
 10
85.278215189458024
 20
98.656597821599917
 30
0.0
  0
POINT
  8
DEFPOINTS
  6
CONTINUOUS
 62
    30
 10
85.278215189458024
 20
-98.656597821599917
 30
0.0
  0
POINT
  8
DEFPOINTS
  6
CONTINUOUS
 62
    30
 10
591.5943741080373
 20
-98.65659782160003
 30
0.0
  0
LINE
  8
SIZE
  6
CONTINUOUS
 62
    30
 10
133.82352521905801
 20
70.111287791999985
 30
0.0
 11
455.22533084435139
 21
70.111287791999757
 31
0.0
  0
LINE
  8
SIZE
  6
CONTINUOUS
 62
    30
 10
133.82352521905801
 20
-70.111287791999985
 30
0.0
 11
455.22533084435139
 21
-70.111287792000098
 31
0.0
  0
LINE
  8
SIZE
  6
CONTINUOUS
 62
    30
 10
435.22533084435139
 20
-58.111287792000098
 30
0.0
 11
435.22533084435139
 21
58.111287791999757
 31
0.0
  0
LINE
  8
SIZE
  6
CONTINUOUS
 62
    30
 10
435.22533084435139
 20
70.111287791999757
 30
0.0
 11
435.22533084435139
 21
303.85342717646381
 31
0.0
  0
CIRCLE
  8
SIZE
  6
CONTINUOUS
 62
    30
 10
435.22533084435139
 20
-70.111287792000098
 30
0.0
 40
6.0
  0
LINE
  8
SIZE
  6
CONTINUOUS
 62
    30
 10
435.22533084435139
 20
-70.111287792000098
 30
0.0
 11
435.22533084435139
 21
-58.111287792000098
 31
0.0
  0
CIRCLE
  8
SIZE
  6
CONTINUOUS
 62
    30
 10
435.22533084435139
 20
70.111287791999757
 30
0.0
 40
6.0
  0
LINE
  8
SIZE
  6
CONTINUOUS
 62
    30
 10
435.22533084435139
 20
70.111287791999757
 30
0.0
 11
435.22533084435139
 21
58.111287791999757
 31
0.0
  0
TEXT
  8
SIZE
  6
CONTINUOUS
 62
    30
 10
410.22533084435139
 20
141.71057003360681
 30
0.0
 40
64.0
  1
140
 50
90.0
 41
0.9
 72
     1
 11
410.22533084435139
 21
210.2819986050354
 31
0.0
  0
POINT
  8
DEFPOINTS
  6
CONTINUOUS
 62
    30
 10
113.823525219058
 20
70.111287791999985
 30
0.0
  0
POINT
  8
DEFPOINTS
  6
CONTINUOUS
 62
    30
 10
113.823525219058
 20
-70.111287791999985
 30
0.0
  0
POINT
  8
DEFPOINTS
  6
CONTINUOUS
 62
    30
 10
435.22533084435139
 20
-70.111287792000098
 30
0.0
  0
LINE
  8
SIZE
  6
CONTINUOUS
 62
    30
 10
121.66136729840041
 20
111.6772655543998
 30
0.0
 11
766.20646531630791
 21
111.6772655543996
 31
0.0
  0
LINE
  8
SIZE
  6
CONTINUOUS
 62
    30
 10
121.66136729840041
 20
-111.6772655543999
 30
0.0
 11
766.20646531630791
 21
-111.67726555439999
 31
0.0
  0
LINE
  8
SIZE
  6
CONTINUOUS
 62
    30
 10
746.20646531630791
 20
99.677265554399582
 30
0.0
 11
746.20646531630791
 21
-99.677265554400037
 31
0.0
  0
CIRCLE
  8
SIZE
  6
CONTINUOUS
 62
    30
 10
746.20646531630791
 20
111.6772655543996
 30
0.0
 40
6.0
  0
LINE
  8
SIZE
  6
CONTINUOUS
 62
    30
 10
746.20646531630791
 20
111.6772655543996
 30
0.0
 11
746.20646531630791
 21
99.677265554399582
 31
0.0
  0
CIRCLE
  8
SIZE
  6
CONTINUOUS
 62
    30
 10
746.20646531630791
 20
-111.67726555439999
 30
0.0
 40
6.0
  0
LINE
  8
SIZE
  6
CONTINUOUS
 62
    30
 10
746.20646531630791
 20
-111.67726555439999
 30
0.0
 11
746.20646531630791
 21
-99.677265554400037
 31
0.0
  0
TEXT
  8
SIZE
  6
CONTINUOUS
 62
    30
 10
721.20646531630791
 20
-74.057142857142836
 30
0.0
 40
64.0
  1
223
 50
90.0
 41
0.9
 72
     1
 11
721.20646531630791
 21
0.0
 31
0.0
  0
POINT
  8
DEFPOINTS
  6
CONTINUOUS
 62
    30
 10
101.66136729840041
 20
111.6772655543998
 30
0.0
  0
POINT
  8
DEFPOINTS
  6
CONTINUOUS
 62
    30
 10
101.66136729840041
 20
-111.6772655543999
 30
0.0
  0
POINT
  8
DEFPOINTS
  6
CONTINUOUS
 62
    30
 10
746.20646531630791
 20
-111.67726555439999
 30
0.0
  0
LINE
  8
SIZE
  6
CONTINUOUS
 62
    30
 10
-95.208381933261535
 20
85.219979836371749
 30
0.0
 11
-399.54607291773942
 21
85.219979836371749
 31
0.0
  0
LINE
  8
SIZE
  6
CONTINUOUS
 62
    30
 10
-99.964887172759518
 20
-85.215210359571756
 30
0.0
 11
-399.54607291773942
 21
-85.215210359571643
 31
0.0
  0
LINE
  8
SIZE
  6
CONTINUOUS
 62
    30
 10
-379.54607291773942
 20
73.219979836371749
 30
0.0
 11
-379.54607291773942
 21
-73.215210359571643
 31
0.0
  0
CIRCLE
  8
SIZE
  6
CONTINUOUS
 62
    30
 10
-379.54607291773942
 20
85.219979836371749
 30
0.0
 40
6.0
  0
LINE
  8
SIZE
  6
CONTINUOUS
 62
    30
 10
-379.54607291773942
 20
85.219979836371749
 30
0.0
 11
-379.54607291773942
 21
73.219979836371749
 31
0.0
  0
CIRCLE
  8
SIZE
  6
CONTINUOUS
 62
    30
 10
-379.54607291773942
 20
-85.215210359571643
 30
0.0
 40
6.0
  0
LINE
  8
SIZE
  6
CONTINUOUS
 62
    30
 10
-379.54607291773942
 20
-85.215210359571643
 30
0.0
 11
-379.54607291773942
 21
-73.215210359571643
 31
0.0
  0
TEXT
  8
SIZE
  6
CONTINUOUS
 62
    30
 10
-404.54607291773942
 20
-105.04904383302861
 30
0.0
 40
64.0
  1
□170
 50
90.0
 41
0.9
 72
     1
 11
-404.54607291773942
 21
0.0023847383999964
 31
0.0
  0
POINT
  8
DEFPOINTS
  6
CONTINUOUS
 62
    30
 10
-75.208381933261535
 20
85.219979836371749
 30
0.0
  0
POINT
  8
DEFPOINTS
  6
CONTINUOUS
 62
    30
 10
-79.964887172759518
 20
-85.215210359571756
 30
0.0
  0
POINT
  8
DEFPOINTS
  6
CONTINUOUS
 62
    30
 10
-379.54607291773942
 20
-85.215210359571643
 30
0.0
  0
LINE
  8
SIZE
  6
CONTINUOUS
 62
    30
 10
311.78662622150301
 20
220.87263094174159
 30
0.0
 11
47.47318625713433
 21
9.1656724038209632
 31
0.0
  0
LINE
  8
SIZE
  6
CONTINUOUS
 62
    30
 10
-20.430260965934391
 20
-45.222906125420877
 30
0.0
 11
-29.796256396787609
 21
-52.724781196977119
 31
0.0
  0
TEXT
  8
SIZE
  6
CONTINUOUS
 62
    30
 10
152.05073012419109
 20
124.9598426431354
 30
0.0
 40
64.0
  1
φ63
 50
38.693657144633463
 41
0.9
 72
     1
 11
219.91405701745859
 21
179.31628601875471
 31
0.0
  0
LINE
  8
SIZE
  6
CONTINUOUS
 62
    30
 10
-11.06426553508118
 20
-37.721031053864643
 30
0.0
 11
38.107190826281112
 21
1.663797332264721
 31
0.0
  0
CIRCLE
  8
SIZE
  6
CONTINUOUS
 62
    30
 10
-11.06426553508118
 20
-37.721031053864643
 30
0.0
 40
6.0
  0
LINE
  8
SIZE
  6
CONTINUOUS
 62
    30
 10
-11.06426553508118
 20
-37.721031053864643
 30
0.0
 11
-20.430260965934391
 21
-45.222906125420877
 31
0.0
  0
CIRCLE
  8
SIZE
  6
CONTINUOUS
 62
    30
 10
38.107190826281112
 20
1.663797332264721
 30
0.0
 40
6.0
  0
LINE
  8
SIZE
  6
CONTINUOUS
 62
    30
 10
38.107190826281112
 20
1.663797332264721
 30
0.0
 11
47.47318625713433
 21
9.1656724038209632
 31
0.0
  0
POINT
  8
DEFPOINTS
  6
CONTINUOUS
 62
    30
 10
38.107190826281112
 20
1.663797332264721
 30
0.0
  0
POINT
  8
DEFPOINTS
  6
CONTINUOUS
 62
    30
 10
-11.06426553508118
 20
-37.721031053864643
 30
0.0
  0
LINE
  8
SIZE
  6
CONTINUOUS
 62
    30
 10
-78.458881273060797
 20
-85.215210359571756
 30
0.0
 11
-399.54607291773942
 21
-85.215210359571643
 31
0.0
  0
LINE
  8
SIZE
  6
CONTINUOUS
 62
    30
 10
-69.067758928046715
 20
-185.59267343227381
 30
0.0
 11
-399.54607291773942
 21
-185.59267343227361
 31
0.0
  0
LINE
  8
SIZE
  6
CONTINUOUS
 62
    30
 10
-379.54607291773942
 20
-97.215210359571643
 30
0.0
 11
-379.54607291773942
 21
-173.59267343227361
 31
0.0
  0
LINE
  8
SIZE
  6
CONTINUOUS
 62
    30
 10
-379.54607291773942
 20
-185.59267343227361
 30
0.0
 11
-379.54607291773942
 21
-384.73553057513078
 31
0.0
  0
CIRCLE
  8
SIZE
  6
CONTINUOUS
 62
    30
 10
-379.54607291773942
 20
-85.215210359571643
 30
0.0
 40
6.0
  0
LINE
  8
SIZE
  6
CONTINUOUS
 62
    30
 10
-379.54607291773942
 20
-85.215210359571643
 30
0.0
 11
-379.54607291773942
 21
-97.215210359571643
 31
0.0
  0
CIRCLE
  8
SIZE
  6
CONTINUOUS
 62
    30
 10
-379.54607291773942
 20
-185.59267343227361
 30
0.0
 40
6.0
  0
LINE
  8
SIZE
  6
CONTINUOUS
 62
    30
 10
-379.54607291773942
 20
-185.59267343227361
 30
0.0
 11
-379.54607291773942
 21
-173.59267343227361
 31
0.0
  0
TEXT
  8
SIZE
  6
CONTINUOUS
 62
    30
 10
-404.54607291773942
 20
-359.73553057513101
 30
0.0
 40
64.0
  1
100
 50
90.0
 41
0.9
 72
     1
 11
-404.54607291773942
 21
-291.1641020037024
 31
0.0
  0
POINT
  8
DEFPOINTS
  6
CONTINUOUS
 62
    30
 10
-58.458881273060797
 20
-85.215210359571756
 30
0.0
  0
POINT
  8
DEFPOINTS
  6
CONTINUOUS
 62
    30
 10
-49.067758928046707
 20
-185.59267343227381
 30
0.0
  0
POINT
  8
DEFPOINTS
  6
CONTINUOUS
 62
    30
 10
-379.54607291773942
 20
-185.59267343227361
 30
0.0
  0
LINE
  8
SIZE
  6
CONTINUOUS
 62
    30
 10
-61.088066291335053
 20
-125.49719798049939
 30
0.0
 11
-278.42084726369831
 21
-125.49719798049939
 31
0.0
  0
LINE
  8
SIZE
  6
CONTINUOUS
 62
    30
 10
-69.077901454400489
 20
-185.49443570112041
 30
0.0
 11
-278.42084726369831
 21
-185.49443570112041
 31
0.0
  0
LINE
  8
SIZE
  6
CONTINUOUS
 62
    30
 10
-258.42084726369831
 20
-113.49719798049939
 30
0.0
 11
-258.42084726369831
 21
-101.49719798049939
 31
0.0
  0
LINE
  8
SIZE
  6
CONTINUOUS
 62
    30
 10
-258.42084726369831
 20
-197.49443570112041
 30
0.0
 11
-258.42084726369831
 21
-352.75157855826308
 31
0.0
  0
LINE
  8
SIZE
  6
CONTINUOUS
 62
    30
 10
-258.42084726369831
 20
-125.49719798049939
 30
0.0
 11
-258.42084726369831
 21
-185.49443570112041
 31
0.0
  0
CIRCLE
  8
SIZE
  6
CONTINUOUS
 62
    30
 10
-258.42084726369831
 20
-125.49719798049939
 30
0.0
 40
6.0
  0
LINE
  8
SIZE
  6
CONTINUOUS
 62
    30
 10
-258.42084726369831
 20
-125.49719798049939
 30
0.0
 11
-258.42084726369831
 21
-113.49719798049939
 31
0.0
  0
CIRCLE
  8
SIZE
  6
CONTINUOUS
 62
    30
 10
-258.42084726369831
 20
-185.49443570112041
 30
0.0
 40
6.0
  0
LINE
  8
SIZE
  6
CONTINUOUS
 62
    30
 10
-258.42084726369831
 20
-185.49443570112041
 30
0.0
 11
-258.42084726369831
 21
-197.49443570112041
 31
0.0
  0
TEXT
  8
SIZE
  6
CONTINUOUS
 62
    30
 10
-283.42084726369831
 20
-327.75157855826319
 30
0.0
 40
64.0
  1
60
 50
90.0
 41
0.9
 72
     1
 11
-283.42084726369831
 21
-281.12300712969181
 31
0.0
  0
POINT
  8
DEFPOINTS
  6
CONTINUOUS
 62
    30
 10
-41.088066291335053
 20
-125.49719798049939
 30
0.0
  0
POINT
  8
DEFPOINTS
  6
CONTINUOUS
 62
    30
 10
-49.077901454400489
 20
-185.49443570112041
 30
0.0
  0
POINT
  8
DEFPOINTS
  6
CONTINUOUS
 62
    30
 10
-258.42084726369831
 20
-185.49443570112041
 30
0.0
  0
LINE
  8
SIZE
  6
CONTINUOUS
 62
    30
 10
-69.329981187681369
 20
-155.54497866427349
 30
0.0
 11
-155.46838974233111
 21
-155.54497866427349
 31
0.0
  0
LINE
  8
SIZE
  6
CONTINUOUS
 62
    30
 10
-54.224570193385723
 20
-185.49443570112041
 30
0.0
 11
-155.46838974233111
 21
-185.49443570112041
 31
0.0
  0
LINE
  8
SIZE
  6
CONTINUOUS
 62
    30
 10
-135.46838974233111
 20
-143.54497866427349
 30
0.0
 11
-135.46838974233111
 21
-131.54497866427349
 31
0.0
  0
LINE
  8
SIZE
  6
CONTINUOUS
 62
    30
 10
-135.46838974233111
 20
-197.49443570112041
 30
0.0
 11
-135.46838974233111
 21
-352.75157855826308
 31
0.0
  0
LINE
  8
SIZE
  6
CONTINUOUS
 62
    30
 10
-135.46838974233111
 20
-155.54497866427349
 30
0.0
 11
-135.46838974233111
 21
-185.49443570112041
 31
0.0
  0
CIRCLE
  8
SIZE
  6
CONTINUOUS
 62
    30
 10
-135.46838974233111
 20
-155.54497866427349
 30
0.0
 40
6.0
  0
LINE
  8
SIZE
  6
CONTINUOUS
 62
    30
 10
-135.46838974233111
 20
-155.54497866427349
 30
0.0
 11
-135.46838974233111
 21
-143.54497866427349
 31
0.0
  0
CIRCLE
  8
SIZE
  6
CONTINUOUS
 62
    30
 10
-135.46838974233111
 20
-185.49443570112041
 30
0.0
 40
6.0
  0
LINE
  8
SIZE
  6
CONTINUOUS
 62
    30
 10
-135.46838974233111
 20
-185.49443570112041
 30
0.0
 11
-135.46838974233111
 21
-197.49443570112041
 31
0.0
  0
TEXT
  8
SIZE
  6
CONTINUOUS
 62
    30
 10
-160.46838974233111
 20
-327.75157855826319
 30
0.0
 40
64.0
  1
30
 50
90.0
 41
0.9
 72
     1
 11
-160.46838974233111
 21
-281.12300712969181
 31
0.0
  0
POINT
  8
DEFPOINTS
  6
CONTINUOUS
 62
    30
 10
-49.329981187681369
 20
-155.54497866427349
 30
0.0
  0
POINT
  8
DEFPOINTS
  6
CONTINUOUS
 62
    30
 10
-34.224570193385723
 20
-185.49443570112041
 30
0.0
  0
POINT
  8
DEFPOINTS
  6
CONTINUOUS
 62
    30
 10
-135.46838974233111
 20
-185.49443570112041
 30
0.0
  0
LINE
  8
SIZE
  6
CONTINUOUS
 62
    30
 10
-49.067758928046707
 20
-205.59267343227381
 30
0.0
 11
-49.067758928046707
 21
-377.06992246565011
 31
0.0
  0
LINE
  8
SIZE
  6
CONTINUOUS
 62
    30
 10
49.088043980752452
 20
-205.59267343227381
 30
0.0
 11
49.088043980752452
 21
-377.06992246565011
 31
0.0
  0
LINE
  8
SIZE
  6
CONTINUOUS
 62
    30
 10
-37.067758928046707
 20
-357.06992246565011
 30
0.0
 11
37.088043980752452
 21
-357.06992246565011
 31
0.0
  0
LINE
  8
SIZE
  6
CONTINUOUS
 62
    30
 10
49.088043980752452
 20
-357.06992246565011
 30
0.0
 11
269.21002170428528
 21
-357.06992246565011
 31
0.0
  0
CIRCLE
  8
SIZE
  6
CONTINUOUS
 62
    30
 10
-49.067758928046707
 20
-357.06992246565011
 30
0.0
 40
6.0
  0
LINE
  8
SIZE
  6
CONTINUOUS
 62
    30
 10
-49.067758928046707
 20
-357.06992246565011
 30
0.0
 11
-37.067758928046707
 21
-357.06992246565011
 31
0.0
  0
CIRCLE
  8
SIZE
  6
CONTINUOUS
 62
    30
 10
49.088043980752452
 20
-357.06992246565011
 30
0.0
 40
6.0
  0
LINE
  8
SIZE
  6
CONTINUOUS
 62
    30
 10
49.088043980752452
 20
-357.06992246565011
 30
0.0
 11
37.088043980752452
 21
-357.06992246565011
 31
0.0
  0
TEXT
  8
SIZE
  6
CONTINUOUS
 62
    30
 10
80.461450275713659
 20
-321.40325579898342
 30
0.0
 40
64.0
  1
φ98
 41
0.9
 72
     1
 11
167.4100217042851
 21
-321.40325579898342
 31
0.0
  0
POINT
  8
DEFPOINTS
  6
CONTINUOUS
 62
    30
 10
-49.067758928046707
 20
-185.59267343227381
 30
0.0
  0
POINT
  8
DEFPOINTS
  6
CONTINUOUS
 62
    30
 10
49.088043980752452
 20
-185.59267343227381
 30
0.0
  0
POINT
  8
DEFPOINTS
  6
CONTINUOUS
 62
    30
 10
49.088043980752452
 20
-357.06992246565011
 30
0.0
  0
LINE
  8
SIZE
  6
CONTINUOUS
 62
    30
 10
-52.833804495347977
 20
-168.5979577816706
 30
0.0
 11
-52.833804495347977
 21
-535.15559531735289
 31
0.0
  0
LINE
  8
SIZE
  6
CONTINUOUS
 62
    30
 10
52.357010389285279
 20
-169.5835152693204
 30
0.0
 11
52.357010389285279
 21
-535.15559531735289
 31
0.0
  0
LINE
  8
SIZE
  6
CONTINUOUS
 62
    30
 10
-40.833804495347977
 20
-515.15559531735289
 30
0.0
 11
40.357010389285279
 21
-515.15559531735289
 31
0.0
  0
LINE
  8
SIZE
  6
CONTINUOUS
 62
    30
 10
52.357010389285279
 20
-515.15559531735289
 30
0.0
 11
311.84272467499977
 21
-515.15559531735289
 31
0.0
  0
CIRCLE
  8
SIZE
  6
CONTINUOUS
 62
    30
 10
-52.833804495347977
 20
-515.15559531735289
 30
0.0
 40
6.0
  0
LINE
  8
SIZE
  6
CONTINUOUS
 62
    30
 10
-52.833804495347977
 20
-515.15559531735289
 30
0.0
 11
-40.833804495347977
 21
-515.15559531735289
 31
0.0
  0
CIRCLE
  8
SIZE
  6
CONTINUOUS
 62
    30
 10
52.357010389285279
 20
-515.15559531735289
 30
0.0
 40
6.0
  0
LINE
  8
SIZE
  6
CONTINUOUS
 62
    30
 10
52.357010389285279
 20
-515.15559531735289
 30
0.0
 11
40.357010389285279
 21
-515.15559531735289
 31
0.0
  0
TEXT
  8
SIZE
  6
CONTINUOUS
 62
    30
 10
79.208438960713949
 20
-479.48892865068638
 30
0.0
 40
64.0
  1
φ105
 41
0.9
 72
     1
 11
188.0998675321425
 21
-479.48892865068638
 31
0.0
  0
POINT
  8
DEFPOINTS
  6
CONTINUOUS
 62
    30
 10
-52.833804495347977
 20
-148.5979577816706
 30
0.0
  0
POINT
  8
DEFPOINTS
  6
CONTINUOUS
 62
    30
 10
52.357010389285279
 20
-149.5835152693204
 30
0.0
  0
POINT
  8
DEFPOINTS
  6
CONTINUOUS
 62
    30
 10
52.357010389285279
 20
-515.15559531735289
 30
0.0
  0
TEXT
  8
NOTE
  6
CONTINUOUS
 62
     4
 10
-267.41395778928779
 20
152.35520886647049
 30
0.0
 40
64.0
  1
EL
 41
0.9
 72
     2
 11
-182.38538636071641
 21
152.35520886647049
 31
0.0
  0
TEXT
  8
NOTE
  6
CONTINUOUS
 62
     4
 10
613.70580149869875
 20
-262.3338020932606
 30
0.0
 40
64.0
  1
5-φ5
 41
0.9
  0
TEXT
  8
NOTE
  6
CONTINUOUS
 62
     4
 10
608.43493316258173
 20
-427.44550798982618
 30
0.0
 40
64.0
  1
4-φ5
 41
0.9
  0
LINE
  8
NOTE
  6
CONTINUOUS
 62
     4
 10
74.114759083576701
 20
-103.4060100912936
 30
0.0
 11
70.11128779199953
 21
-98.656597821599917
 31
0.0
  0
LINE
  8
NOTE
  6
CONTINUOUS
 62
     4
 10
70.11128779199953
 20
-98.656597821599917
 30
0.0
 11
75.953104950392117
 21
-100.76796505112431
 31
0.0
  0
LINE
  8
NOTE
  6
CONTINUOUS
 62
     4
 10
70.11128779199953
 20
-98.656597821599917
 30
0.0
 11
79.956576241969287
 21
-105.517377320818
 31
0.0
  0
LINE
  8
NOTE
  6
CONTINUOUS
 62
     4
 10
79.956576241969287
 20
-105.517377320818
 30
0.0
 11
589.73348823557262
 21
-460.76009110754723
 31
0.0
  0
LINE
  8
NOTE
  6
CONTINUOUS
 62
     4
 10
589.73348823557262
 20
-460.76009110754723
 30
0.0
 11
851.64777394985822
 21
-460.76009110754723
 31
0.0
  0
LINE
  8
NOTE
  6
CONTINUOUS
 62
     4
 10
103.45402331964399
 20
-74.057096692683331
 30
0.0
 11
98.656597821599462
 21
-70.111287791999985
 31
0.0
  0
LINE
  8
NOTE
  6
CONTINUOUS
 62
     4
 10
98.656597821599462
 20
-70.111287791999985
 30
0.0
 11
104.7841961607628
 21
-71.129736555503428
 31
0.0
  0
LINE
  8
NOTE
  6
CONTINUOUS
 62
     4
 10
98.656597821599462
 20
-70.111287791999985
 30
0.0
 11
109.58162165880729
 21
-75.075545456186774
 31
0.0
  0
LINE
  8
NOTE
  6
CONTINUOUS
 62
     4
 10
109.58162165880729
 20
-75.075545456186774
 30
0.0
 11
595.00435657168964
 21
-295.64838521098159
 31
0.0
  0
LINE
  8
NOTE
  6
CONTINUOUS
 62
     4
 10
595.00435657168964
 20
-295.64838521098159
 30
0.0
 11
856.91864228597524
 21
-295.64838521098159
 31
0.0
  0
LINE
  8
DETAIL
  6
CONTINUOUS
 62
     5
 10
-68.080481415342547
 20
139.61771961014571
 30
0.0
 11
-68.080481415342547
 21
25.039745640000088
 31
0.0
  0
LINE
  8
DETAIL
  6
CONTINUOUS
 62
     5
 10
-61.67030653150141
 20
137.3853793436833
 30
0.0
 11
-61.67030653150141
 21
25.039745640000088
 31
0.0
  0
LINE
  8
NOTE
  6
CONTINUOUS
 62
     4
 10
-67.99442852563061
 20
31.414702705633999
 30
0.0
 11
-64.875393973421978
 21
26.04289456012793
 31
0.0
  0
LINE
  8
NOTE
  6
CONTINUOUS
 62
     4
 10
-64.875393973421978
 20
26.04289456012793
 30
0.0
 11
-70.262465864045225
 21
29.135491484277281
 31
0.0
  0
LINE
  8
NOTE
  6
CONTINUOUS
 62
     4
 10
-64.875393973421978
 20
26.04289456012793
 30
0.0
 11
-73.381500416253857
 21
34.507299629783347
 31
0.0
  0
LINE
  8
NOTE
  6
CONTINUOUS
 62
     4
 10
-73.381500416254312
 20
34.507299629783567
 30
0.0
 11
-154.93676556124549
 21
115.6627383007954
 31
0.0
  0
LINE
  8
NOTE
  6
CONTINUOUS
 62
     4
 10
-154.93676556124549
 20
115.6627383007954
 30
0.0
 11
-276.96533698981688
 21
115.6627383007954
 31
0.0
  0
ARC
  8
DETAIL
  6
CONTINUOUS
 62
     5
 10
-64.875393973421978
 20
26.04289456012793
 30
0.0
 40
3.358406358127433
 50
197.37941264698489
 51
342.6205873530152
  0
LINE
  8
DETAIL
  6
CONTINUOUS
 62
     5
 10
-61.67030653150141
 20
77.234621695091846
 30
0.0
 11
73.706149128928701
 21
77.234621695091846
 31
0.0
  0
LINE
  8
DETAIL
  6
CONTINUOUS
 62
     5
 10
-68.080481415342547
 20
77.234621695091846
 30
0.0
 11
-73.706149128928701
 21
77.234621695091846
 31
0.0
  0
LINE
  8
DETAIL
  6
CONTINUOUS
 62
     5
 10
-61.67030653150141
 20
83.988991550521405
 30
0.0
 11
0.0
 21
83.988991550521405
 31
0.0
  0
LINE
  8
DETAIL
  6
CONTINUOUS
 62
     5
 10
-61.67030653150141
 20
85.219979836371749
 30
0.0
 11
0.0
 21
85.219979836371749
 31
0.0
  0
LINE
  8
NOTE
  6
CONTINUOUS
 62
     4
 10
-64.875393973421978
 20
10.87596716266944
 30
0.0
 11
-64.875393973421978
 21
41.209821957586428
 31
0.0
  0
LINE
  8
NOTE
  6
CONTINUOUS
 62
     4
 10
-80.042321370880472
 20
26.04289456012793
 30
0.0
 11
-49.708466575963477
 21
26.04289456012793
 31
0.0
  0
ENDSEC
  0
EOF
