  0
SECTION
  2
HEADER
  9
$ACADVER
  1
AC1009
  9
$DWGCODEPAGE
  3
dos932
  9
$INSBASE
 10
0.0
 20
0.0
 30
0.0
  9
$EXTMIN
 10
-613.61387502822981
 20
-527.43529112478245
 30
-0.0015258207003583
  9
$EXTMAX
 10
1196.411144577909
 20
800.12513033594587
 30
0.0000000349246037
  9
$LIMMIN
 10
-2970.0
 20
-2100.0
  9
$LIMMAX
 10
2970.0
 20
2100.0
  9
$ORTHOMODE
 70
     1
  9
$REGENMODE
 70
     1
  9
$FILLMODE
 70
     1
  9
$QTEXTMODE
 70
     0
  9
$MIRRTEXT
 70
     0
  9
$LTSCALE
 40
20.0
  9
$ATTMODE
 70
     1
  9
$TEXTSIZE
 40
64.0
  9
$TRACEWID
 40
0.05
  9
$TEXTSTYLE
  7
STANDARD
  9
$CLAYER
  8
SIZE
  9
$CELTYPE
  6
CONTINUOUS
  9
$CECOLOR
 62
     7
  9
$DIMSCALE
 40
1.0
  9
$DIMASZ
 40
12.0
  9
$DIMEXO
 40
20.0
  9
$DIMDLI
 40
200.0
  9
$DIMRND
 40
0.0
  9
$DIMDLE
 40
0.0
  9
$DIMEXE
 40
20.0
  9
$DIMTP
 40
0.0
  9
$DIMTM
 40
0.0
  9
$DIMTXT
 40
64.0
  9
$DIMCEN
 40
0.09
  9
$DIMTSZ
 40
0.0
  9
$DIMTOL
 70
     0
  9
$DIMLIM
 70
     0
  9
$DIMTIH
 70
     0
  9
$DIMTOH
 70
     0
  9
$DIMSE1
 70
     0
  9
$DIMSE2
 70
     0
  9
$DIMTAD
 70
     1
  9
$DIMZIN
 70
     8
  9
$DIMBLK
  1

  9
$DIMASO
 70
     1
  9
$DIMSHO
 70
     0
  9
$DIMPOST
  1

  9
$DIMAPOST
  1

  9
$DIMALT
 70
     0
  9
$DIMALTD
 70
     2
  9
$DIMALTF
 40
25.399999999999999
  9
$DIMLFAC
 40
1.0
  9
$DIMTOFL
 70
     1
  9
$DIMTVP
 40
0.0
  9
$DIMTIX
 70
     1
  9
$DIMSOXD
 70
     0
  9
$DIMSAH
 70
     0
  9
$DIMBLK1
  1

  9
$DIMBLK2
  1

  9
$DIMSTYLE
  2
STANDARD
  9
$DIMCLRD
 70
     7
  9
$DIMCLRE
 70
     7
  9
$DIMCLRT
 70
     7
  9
$DIMTFAC
 40
1.0
  9
$DIMGAP
 40
25.0
  9
$LUNITS
 70
     2
  9
$LUPREC
 70
     4
  9
$SKETCHINC
 40
0.1
  9
$FILLETRAD
 40
3.0
  9
$AUNITS
 70
     1
  9
$AUPREC
 70
     3
  9
$MENU
  1
ACAD
  9
$ELEVATION
 40
0.0
  9
$PELEVATION
 40
0.0
  9
$THICKNESS
 40
0.0
  9
$LIMCHECK
 70
     0
  9
$CHAMFERA
 40
0.0
  9
$CHAMFERB
 40
0.0
  9
$SKPOLY
 70
     0
  9
$TDCREATE
 40
2453019.62301037
  9
$TDUPDATE
 40
2459025.490530799
  9
$TDINDWG
 40
1.7132914468
  9
$TDUSRTIMER
 40
1.7132914468
  9
$USRTIMER
 70
     1
  9
$ANGBASE
 50
0.0
  9
$ANGDIR
 70
     0
  9
$PDMODE
 70
     3
  9
$PDSIZE
 40
-2.0
  9
$PLINEWID
 40
0.0
  9
$SPLFRAME
 70
     0
  9
$SPLINETYPE
 70
     6
  9
$SPLINESEGS
 70
     8
  9
$SURFTAB1
 70
     6
  9
$SURFTAB2
 70
     6
  9
$SURFTYPE
 70
     6
  9
$SURFU
 70
     6
  9
$SURFV
 70
     6
  9
$UCSNAME
  2

  9
$UCSORG
 10
0.0
 20
0.0
 30
0.0
  9
$UCSXDIR
 10
1.0
 20
0.0
 30
0.0
  9
$UCSYDIR
 10
0.0
 20
1.0
 30
0.0
  9
$PUCSNAME
  2

  9
$PUCSORG
 10
0.0
 20
0.0
 30
0.0
  9
$PUCSXDIR
 10
1.0
 20
0.0
 30
0.0
  9
$PUCSYDIR
 10
0.0
 20
1.0
 30
0.0
  9
$USERI1
 70
     0
  9
$USERI2
 70
     0
  9
$USERI3
 70
     0
  9
$USERI4
 70
     0
  9
$USERI5
 70
     0
  9
$USERR1
 40
20.0
  9
$USERR2
 40
0.0
  9
$USERR3
 40
0.0
  9
$USERR4
 40
0.0
  9
$USERR5
 40
0.0
  9
$WORLDVIEW
 70
     1
  9
$SHADEDGE
 70
     3
  9
$SHADEDIF
 70
    70
  9
$TILEMODE
 70
     1
  9
$MAXACTVP
 70
    48
  9
$PINSBASE
 10
0.0
 20
0.0
 30
0.0
  9
$PLIMCHECK
 70
     0
  9
$PEXTMIN
 10
-100000000000000000000.0
 20
-100000000000000000000.0
 30
-100000000000000000000.0
  9
$PEXTMAX
 10
100000000000000000000.0
 20
100000000000000000000.0
 30
100000000000000000000.0
  9
$PLIMMIN
 10
0.0
 20
0.0
  9
$PLIMMAX
 10
12.0
 20
9.0
  9
$UNITMODE
 70
     0
  9
$VISRETAIN
 70
     0
  9
$PLINEGEN
 70
     0
  9
$PSLTSCALE
 70
     0
  9
$TREEDEPTH
 70
  3020
  9
$ATTDIA
 70
     0
  9
$ATTREQ
 70
     1
  9
$BLIPMODE
 70
     1
  9
$COORDS
 70
     1
  9
$DRAGMODE
 70
     2
  9
$OSMODE
 70
     0
  9
$HANDLING
 70
     0
  9
$HANDSEED
  5
FB3E
  0
ENDSEC
  0
SECTION
  2
TABLES
  0
TABLE
  2
LTYPE
 70
     2
  0
LTYPE
  2
CONTINUOUS
 70
     0
  3
実線
 72
    65
 73
     0
 40
0.0
  0
LTYPE
  2
DASHDOT
 70
     0
  3
____ _ ____ _ ____ _ ____ _ ____ _ ____ _ ____
 72
    65
 73
     4
 40
5.5
 49
4.0
 49
-0.6
 49
0.3
 49
-0.6
  0
ENDTAB
  0
TABLE
  2
LAYER
 70
    12
  0
LAYER
  2
0
 70
     0
 62
     7
  6
CONTINUOUS
  0
LAYER
  2
BASIS
 70
     0
 62
     6
  6
DASHDOT
  0
LAYER
  2
OUTLINE
 70
     0
 62
     3
  6
CONTINUOUS
  0
LAYER
  2
DETAIL
 70
     0
 62
     5
  6
CONTINUOUS
  0
LAYER
  2
SIZE
 70
     0
 62
    30
  6
CONTINUOUS
  0
LAYER
  2
ARRANGE
 70
     0
 62
     1
  6
CONTINUOUS
  0
LAYER
  2
DEFPOINTS
 70
     0
 62
     7
  6
CONTINUOUS
  0
LAYER
  2
ETC
 70
     0
 62
    61
  6
CONTINUOUS
  0
LAYER
  2
FIX
 70
     0
 62
    11
  6
CONTINUOUS
  0
LAYER
  2
NOTE
 70
     0
 62
     4
  6
CONTINUOUS
  0
LAYER
  2
SERVICESPACE
 70
    64
 62
     2
  6
DASHDOT
  0
LAYER
  2
SYMBOLLINE
 70
    64
 62
    15
  6
CONTINUOUS
  0
ENDTAB
  0
TABLE
  2
STYLE
 70
     1
  0
STYLE
  2
STANDARD
 70
     0
 40
64.0
 41
0.9
 50
0.0
 71
     0
 42
64.0
  3
SIMPLEX.shx
  4
BIGFONT.shx
  0
ENDTAB
  0
TABLE
  2
APPID
 70
    19
  0
APPID
  2
ACAD
 70
     0
  0
APPID
  2
AUTOCAD_POSTSCRIPT_FIGURE
 70
     0
  0
APPID
  2
ACAD_EXEMPT_FROM_CAD_STANDARDS
 70
     0
  0
APPID
  2
ACAD_PSEXT
 70
     0
  0
APPID
  2
ACAUTHENVIRON
 70
     0
  0
APPID
  2
GENIUS_GENOENT_13
 70
     0
  0
APPID
  2
GENIUS_GENCFG_13
 70
     0
  0
APPID
  2
GENIUS_GENCFG0_13
 70
     0
  0
APPID
  2
GENIUS_GENCFG1_13
 70
     0
  0
APPID
  2
GENIUS_GENCFG2_13
 70
     0
  0
APPID
  2
GENIUS_GENCFG3_13
 70
     0
  0
APPID
  2
GENIUS_GENCFG4_13
 70
     0
  0
APPID
  2
GENIUS_GEVCFG0_13
 70
     0
  0
APPID
  2
CONTENTBLOCKICON
 70
     0
  0
APPID
  2
CONTENTBLOCKDESCRIPTION
 70
     0
  0
APPID
  2
ACAD_NAV_VCDISPLAY
 70
     0
  0
APPID
  2
ACAD_MLEADERVER
 70
     0
  0
APPID
  2
ACDBDYNAMICBLOCKTRUENAME
 70
     0
  0
APPID
  2
ACDBDYNAMICBLOCKGUID
 70
     0
  0
ENDTAB
  0
TABLE
  2
DIMSTYLE
 70
     1
  0
DIMSTYLE
  2
STANDARD
 70
     0
  3

  4

  5
_ORIGIN
  6

  7

 40
1.0
 41
12.0
 42
20.0
 43
200.0
 44
20.0
 45
0.0
 46
0.0
 47
0.0
 48
0.0
140
64.0
141
0.09
142
0.0
143
25.399999999999999
144
1.0
145
0.0
146
1.0
147
25.0
 71
     0
 72
     0
 73
     0
 74
     0
 75
     0
 76
     0
 77
     1
 78
     8
170
     0
171
     2
172
     1
173
     0
174
     1
175
     0
176
     7
177
     7
178
     7
  0
ENDTAB
  0
TABLE
  2
VIEW
 70
     1
  0
VIEW
  2
ALL
 70
     0
 40
4282.6198079999986
 10
0.0
 20
41.309904000000003
 41
5940.0
 11
0.0
 21
0.0
 31
1.0
 12
0.0
 22
0.0
 32
0.0
 42
50.0
 43
0.0
 44
0.0
 50
0.0
 71
     0
  0
ENDTAB
  0
TABLE
  2
UCS
 70
     0
  0
ENDTAB
  0
TABLE
  2
VPORT
 70
     1
  0
VPORT
  2
*ACTIVE
 70
     0
 10
0.0
 20
0.0
 11
1.0
 21
1.0
 12
291.39863477483959
 22
136.34491960558171
 13
0.0
 23
0.0
 14
1.0
 24
1.0
 15
0.0
 25
0.0
 16
0.0
 26
0.0
 36
1.0
 17
0.0
 27
0.0
 37
0.0
 40
1336.361927017374
 41
1.747787610619469
 42
50.0
 43
0.0
 44
0.0
 50
0.0
 51
0.0
 71
     0
 72
  1000
 73
     1
 74
     3
 75
     0
 76
     0
 77
     0
 78
     0
  0
ENDTAB
  0
ENDSEC
  0
SECTION
  2
BLOCKS
  0
BLOCK
  8
0
  2
_ORIGIN
 70
     0
 10
0.0
 20
0.0
 30
0.0
  3
_ORIGIN
  1
_ORIGIN
  0
CIRCLE
  8
0
  6
CONTINUOUS
 62
     7
 10
0.0
 20
0.0
 30
0.0
 40
0.5
  0
LINE
  8
0
  6
CONTINUOUS
 62
     7
 10
0.0
 20
0.0
 30
0.0
 11
-1.0
 21
0.0
 31
0.0
  0
ENDBLK
  8
0
  0
ENDSEC
  0
SECTION
  2
ENTITIES
  0
TEXT
  8
ETC
  6
CONTINUOUS
 62
    61
 10
425.66123078556939
 20
735.85205439126003
 30
0.0
 40
64.0
  1
VD-10ZUC3-IN_4
 41
0.9
  0
TEXT
  8
ETC
  6
CONTINUOUS
 62
    61
 10
421.475236785569
 20
617.89674437642907
 30
0.0
 40
64.0
  1
換気扇
 41
0.9
  0
CIRCLE
  8
ARRANGE
  6
CONTINUOUS
 62
     1
 10
0.0
 20
0.0
 30
0.0
 40
40.0
  0
POINT
  8
ARRANGE
  6
CONTINUOUS
 62
     1
 10
0.0
 20
0.0
 30
0.0
 50
180.0
  0
LINE
  8
BASIS
  6
DASHDOT
 62
     6
 10
0.0
 20
-73.370992037270298
 30
0.0
 11
0.0
 21
213.56773815814631
 31
0.0
  0
LINE
  8
BASIS
  6
DASHDOT
 62
     6
 10
-125.4561247050906
 20
0.0
 30
0.0
 11
125.4561247050906
 21
0.0
 31
0.0
  0
TEXT
  8
ETC
  6
CONTINUOUS
 62
    61
 10
472.17663503412501
 20
509.74797149020378
 30
0.0
 40
40.0
  1
VD-10ZUC3-IN
 41
0.9
  0
LINE
  8
DETAIL
  6
CONTINUOUS
 62
     5
 10
111.67726555439999
 20
0.0
 30
0.0
 11
0.0
 21
0.0
 31
0.0
  0
ARC
  8
DETAIL
  6
CONTINUOUS
 62
     5
 10
109.67408590320019
 20
-5.007949127961183
 30
0.0
 40
2.003179651200008
 50
270.0
 51
0.0
  0
LINE
  8
DETAIL
  6
CONTINUOUS
 62
     5
 10
109.67408590320019
 20
-7.0111287791623909
 30
0.0
 11
0.0
 21
-7.0111287791623909
 31
0.0
  0
LINE
  8
DETAIL
  6
CONTINUOUS
 62
     5
 10
111.67726555439999
 20
0.0000000000381988
 30
0.0
 11
111.67726555439999
 21
-5.007949127961183
 31
0.0
  0
LINE
  8
DETAIL
  6
CONTINUOUS
 62
     5
 10
-111.67726555439999
 20
-0.0000000000009095
 30
0.0
 11
0.0
 21
0.0
 31
0.0
  0
ARC
  8
DETAIL
  6
CONTINUOUS
 62
     5
 10
-109.6740859031997
 20
-5.007949127961183
 30
0.0
 40
2.003179651200008
 50
180.0
 51
270.0
  0
LINE
  8
DETAIL
  6
CONTINUOUS
 62
     5
 10
-109.6740859031997
 20
-7.0111287791623909
 30
0.0
 11
0.0
 21
-7.0111287791623909
 31
0.0
  0
LINE
  8
DETAIL
  6
CONTINUOUS
 62
     5
 10
-111.67726555439999
 20
0.0000000000381988
 30
0.0
 11
-111.67726555439999
 21
-5.007949127961183
 31
0.0
  0
ARC
  8
DETAIL
  6
CONTINUOUS
 62
     5
 10
7.9626020731257086
 20
181.7885533463996
 30
0.0
 40
5.5087440408000221
 50
0.0
 51
90.0
  0
ARC
  8
DETAIL
  6
CONTINUOUS
 62
     5
 10
-44.019909875514259
 20
181.7885533463996
 30
0.0
 40
5.5087440408000221
 50
90.0
 51
180.0
  0
LINE
  8
DETAIL
  6
CONTINUOUS
 62
     5
 10
7.9625323764958011
 20
187.29729738719931
 30
0.0
 11
5.1115505881966783
 21
187.29729738719931
 31
0.0
  0
LINE
  8
DETAIL
  6
CONTINUOUS
 62
     5
 10
-49.528653916313942
 20
181.7885533463996
 30
0.0
 11
-49.528653916313942
 21
154.84578703775881
 31
0.0
  0
LINE
  8
DETAIL
  6
CONTINUOUS
 62
     5
 10
13.471346113925851
 20
181.7885533463996
 30
0.0
 11
13.471346113925851
 21
161.4262840484898
 31
0.0
  0
LINE
  8
DETAIL
  6
CONTINUOUS
 62
     5
 10
-5.2398068423212862
 20
187.29729738719931
 30
0.0
 11
-44.019766098095722
 21
187.29729738719931
 31
0.0
  0
LINE
  8
DETAIL
  6
CONTINUOUS
 62
     5
 10
-74.817157985082304
 20
0.0
 30
0.0
 11
-71.761183237318164
 21
177.58065060300311
 31
0.0
  0
LINE
  8
DETAIL
  6
CONTINUOUS
 62
     5
 10
-85.335453141087328
 20
-0.0000000000009095
 30
0.0
 11
-82.188393803830422
 21
182.79888324844069
 31
0.0
  0
LINE
  8
DETAIL
  6
CONTINUOUS
 62
     5
 10
85.135135176000404
 20
0.0
 30
0.0
 11
84.192432277040552
 21
54.007412911322263
 31
0.0
  0
ARC
  8
DETAIL
  6
CONTINUOUS
 62
     5
 10
-53.785373634720138
 20
179.5327928023257
 30
0.0
 40
1.0015898256000391
 50
0.0
 51
48.397445454381021
  0
ARC
  8
DETAIL
  6
CONTINUOUS
 62
     5
 10
-43.769475378720472
 20
160.75516700879919
 30
0.0
 40
0.5007949128000037
 50
0.0
 51
90.0
  0
ARC
  8
DETAIL
  6
CONTINUOUS
 62
     5
 10
-44.771065204320173
 20
160.75516700879919
 30
0.0
 40
0.5007949128000037
 50
90.0
 51
180.0
  0
ARC
  8
DETAIL
  6
CONTINUOUS
 62
     5
 10
-42.267090640320021
 20
157.2496026191989
 30
0.0
 40
1.001589825600004
 50
180.0
 51
270.0
  0
ARC
  8
DETAIL
  6
CONTINUOUS
 62
     5
 10
32.852146279679801
 20
155.74721788079981
 30
0.0
 40
0.5007949128000037
 50
0.0
 51
90.0
  0
LINE
  8
DETAIL
  6
CONTINUOUS
 62
     5
 10
-54.187251794954143
 20
180.53091362927719
 30
0.0
 11
-82.230686268885961
 21
180.34229932247101
 31
0.0
  0
LINE
  8
DETAIL
  6
CONTINUOUS
 62
     5
 10
-52.783783809120003
 20
178.52280285118971
 30
0.0
 11
-69.522285842087967
 21
178.37672815692531
 31
0.0
  0
LINE
  8
DETAIL
  6
CONTINUOUS
 62
     5
 10
-43.769475378720472
 20
161.25596192159949
 30
0.0
 11
-44.771065204320173
 21
161.25596192159949
 31
0.0
  0
LINE
  8
DETAIL
  6
CONTINUOUS
 62
     5
 10
-42.267090640320021
 20
156.2480127935992
 30
0.0
 11
32.852146279679801
 21
156.2480127935992
 31
0.0
  0
LINE
  8
DETAIL
  6
CONTINUOUS
 62
     5
 10
-59.624207669649877
 20
93.147853780799778
 30
0.0
 11
-64.101748838399544
 21
93.147853780799778
 31
0.0
  0
LINE
  8
DETAIL
  6
CONTINUOUS
 62
     5
 10
-52.783783809120003
 20
178.52280285118971
 30
0.0
 11
-52.783783809120003
 21
184.79332282319911
 31
0.0
  0
LINE
  8
DETAIL
  6
CONTINUOUS
 62
     5
 10
-43.26868046592017
 20
160.75516700879919
 30
0.0
 11
-43.26868046592017
 21
157.2496026191989
 31
0.0
  0
LINE
  8
DETAIL
  6
CONTINUOUS
 62
     5
 10
-71.824099818569266
 20
172.9116058636159
 30
0.0
 11
-71.855168339897318
 21
172.91399316438219
 31
0.0
  0
LINE
  8
DETAIL
  6
CONTINUOUS
 62
     5
 10
-71.805314541760254
 20
172.9093850379945
 30
0.0
 11
-71.824099818569266
 21
172.9116058636159
 31
0.0
  0
LINE
  8
DETAIL
  6
CONTINUOUS
 62
     5
 10
-71.799048813657464
 20
172.90735862576551
 30
0.0
 11
-71.805314541760254
 21
172.9093850379945
 31
0.0
  0
LINE
  8
DETAIL
  6
CONTINUOUS
 62
     5
 10
57.29231631638595
 20
127.1813976662402
 30
0.0
 11
58.017647545645097
 21
85.627189873937823
 31
0.0
  0
ARC
  8
DETAIL
  6
CONTINUOUS
 62
     5
 10
-81.687666475807873
 20
182.79014317199929
 30
0.0
 40
0.5007949128001109
 50
90.0
 51
179.00001734860439
  0
ARC
  8
DETAIL
  6
CONTINUOUS
 62
     5
 10
-72.014308460639768
 20
187.13036574966651
 30
0.0
 40
0.5007949128000037
 50
143.13010235419509
 51
180.0
  0
ARC
  8
DETAIL
  6
CONTINUOUS
 62
     5
 10
-70.011128809439924
 20
189.8012719511994
 30
0.0
 40
0.5007949127999499
 50
90.0
 51
143.13010235540011
  0
ARC
  8
DETAIL
  6
CONTINUOUS
 62
     5
 10
-75.319554885119942
 20
184.79332282319911
 30
0.0
 40
0.5007949128000037
 50
90.0
 51
180.0
  0
ARC
  8
DETAIL
  6
CONTINUOUS
 62
     5
 10
-64.602543751199846
 20
171.27186017759911
 30
0.0
 40
0.5007949128000037
 50
0.0
 51
90.0
  0
ARC
  8
DETAIL
  6
CONTINUOUS
 62
     5
 10
-60.496025466240098
 20
189.8012719511994
 30
0.0
 40
0.5007949128000037
 50
36.86989764580494
 51
90.0
  0
ARC
  8
DETAIL
  6
CONTINUOUS
 62
     5
 10
-58.4928458150398
 20
187.13036574966651
 30
0.0
 40
0.5007949127998891
 50
0.0
 51
36.86989764580494
  0
ARC
  8
DETAIL
  6
CONTINUOUS
 62
     5
 10
-53.284578721920298
 20
184.79332282319911
 30
0.0
 40
0.5007949128000037
 50
0.0
 51
90.0
  0
ARC
  8
DETAIL
  6
CONTINUOUS
 62
     5
 10
-47.875993663679758
 20
170.67090628223971
 30
0.0
 40
1.001589825600004
 50
90.0
 51
180.0
  0
ARC
  8
DETAIL
  6
CONTINUOUS
 62
     5
 10
-57.491255989440113
 20
168.30371689313009
 30
0.0
 40
0.5007949127999392
 50
180.0
 51
188.36588612400109
  0
ARC
  8
DETAIL
  6
CONTINUOUS
 62
     5
 10
-43.969793343840138
 20
163.96025445071879
 30
0.0
 40
0.3004769476801645
 50
270.0
 51
0.0
  0
ARC
  8
DETAIL
  6
CONTINUOUS
 62
     5
 10
-45.680171178712037
 20
157.5500795668795
 30
0.0
 40
0.300476947680043
 50
90.0
 51
124.21570213239779
  0
ARC
  8
DETAIL
  6
CONTINUOUS
 62
     5
 10
-47.976152646239832
 20
155.9888121689128
 30
0.0
 40
0.3004769476801645
 50
124.21570213239779
 51
180.0
  0
ARC
  8
DETAIL
  6
CONTINUOUS
 62
     5
 10
-47.976152646239832
 20
155.64705889823969
 30
0.0
 40
0.3004769476800608
 50
180.0
 51
270.0
  0
ARC
  8
DETAIL
  6
CONTINUOUS
 62
     5
 10
-85.901129929655781
 20
83.632744951090899
 30
0.0
 40
0.5007949128001502
 50
90.0
 51
177.99937190551009
  0
ARC
  8
DETAIL
  6
CONTINUOUS
 62
     5
 10
-5.4085850582400781
 20
85.635930088799341
 30
0.0
 40
0.5007949128000037
 50
276.4285714286076
 51
0.0
  0
ARC
  8
DETAIL
  6
CONTINUOUS
 62
     5
 10
-45.772655029919861
 20
85.635930088799341
 30
0.0
 40
0.5007949128000037
 50
270.0
 51
0.0
  0
ARC
  8
DETAIL
  6
CONTINUOUS
 62
     5
 10
-18.228934825920529
 20
85.635930088799341
 30
0.0
 40
0.5007949127998282
 50
180.0
 51
229.12933301842281
  0
ARC
  8
DETAIL
  6
CONTINUOUS
 62
     5
 10
-87.055347223150875
 20
50.580286192799583
 30
0.0
 40
0.5007949128000037
 50
178.00000000000941
 51
270.0
  0
ARC
  8
DETAIL
  6
CONTINUOUS
 62
     5
 10
-96.152623257599771
 20
43.068362500799587
 30
0.0
 40
175.2782194799999
 50
29.116422074509799
 51
38.549344289800793
  0
ARC
  8
DETAIL
  6
CONTINUOUS
 62
     5
 10
5.7090620059202593
 20
168.86804459615919
 30
0.0
 40
0.3004769476800608
 50
0.0
 51
90.0
  0
ARC
  8
DETAIL
  6
CONTINUOUS
 62
     5
 10
10.51669316880043
 20
170.67090628223971
 30
0.0
 40
1.0015898256000071
 50
0.0
 51
90.0
  0
ARC
  8
DETAIL
  6
CONTINUOUS
 62
     5
 10
6.5103338664002877
 20
168.16693171823951
 30
0.0
 40
0.5007949128000037
 50
188.99996596420539
 51
270.0
  0
ARC
  8
DETAIL
  6
CONTINUOUS
 62
     5
 10
3.8060413372800208
 20
156.34817177615921
 30
0.0
 40
1.001589825600004
 50
354.2540269388075
 51
0.0
  0
ARC
  8
DETAIL
  6
CONTINUOUS
 62
     5
 10
8.4988723823958026
 20
166.66454697983909
 30
0.0
 40
1.001589825600004
 50
35.537677792013383
 51
90.0
  0
ARC
  8
DETAIL
  6
CONTINUOUS
 62
     5
 10
13.020667732800121
 20
160.33403348929369
 30
0.0
 40
1.0015898255999429
 50
0.0
 51
35.5376777919953
  0
ARC
  8
DETAIL
  6
CONTINUOUS
 62
     5
 10
24.538950727200241
 20
156.9491256715196
 30
0.0
 40
0.5007949128000037
 50
0.0
 51
90.0
  0
ARC
  8
DETAIL
  6
CONTINUOUS
 62
     5
 10
14.523052471200121
 20
158.95230532271941
 30
0.0
 40
0.5007949127999499
 50
90.0
 51
180.0
  0
ARC
  8
DETAIL
  6
CONTINUOUS
 62
     5
 10
24.538950727200241
 20
158.15103346223989
 30
0.0
 40
0.5007949127999499
 50
270.0
 51
0.0
  0
ARC
  8
DETAIL
  6
CONTINUOUS
 62
     5
 10
14.523052471200121
 20
158.15103346223989
 30
0.0
 40
0.5007949128000037
 50
180.0
 51
270.0
  0
ARC
  8
DETAIL
  6
CONTINUOUS
 62
     5
 10
14.523052471200121
 20
165.062003258879
 30
0.0
 40
0.5007949127999499
 50
90.0
 51
180.00000130830489
  0
ARC
  8
DETAIL
  6
CONTINUOUS
 62
     5
 10
24.538950727200241
 20
158.95230532271941
 30
0.0
 40
0.5007949128000037
 50
0.0
 51
90.0
  0
ARC
  8
DETAIL
  6
CONTINUOUS
 62
     5
 10
24.538950727200241
 20
165.062003258879
 30
0.0
 40
0.5007949127999499
 50
359.9999986919035
 51
90.0
  0
ARC
  8
DETAIL
  6
CONTINUOUS
 62
     5
 10
38.969231574109017
 20
150.73926875279949
 30
0.0
 40
2.5039745640000111
 50
38.549329028999168
 51
90.0
  0
ARC
  8
DETAIL
  6
CONTINUOUS
 62
     5
 10
75.142478337750617
 20
83.131955524799196
 30
0.0
 40
2.0031796511999538
 50
13.495720897491539
 51
90.0
  0
LINE
  8
DETAIL
  6
CONTINUOUS
 62
     5
 10
-155.44674093312011
 20
163.6087712524122
 30
0.0
 11
-148.5979577816706
 21
170.4575544038621
 31
0.0
  0
LINE
  8
DETAIL
  6
CONTINUOUS
 62
     5
 10
-155.44674093312011
 20
163.6087712524122
 30
0.0
 11
-155.44674093312011
 21
123.82407473301009
 31
0.0
  0
LINE
  8
DETAIL
  6
CONTINUOUS
 62
     5
 10
-155.44674093312011
 20
123.82407473301009
 30
0.0
 11
-155.44674093312011
 21
64.753708984486821
 31
0.0
  0
LINE
  8
DETAIL
  6
CONTINUOUS
 62
     5
 10
-148.59775014258409
 20
170.2029224712692
 30
0.0
 11
-148.5979577816706
 21
170.4575544038621
 31
0.0
  0
LINE
  8
DETAIL
  6
CONTINUOUS
 62
     5
 10
-148.59776585252081
 20
125.3350213594131
 30
0.0
 11
-148.59775014258409
 21
170.2029224712692
 31
0.0
  0
LINE
  8
DETAIL
  6
CONTINUOUS
 62
     5
 10
-148.5979577816706
 20
64.693940559442126
 30
0.0
 11
-148.59776585252081
 21
125.3350213594131
 31
0.0
  0
LINE
  8
DETAIL
  6
CONTINUOUS
 62
     5
 10
-70.011128809439924
 20
190.30206686399919
 30
0.0
 11
-60.496025466240098
 21
190.30206686399919
 31
0.0
  0
LINE
  8
DETAIL
  6
CONTINUOUS
 62
     5
 10
-53.284578721920298
 20
185.29411773599941
 30
0.0
 11
-75.319554885119942
 21
185.29411773599941
 31
0.0
  0
LINE
  8
DETAIL
  6
CONTINUOUS
 62
     5
 10
-81.687675164499524
 20
183.29093808479911
 30
0.0
 11
-74.841487809062073
 21
183.29093808479911
 31
0.0
  0
LINE
  8
DETAIL
  6
CONTINUOUS
 62
     5
 10
-72.414944390880009
 20
187.43084269734661
 30
0.0
 11
-70.411764739680166
 21
190.10174889887909
 31
0.0
  0
LINE
  8
DETAIL
  6
CONTINUOUS
 62
     5
 10
-125.3990461655208
 20
170.66000823845161
 30
0.0
 11
-82.345898204290734
 21
171.27148762534631
 31
0.0
  0
LINE
  8
DETAIL
  6
CONTINUOUS
 62
     5
 10
-125.3990461651201
 20
170.66000823845161
 30
0.0
 11
-148.5979577816706
 21
170.4575544038621
 31
0.0
  0
LINE
  8
DETAIL
  6
CONTINUOUS
 62
     5
 10
-71.81885513757652
 20
171.77265509039989
 30
0.0
 11
-64.602543751199846
 21
171.77265509039989
 31
0.0
  0
LINE
  8
DETAIL
  6
CONTINUOUS
 62
     5
 10
10.51669316880043
 20
171.67249610783981
 30
0.0
 11
-47.87599354819713
 21
171.67249610783981
 31
0.0
  0
LINE
  8
DETAIL
  6
CONTINUOUS
 62
     5
 10
-44.198970514836667
 20
169.16852154383969
 30
0.0
 11
5.7445073039148156
 21
169.16852154383969
 31
0.0
  0
LINE
  8
DETAIL
  6
CONTINUOUS
 62
     5
 10
8.4988723823958026
 20
167.66613680543921
 30
0.0
 11
6.5103338664002877
 21
167.66613680543921
 31
0.0
  0
LINE
  8
DETAIL
  6
CONTINUOUS
 62
     5
 10
14.523052471200121
 20
165.5627981716793
 30
0.0
 11
24.538950727200241
 21
165.5627981716793
 31
0.0
  0
LINE
  8
DETAIL
  6
CONTINUOUS
 62
     5
 10
-44.69466951006325
 20
165.4386010333055
 30
0.0
 11
6.0095389535999857
 21
165.4386010333055
 31
0.0
  0
LINE
  8
DETAIL
  6
CONTINUOUS
 62
     5
 10
-64.146429961639114
 20
171.27290271912719
 30
0.0
 11
-64.12172513141104
 21
171.2725661906552
 31
0.0
  0
LINE
  8
DETAIL
  6
CONTINUOUS
 62
     5
 10
-64.103006127296794
 20
171.27203894525749
 30
0.0
 11
-64.101748838399544
 21
171.27186017759911
 31
0.0
  0
LINE
  8
DETAIL
  6
CONTINUOUS
 62
     5
 10
-64.106770475354551
 20
171.27221679606009
 30
0.0
 11
-64.103006127296794
 21
171.27203894525749
 31
0.0
  0
LINE
  8
DETAIL
  6
CONTINUOUS
 62
     5
 10
-64.113017007888629
 20
171.27239274774959
 30
0.0
 11
-64.106770475354551
 21
171.27221679606009
 31
0.0
  0
LINE
  8
DETAIL
  6
CONTINUOUS
 62
     5
 10
-64.12172513141104
 20
171.2725661906552
 30
0.0
 11
-64.113017007888629
 21
171.27239274774959
 31
0.0
  0
LINE
  8
DETAIL
  6
CONTINUOUS
 62
     5
 10
-125.3920468874521
 20
165.20218061228209
 30
0.0
 11
-125.3990461651201
 21
170.66000823845161
 31
0.0
  0
LINE
  8
DETAIL
  6
CONTINUOUS
 62
     5
 10
-125.39593638626179
 20
113.2210162414553
 30
0.0
 11
-125.3972399243703
 21
117.5757474816519
 31
0.0
  0
LINE
  8
DETAIL
  6
CONTINUOUS
 62
     5
 10
-125.3899631077643
 20
108.8797816536221
 30
0.0
 11
-125.39593638626179
 21
113.2210162414553
 31
0.0
  0
LINE
  8
DETAIL
  6
CONTINUOUS
 62
     5
 10
-125.3902989757885
 20
126.51690448564111
 30
0.0
 11
-125.39827534910231
 21
130.9065360530999
 31
0.0
  0
LINE
  8
DETAIL
  6
CONTINUOUS
 62
     5
 10
-125.3884356807762
 20
122.0573146991574
 30
0.0
 11
-125.3902989757885
 21
126.51690448564111
 31
0.0
  0
LINE
  8
DETAIL
  6
CONTINUOUS
 62
     5
 10
-125.39638691218219
 20
143.35500680324691
 30
0.0
 11
-125.39904616762399
 21
160.38775093991401
 31
0.0
  0
LINE
  8
DETAIL
  6
CONTINUOUS
 62
     5
 10
-125.3937997416615
 20
139.34570233758311
 30
0.0
 11
-125.39638691218219
 21
143.35500680324691
 31
0.0
  0
LINE
  8
DETAIL
  6
CONTINUOUS
 62
     5
 10
-125.3958723273809
 20
94.354389359216839
 30
0.0
 11
-125.39878518656769
 21
100.4021027013018
 31
0.0
  0
LINE
  8
DETAIL
  6
CONTINUOUS
 62
     5
 10
-125.3989603927735
 20
83.962110159066015
 30
0.0
 11
-125.3958723273809
 21
94.354389359216839
 31
0.0
  0
LINE
  8
DETAIL
  6
CONTINUOUS
 62
     5
 10
-125.3990461651201
 20
64.491486724852166
 30
0.0
 11
-125.3989603927735
 21
83.962110159066015
 31
0.0
  0
LINE
  8
DETAIL
  6
CONTINUOUS
 62
     5
 10
-125.39827534910231
 20
130.9065360530999
 30
0.0
 11
-125.3937997416615
 21
139.34570233758311
 31
0.0
  0
LINE
  8
DETAIL
  6
CONTINUOUS
 62
     5
 10
-125.39088487348501
 20
106.7267498161377
 30
0.0
 11
-125.3899631077643
 21
108.8797816536221
 31
0.0
  0
LINE
  8
DETAIL
  6
CONTINUOUS
 62
     5
 10
-125.39878518656769
 20
100.4021027013018
 30
0.0
 11
-125.39088487348501
 21
106.7267498161377
 31
0.0
  0
LINE
  8
DETAIL
  6
CONTINUOUS
 62
     5
 10
-125.39904616762399
 20
160.38775093991401
 30
0.0
 11
-125.3920468874521
 21
165.20218061228209
 31
0.0
  0
LINE
  8
DETAIL
  6
CONTINUOUS
 62
     5
 10
-125.3972399226673
 20
117.5757474816519
 30
0.0
 11
-125.3884356807762
 21
122.0573146991574
 31
0.0
  0
LINE
  8
DETAIL
  6
CONTINUOUS
 62
     5
 10
-155.44674093312011
 20
163.6087712524122
 30
0.0
 11
-185.49443570112041
 21
163.25914157279931
 31
0.0
  0
LINE
  8
DETAIL
  6
CONTINUOUS
 62
     5
 10
-43.969793343840138
 20
163.65977750303941
 30
0.0
 11
-46.820586170585102
 21
163.65977750303941
 31
0.0
  0
LINE
  8
DETAIL
  6
CONTINUOUS
 62
     5
 10
24.538950727200241
 20
159.45310023551971
 30
0.0
 11
14.523052471200121
 21
159.45310023551971
 31
0.0
  0
LINE
  8
DETAIL
  6
CONTINUOUS
 62
     5
 10
25.039745640000088
 20
157.95071549711969
 30
0.0
 11
24.997936846315039
 21
157.95071549711969
 31
0.0
  0
LINE
  8
DETAIL
  6
CONTINUOUS
 62
     5
 10
-45.680171178712037
 20
157.85055651455971
 30
0.0
 11
-45.271860117120013
 21
157.85055651455971
 31
0.0
  0
LINE
  8
DETAIL
  6
CONTINUOUS
 62
     5
 10
17.027027035200259
 20
157.65023854943959
 30
0.0
 11
14.523052471200121
 21
157.65023854943959
 31
0.0
  0
LINE
  8
DETAIL
  6
CONTINUOUS
 62
     5
 10
22.034976163200099
 20
157.65023854943959
 30
0.0
 11
24.538950727200241
 21
157.65023854943959
 31
0.0
  0
LINE
  8
DETAIL
  6
CONTINUOUS
 62
     5
 10
17.027027035200259
 20
157.44992058431939
 30
0.0
 11
14.02225755839982
 21
157.44992058431939
 31
0.0
  0
LINE
  8
DETAIL
  6
CONTINUOUS
 62
     5
 10
24.538950727200241
 20
157.44992058431939
 30
0.0
 11
22.034976163200099
 21
157.44992058431939
 31
0.0
  0
LINE
  8
DETAIL
  6
CONTINUOUS
 62
     5
 10
25.039745640000088
 20
157.14944363663881
 30
0.0
 11
24.997936846315039
 21
157.14944363663881
 31
0.0
  0
LINE
  8
DETAIL
  6
CONTINUOUS
 62
     5
 10
-45.271860117120013
 20
155.34658195055951
 30
0.0
 11
-47.976152646239832
 21
155.34658195055951
 31
0.0
  0
LINE
  8
DETAIL
  6
CONTINUOUS
 62
     5
 10
-45.271860117120013
 20
154.84578703775881
 30
0.0
 11
-51.882336200167629
 21
154.84578703775881
 31
0.0
  0
LINE
  8
DETAIL
  6
CONTINUOUS
 62
     5
 10
-45.271860117120013
 20
153.24324331679961
 30
0.0
 11
-64.101748838399544
 21
153.24324331679961
 31
0.0
  0
LINE
  8
DETAIL
  6
CONTINUOUS
 62
     5
 10
38.969231574109017
 20
153.24324331679961
 30
0.0
 11
33.352941192480102
 21
153.24324331679961
 31
0.0
  0
LINE
  8
DETAIL
  6
CONTINUOUS
 62
     5
 10
-48.145113845100241
 20
156.23728452028899
 30
0.0
 11
-45.849132377571998
 21
157.7985519182557
 31
0.0
  0
LINE
  8
DETAIL
  6
CONTINUOUS
 62
     5
 10
-86.401619580212355
 20
83.650227928056211
 30
0.0
 11
-87.555837065211108
 21
50.597763683256737
 31
0.0
  0
LINE
  8
DETAIL
  6
CONTINUOUS
 62
     5
 10
-75.820349797919789
 20
183.29093808479911
 30
0.0
 11
-75.820349797919789
 21
184.79332282319911
 31
0.0
  0
LINE
  8
DETAIL
  6
CONTINUOUS
 62
     5
 10
-73.8171701467204
 20
180.35960592700761
 30
0.0
 11
-73.8171701467204
 21
182.7926190036228
 31
0.0
  0
LINE
  8
DETAIL
  6
CONTINUOUS
 62
     5
 10
-72.51510337344007
 20
185.29411773599941
 30
0.0
 11
-72.51510337344007
 21
187.13036574966651
 31
0.0
  0
LINE
  8
DETAIL
  6
CONTINUOUS
 62
     5
 10
11.431822646711231
 20
166.26765676207651
 30
0.0
 11
10.61057391059512
 21
165.43136513314539
 31
0.0
  0
LINE
  8
DETAIL
  6
CONTINUOUS
 62
     5
 10
11.518282994400121
 20
166.47857102201709
 30
0.0
 11
11.50732898487831
 21
166.46812478949099
 31
0.0
  0
LINE
  8
DETAIL
  6
CONTINUOUS
 62
     5
 10
-82.279910281825323
 20
177.3473501245476
 30
0.0
 11
-82.281369231017834
 21
177.4723245936807
 31
0.0
  0
LINE
  8
DETAIL
  6
CONTINUOUS
 62
     5
 10
-82.273565267169943
 20
177.2210192110274
 30
0.0
 11
-82.279910281825323
 21
177.3473501245476
 31
0.0
  0
LINE
  8
DETAIL
  6
CONTINUOUS
 62
     5
 10
-82.261974533975263
 20
177.0933749310984
 30
0.0
 11
-82.273565267169943
 21
177.2210192110274
 31
0.0
  0
LINE
  8
DETAIL
  6
CONTINUOUS
 62
     5
 10
-64.101748838399544
 20
85.135135175999494
 30
0.0
 11
-64.101748838399544
 21
171.27186017759911
 31
0.0
  0
LINE
  8
DETAIL
  6
CONTINUOUS
 62
     5
 10
-57.992050902239953
 20
178.4773509927609
 30
0.0
 11
-57.992050902239953
 21
168.30371689313009
 31
0.0
  0
LINE
  8
DETAIL
  6
CONTINUOUS
 62
     5
 10
-57.992050902239953
 20
187.13036574966651
 30
0.0
 11
-57.992050902239953
 21
185.29411773599941
 31
0.0
  0
LINE
  8
DETAIL
  6
CONTINUOUS
 62
     5
 10
-61.530136415987272
 20
93.147853780799778
 30
0.0
 11
-61.092476467046247
 21
150.78296913460599
 31
0.0
  0
LINE
  8
DETAIL
  6
CONTINUOUS
 62
     5
 10
-59.624207669649877
 20
93.147853780799778
 30
0.0
 11
-59.690736531950279
 21
85.635930088799341
 31
0.0
  0
LINE
  8
DETAIL
  6
CONTINUOUS
 62
     5
 10
-57.986722011380607
 20
168.23085424289459
 30
0.0
 11
-55.782661581069533
 21
153.24324331679961
 31
0.0
  0
LINE
  8
DETAIL
  6
CONTINUOUS
 62
     5
 10
-57.992050902239953
 20
168.30371689313009
 30
0.0
 11
-57.986722011380607
 21
168.23085424289459
 31
0.0
  0
LINE
  8
DETAIL
  6
CONTINUOUS
 62
     5
 10
-52.783783809120003
 20
179.5327928023257
 30
0.0
 11
-52.783783809120003
 21
184.79332282319911
 31
0.0
  0
LINE
  8
DETAIL
  6
CONTINUOUS
 62
     5
 10
-51.882352966079907
 20
153.24324331679961
 30
0.0
 11
-51.882352966079907
 21
154.84578703775881
 31
0.0
  0
LINE
  8
DETAIL
  6
CONTINUOUS
 62
     5
 10
-48.877583489280369
 20
166.02005531248409
 30
0.0
 11
-48.877583489280369
 21
170.67090628223971
 31
0.0
  0
LINE
  8
DETAIL
  6
CONTINUOUS
 62
     5
 10
-48.276629593920461
 20
155.64705889823969
 30
0.0
 11
-48.276629593920461
 21
155.9888121689128
 31
0.0
  0
LINE
  8
DETAIL
  6
CONTINUOUS
 62
     5
 10
-45.271860117120013
 20
85.635930088799341
 30
0.0
 11
-45.271860117120013
 21
160.75516700879919
 31
0.0
  0
LINE
  8
DETAIL
  6
CONTINUOUS
 62
     5
 10
-44.694672760035253
 20
168.86804459615919
 30
0.0
 11
-44.694669445273583
 21
165.37023377721829
 31
0.0
  0
LINE
  8
DETAIL
  6
CONTINUOUS
 62
     5
 10
-43.669316396159957
 20
163.96025445071879
 30
0.0
 11
-43.669316396159957
 21
165.4386010333055
 31
0.0
  0
LINE
  8
DETAIL
  6
CONTINUOUS
 62
     5
 10
-43.26868046592017
 20
160.75516700879919
 30
0.0
 11
-43.26868046592017
 21
165.4386010333055
 31
0.0
  0
LINE
  8
DETAIL
  6
CONTINUOUS
 62
     5
 10
77.090346944615249
 20
83.599442244135389
 30
0.0
 11
77.074582458214081
 21
83.599262716069461
 31
0.0
  0
LINE
  8
DETAIL
  6
CONTINUOUS
 62
     5
 10
-18.72972973872038
 20
85.635930088799341
 30
0.0
 11
-45.271860117120013
 21
85.635930088799341
 31
0.0
  0
LINE
  8
DETAIL
  6
CONTINUOUS
 62
     5
 10
-4.90786776294226
 20
85.627189812640609
 30
0.0
 11
-18.72965348588377
 21
85.627190003042415
 31
0.0
  0
LINE
  8
DETAIL
  6
CONTINUOUS
 62
     5
 10
75.142480192895164
 20
85.135135175999494
 30
0.0
 11
-64.101748838399544
 21
85.135135175999494
 31
0.0
  0
LINE
  8
DETAIL
  6
CONTINUOUS
 62
     5
 10
-83.866896644357439
 20
84.1335453503998
 30
0.0
 11
-85.901129738151667
 21
84.1335453503998
 31
0.0
  0
LINE
  8
DETAIL
  6
CONTINUOUS
 62
     5
 10
-41.465818779839992
 20
156.2480127935992
 30
0.0
 11
-41.465818779839992
 21
165.4386010333055
 31
0.0
  0
LINE
  8
DETAIL
  6
CONTINUOUS
 62
     5
 10
-87.082334542678382
 20
64.157101848345974
 30
0.0
 11
-185.49443570112041
 21
65.103338663999239
 31
0.0
  0
LINE
  8
DETAIL
  6
CONTINUOUS
 62
     5
 10
-87.055347223150875
 20
50.079491280000177
 30
0.0
 11
-84.461312369266579
 21
50.079491280000177
 31
0.0
  0
LINE
  8
DETAIL
  6
CONTINUOUS
 62
     5
 10
-60.095389535999857
 20
190.10174889887909
 30
0.0
 11
-58.092209884800013
 21
187.43084269734661
 31
0.0
  0
LINE
  8
DETAIL
  6
CONTINUOUS
 62
     5
 10
4.8076311628797157
 20
165.4386010333055
 30
0.0
 11
4.8076311628797157
 21
156.34817177615921
 31
0.0
  0
LINE
  8
DETAIL
  6
CONTINUOUS
 62
     5
 10
6.0095389535999857
 20
165.4386010333055
 30
0.0
 11
6.0095389535999857
 21
156.2480127935992
 31
0.0
  0
LINE
  8
DETAIL
  6
CONTINUOUS
 62
     5
 10
6.0095389535999857
 20
168.86804459615919
 30
0.0
 11
6.0095389535999857
 21
165.4386010333055
 31
0.0
  0
LINE
  8
DETAIL
  6
CONTINUOUS
 62
     5
 10
6.2456267618663333
 20
167.74360889414581
 30
0.0
 11
6.2456279839057061
 21
168.86804459615919
 31
0.0
  0
LINE
  8
DETAIL
  6
CONTINUOUS
 62
     5
 10
11.518282994400121
 20
166.47676951588301
 30
0.0
 11
11.518282994400121
 21
170.67090628223971
 31
0.0
  0
LINE
  8
DETAIL
  6
CONTINUOUS
 62
     5
 10
13.541143034121429
 20
156.2480127935992
 30
0.0
 11
13.541143034121429
 21
156.9491256715196
 31
0.0
  0
LINE
  8
DETAIL
  6
CONTINUOUS
 62
     5
 10
14.02225755839982
 20
157.44992058431939
 30
0.0
 11
14.02225755839982
 21
165.06200323524169
 31
0.0
  0
LINE
  8
DETAIL
  6
CONTINUOUS
 62
     5
 10
17.027027035200259
 20
157.65023854943959
 30
0.0
 11
17.027027035200259
 21
156.2480127935992
 31
0.0
  0
LINE
  8
DETAIL
  6
CONTINUOUS
 62
     5
 10
11.46760401565234
 20
166.31157366396559
 30
0.0
 11
11.431822646711231
 21
166.26765676207651
 31
0.0
  0
LINE
  8
DETAIL
  6
CONTINUOUS
 62
     5
 10
11.49450683755731
 20
166.361425815589
 30
0.0
 11
11.46760401565234
 21
166.31157366396559
 31
0.0
  0
LINE
  8
DETAIL
  6
CONTINUOUS
 62
     5
 10
11.51157493378196
 20
166.41544132011089
 30
0.0
 11
11.49450683755731
 21
166.361425815589
 31
0.0
  0
LINE
  8
DETAIL
  6
CONTINUOUS
 62
     5
 10
11.518201692449111
 20
166.47170038093421
 30
0.0
 11
11.51157493378196
 21
166.41544132011089
 31
0.0
  0
LINE
  8
DETAIL
  6
CONTINUOUS
 62
     5
 10
11.51828010681675
 20
166.47856457848911
 30
0.0
 11
11.518201692449111
 21
166.47170038093421
 31
0.0
  0
LINE
  8
DETAIL
  6
CONTINUOUS
 62
     5
 10
22.034976163200099
 20
156.2480127935992
 30
0.0
 11
22.034976163200099
 21
157.65023854943959
 31
0.0
  0
LINE
  8
DETAIL
  6
CONTINUOUS
 62
     5
 10
25.039745640000088
 20
158.15103346223989
 30
0.0
 11
25.039745640000088
 21
165.06200323524169
 31
0.0
  0
LINE
  8
DETAIL
  6
CONTINUOUS
 62
     5
 10
25.039745640000088
 20
156.2480127935992
 30
0.0
 11
25.039745640000088
 21
156.9491256715196
 31
0.0
  0
LINE
  8
DETAIL
  6
CONTINUOUS
 62
     5
 10
33.352941192480102
 20
155.74721788079981
 30
0.0
 11
33.352941192480102
 21
85.635930088799341
 31
0.0
  0
LINE
  8
DETAIL
  6
CONTINUOUS
 62
     5
 10
13.835694898304149
 20
160.91619575035341
 30
0.0
 11
9.3138995479002915
 21
167.24670924099931
 31
0.0
  0
LINE
  8
DETAIL
  6
CONTINUOUS
 62
     5
 10
5.0523052478606587
 20
171.67249610783981
 30
0.0
 11
5.057908116906674
 21
171.66392738248439
 31
0.0
  0
LINE
  8
DETAIL
  6
CONTINUOUS
 62
     5
 10
57.292313375817677
 20
127.18156613144581
 30
0.0
 11
57.290974149160768
 21
127.1838457887507
 31
0.0
  0
LINE
  8
DETAIL
  6
CONTINUOUS
 62
     5
 10
57.291279093199591
 20
127.22175035084
 30
0.0
 11
57.29230886946516
 21
127.1813975270188
 31
0.0
  0
LINE
  8
DETAIL
  6
CONTINUOUS
 62
     5
 10
57.276806310821939
 20
127.41928804483
 30
0.0
 11
57.291279093199591
 21
127.22175035084
 31
0.0
  0
LINE
  8
DETAIL
  6
CONTINUOUS
 62
     5
 10
57.246765563381359
 20
127.6150636543598
 30
0.0
 11
57.276806310821939
 21
127.41928804483
 31
0.0
  0
LINE
  8
DETAIL
  6
CONTINUOUS
 62
     5
 10
57.20134486771758
 20
127.80785215143941
 30
0.0
 11
57.246765563381359
 21
127.6150636543598
 31
0.0
  0
LINE
  8
DETAIL
  6
CONTINUOUS
 62
     5
 10
57.140828430151487
 20
127.99644738053669
 30
0.0
 11
57.20134486771758
 21
127.80785215143941
 31
0.0
  0
LINE
  8
DETAIL
  6
CONTINUOUS
 62
     5
 10
57.065594880081328
 20
128.179669405135
 30
0.0
 11
57.140828430151487
 21
127.99644738053669
 31
0.0
  0
LINE
  8
DETAIL
  6
CONTINUOUS
 62
     5
 10
56.976272536341177
 20
128.3560889162886
 30
0.0
 11
57.065594880081328
 21
128.179669405135
 31
0.0
  0
LINE
  8
DETAIL
  6
CONTINUOUS
 62
     5
 10
84.192425741266561
 20
54.007447258140473
 30
0.0
 11
77.090346649346884
 21
83.599443474387499
 31
0.0
  0
LINE
  8
DETAIL
  6
CONTINUOUS
 62
     5
 10
-185.49443570112041
 20
163.25908190979641
 30
0.0
 11
-185.49443570112041
 21
65.103398327003106
 31
0.0
  0
LINE
  8
DETAIL
  6
CONTINUOUS
 62
     5
 10
-220.36755013980161
 20
92.431109058075435
 30
0.0
 11
-214.373757522766
 21
89.281988279276447
 31
0.0
  0
LINE
  8
DETAIL
  6
CONTINUOUS
 62
     5
 10
-214.373757522766
 20
89.281988279276447
 30
0.0
 11
-212.71477452414271
 21
88.505932770463914
 31
0.0
  0
LINE
  8
DETAIL
  6
CONTINUOUS
 62
     5
 10
-212.71477452414271
 20
88.505932770463914
 30
0.0
 11
-211.0085321913771
 21
87.80061656323096
 31
0.0
  0
LINE
  8
DETAIL
  6
CONTINUOUS
 62
     5
 10
-211.0085321913771
 20
87.80061656323096
 30
0.0
 11
-209.25503052426939
 21
87.166039657277452
 31
0.0
  0
LINE
  8
DETAIL
  6
CONTINUOUS
 62
     5
 10
-214.37375752276739
 20
89.28198827922688
 30
0.0
 11
-212.71477452414271
 21
88.505932770413438
 31
0.0
  0
LINE
  8
DETAIL
  6
CONTINUOUS
 62
     5
 10
-212.71477452414271
 20
88.505932770413438
 30
0.0
 11
-211.0085321913771
 21
87.800616563180483
 31
0.0
  0
LINE
  8
DETAIL
  6
CONTINUOUS
 62
     5
 10
-211.0085321913771
 20
87.800616563180483
 30
0.0
 11
-209.2550305242703
 21
87.166039657227884
 31
0.0
  0
LINE
  8
DETAIL
  6
CONTINUOUS
 62
     5
 10
-204.96356675389549
 20
86.680292299336088
 30
0.0
 11
-195.49106749056861
 21
87.515420896717387
 31
0.0
  0
LINE
  8
DETAIL
  6
CONTINUOUS
 62
     5
 10
-195.44937969552529
 20
87.515683745420574
 30
0.0
 11
-195.3831154634122
 21
87.521525831354211
 31
0.0
  0
LINE
  8
DETAIL
  6
CONTINUOUS
 62
     5
 10
-174.88758742619211
 20
87.566285838587191
 30
0.0
 11
-185.49443570112041
 21
87.543145138529326
 31
0.0
  0
LINE
  8
DETAIL
  6
CONTINUOUS
 62
     5
 10
-204.96356675389549
 20
86.680292299286521
 30
0.0
 11
-195.49106749056861
 21
87.51542089666782
 31
0.0
  0
LINE
  8
DETAIL
  6
CONTINUOUS
 62
     5
 10
-207.24489805165879
 20
157.1370794715117
 30
0.0
 11
-195.4966312375459
 21
158.17284767944011
 31
0.0
  0
LINE
  8
DETAIL
  6
CONTINUOUS
 62
     5
 10
-207.1057753499322
 20
156.74257744720629
 30
0.0
 11
-195.49106749056861
 21
157.76657063154309
 31
0.0
  0
LINE
  8
DETAIL
  6
CONTINUOUS
 62
     5
 10
-207.2448980516597
 20
157.1370794714621
 30
0.0
 11
-195.4966312375459
 21
158.1728476793904
 31
0.0
  0
LINE
  8
DETAIL
  6
CONTINUOUS
 62
     5
 10
-207.10577534993311
 20
156.74257744715581
 30
0.0
 11
-195.49106749056861
 21
157.76657063149381
 31
0.0
  0
LINE
  8
DETAIL
  6
CONTINUOUS
 62
     5
 10
-174.91824904904979
 20
158.45837056781829
 30
0.0
 11
-185.49443570112041
 21
158.4352967614241
 31
0.0
  0
LINE
  8
DETAIL
  6
CONTINUOUS
 62
     5
 10
-174.91475327157241
 20
158.0577865271853
 30
0.0
 11
-185.49443570112041
 21
158.0347050941846
 31
0.0
  0
LINE
  8
DETAIL
  6
CONTINUOUS
 62
     5
 10
-185.49443570112041
 20
158.4352967614241
 30
0.0
 11
-195.5029270965961
 21
158.41346148181449
 31
0.0
  0
LINE
  8
DETAIL
  6
CONTINUOUS
 62
     5
 10
-185.49443570112041
 20
158.0347050941846
 30
0.0
 11
-195.43109911760439
 21
158.01302651995229
 31
0.0
  0
LINE
  8
DETAIL
  6
CONTINUOUS
 62
     5
 10
-185.49443570112041
 20
87.543145138529326
 30
0.0
 11
-195.40393327222409
 21
87.521525831354211
 31
0.0
  0
LINE
  8
DETAIL
  6
CONTINUOUS
 62
     5
 10
183.48753072811769
 20
154.00687344946741
 30
0.0
 11
183.75298278289711
 21
154.99755400488041
 31
0.0
  0
LINE
  8
DETAIL
  6
CONTINUOUS
 62
     5
 10
186.37425152226339
 20
161.3570861538096
 30
0.0
 11
186.37425152226339
 21
162.3827141352244
 31
0.0
  0
LINE
  8
DETAIL
  6
CONTINUOUS
 62
     5
 10
183.75298278289711
 20
168.71627758176331
 30
0.0
 11
183.48753072811681
 21
169.70695813717609
 31
0.0
  0
LINE
  8
DETAIL
  6
CONTINUOUS
 62
     5
 10
186.37425152226339
 20
162.3827141352244
 30
0.0
 11
179.96407663842351
 21
162.3827141352244
 31
0.0
  0
LINE
  8
DETAIL
  6
CONTINUOUS
 62
     5
 10
186.37425152226339
 20
161.3570861538096
 30
0.0
 11
179.96407663842351
 21
161.3570861538096
 31
0.0
  0
LINE
  8
DETAIL
  6
CONTINUOUS
 62
     5
 10
183.75298278289711
 20
154.99755400488041
 30
0.0
 11
177.5612293115669
 21
156.65662934725651
 31
0.0
  0
LINE
  8
DETAIL
  6
CONTINUOUS
 62
     5
 10
183.48753072811769
 20
154.00687344946741
 30
0.0
 11
177.29577725678701
 21
155.6659487918437
 31
0.0
  0
LINE
  8
DETAIL
  6
CONTINUOUS
 62
     5
 10
177.29577725678701
 20
168.04788279479999
 30
0.0
 11
183.48753072811681
 21
169.70695813717609
 31
0.0
  0
LINE
  8
DETAIL
  6
CONTINUOUS
 62
     5
 10
177.5612293115669
 20
167.05720223938809
 30
0.0
 11
183.75298278289711
 21
168.71627758176331
 31
0.0
  0
LINE
  8
DETAIL
  6
CONTINUOUS
 62
     5
 10
-128.14751739227859
 20
64.157101848345974
 30
0.0
 11
-88.083924368278531
 21
64.157101848345974
 31
0.0
  0
LINE
  8
BASIS
  6
DASHDOT
 62
     6
 10
-231.24247265101531
 20
113.6804452055999
 30
0.0
 11
-98.914217589866894
 21
113.6804452055999
 31
0.0
  0
LINE
  8
DETAIL
  6
CONTINUOUS
 62
     5
 10
163.4271935473312
 20
160.908373911941
 30
0.0
 11
177.6773645855337
 21
157.0900520902492
 31
0.0
  0
LINE
  8
DETAIL
  6
CONTINUOUS
 62
     5
 10
163.52411006406149
 20
162.83142637709349
 30
0.0
 11
177.6773645855337
 21
166.62377949639449
 31
0.0
  0
LINE
  8
DETAIL
  6
CONTINUOUS
 62
     5
 10
179.96407663842351
 20
162.83142637709349
 30
0.0
 11
161.03662816754331
 21
162.83142637709349
 31
0.0
  0
LINE
  8
DETAIL
  6
CONTINUOUS
 62
     5
 10
179.96407663842351
 20
160.908373911941
 30
0.0
 11
161.03662816754331
 21
160.908373911941
 31
0.0
  0
LINE
  8
DETAIL
  6
CONTINUOUS
 62
     5
 10
179.96407663842351
 20
160.908373911941
 30
0.0
 11
179.96407663842351
 21
162.83142637709349
 31
0.0
  0
LINE
  8
DETAIL
  6
CONTINUOUS
 62
     5
 10
161.03662816754331
 20
164.15579802258529
 30
0.0
 11
177.17964198282019
 21
168.48130553779359
 31
0.0
  0
LINE
  8
DETAIL
  6
CONTINUOUS
 62
     5
 10
161.03662816754331
 20
159.55803356405841
 30
0.0
 11
177.17964198282019
 21
155.2325260488501
 31
0.0
  0
LINE
  8
DETAIL
  6
CONTINUOUS
 62
     5
 10
161.03662816754331
 20
158.65182835140189
 30
0.0
 11
161.03662816754331
 21
165.06200323524169
 31
0.0
  0
LINE
  8
DETAIL
  6
CONTINUOUS
 62
     5
 10
161.03662816754331
 20
158.65182835140189
 30
0.0
 11
138.61490628874481
 21
158.65182835140189
 31
0.0
  0
LINE
  8
DETAIL
  6
CONTINUOUS
 62
     5
 10
161.03662816754331
 20
165.06200323524169
 30
0.0
 11
140.84724655520631
 21
165.06200323524169
 31
0.0
  0
LINE
  8
DETAIL
  6
CONTINUOUS
 62
     5
 10
177.6773645855337
 20
166.62377949639449
 30
0.0
 11
177.17964198282019
 21
168.48130553779359
 31
0.0
  0
LINE
  8
DETAIL
  6
CONTINUOUS
 62
     5
 10
177.17964198282019
 20
155.2325260488501
 30
0.0
 11
177.6773645855337
 21
157.0900520902492
 31
0.0
  0
LINE
  8
DETAIL
  6
CONTINUOUS
 62
     5
 10
137.64215911328679
 20
165.06200323524169
 30
0.0
 11
25.039745640000088
 21
165.06200323524169
 31
0.0
  0
LINE
  8
DETAIL
  6
CONTINUOUS
 62
     5
 10
135.40981884682509
 20
158.65182835140189
 30
0.0
 11
25.039745640000088
 21
158.65182835140189
 31
0.0
  0
LINE
  8
DETAIL
  6
CONTINUOUS
 62
     5
 10
4.5598817824766229
 20
190.30206686399919
 30
0.0
 11
-4.5756125511579739
 21
190.30206686399919
 31
0.0
  0
LINE
  8
DETAIL
  6
CONTINUOUS
 62
     5
 10
-7.4029645617470123
 20
177.57957884667849
 30
0.0
 11
-8.7365708505653856
 21
171.67249610783981
 31
0.0
  0
LINE
  8
DETAIL
  6
CONTINUOUS
 62
     5
 10
-5.9791038378780286
 20
183.95276842015801
 30
0.0
 11
-7.4029645617470123
 21
177.57957884667849
 31
0.0
  0
LINE
  8
DETAIL
  6
CONTINUOUS
 62
     5
 10
-4.5756125511579739
 20
190.30206686399919
 30
0.0
 11
-5.9791038378780286
 21
183.95276842015801
 31
0.0
  0
LINE
  8
DETAIL
  6
CONTINUOUS
 62
     5
 10
-5.4591420869160174
 20
184.24459923200951
 30
0.0
 11
-4.1183164306808067
 21
190.30206686399919
 31
0.0
  0
LINE
  8
DETAIL
  6
CONTINUOUS
 62
     5
 10
-6.8632273917219209
 20
177.96868659581239
 30
0.0
 11
-5.4591420869160174
 21
184.24459923200951
 31
0.0
  0
LINE
  8
DETAIL
  6
CONTINUOUS
 62
     5
 10
-8.2857981598422157
 20
171.67249610783981
 30
0.0
 11
-6.8632273917219209
 21
177.96868659581239
 31
0.0
  0
LINE
  8
DETAIL
  6
CONTINUOUS
 62
     5
 10
0.0232953038839696
 20
171.67249610783981
 30
0.0
 11
0.0232953038839696
 21
190.30206686399919
 31
0.0
  0
LINE
  8
DETAIL
  6
CONTINUOUS
 62
     5
 10
0.2852265180417817
 20
190.30206686399919
 30
0.0
 11
3.1637079956399252
 21
171.67249610783981
 31
0.0
  0
LINE
  8
DETAIL
  6
CONTINUOUS
 62
     5
 10
4.4515030665165796
 20
171.67249610783981
 30
0.0
 11
1.573021588918891
 21
190.30206686399919
 31
0.0
  0
LINE
  8
DETAIL
  6
CONTINUOUS
 62
     5
 10
6.7729557634797857
 20
177.97956487562811
 30
0.0
 11
7.8351848668312414
 21
171.67249610783981
 31
0.0
  0
LINE
  8
DETAIL
  6
CONTINUOUS
 62
     5
 10
5.6705210692116452
 20
184.25275794184611
 30
0.0
 11
6.7729557634797857
 21
177.97956487562811
 31
0.0
  0
LINE
  8
DETAIL
  6
CONTINUOUS
 62
     5
 10
4.5598817824766229
 20
190.30206686399919
 30
0.0
 11
5.6705210692116452
 21
184.25275794184611
 31
0.0
  0
LINE
  8
DETAIL
  6
CONTINUOUS
 62
     5
 10
-201.29744288026311
 20
94.09161328102482
 30
0.0
 11
-202.14553658044539
 21
96.559420584257168
 31
0.0
  0
LINE
  8
DETAIL
  6
CONTINUOUS
 62
     5
 10
-202.14553658044539
 20
96.559420584257168
 30
0.0
 11
-214.96863947817471
 21
101.96323129917251
 31
0.0
  0
LINE
  8
DETAIL
  6
CONTINUOUS
 62
     5
 10
-214.12054577799199
 20
99.495423995840156
 30
0.0
 11
-214.96863947817471
 21
101.96323129917251
 31
0.0
  0
LINE
  8
DETAIL
  6
CONTINUOUS
 62
     5
 10
-214.96863947817471
 20
101.96323129917251
 30
0.0
 11
-219.90425408473951
 21
94.027260757131444
 31
0.0
  0
LINE
  8
DETAIL
  6
CONTINUOUS
 62
     5
 10
-219.05616038455631
 20
91.559453453798596
 30
0.0
 11
-219.90425408473951
 21
94.027260757131444
 31
0.0
  0
LINE
  8
DETAIL
  6
CONTINUOUS
 62
     5
 10
-214.12054577799199
 20
99.495423995840156
 30
0.0
 11
-219.05616038455631
 21
91.559453453798596
 31
0.0
  0
LINE
  8
DETAIL
  6
CONTINUOUS
 62
     5
 10
-201.29744288026311
 20
94.09161328102482
 30
0.0
 11
-214.12054577799199
 21
99.495423995840156
 31
0.0
  0
LINE
  8
DETAIL
  6
CONTINUOUS
 62
     5
 10
-206.23305748682739
 20
86.155642738883671
 30
0.0
 11
-201.29744288026311
 21
94.09161328102482
 31
0.0
  0
LINE
  8
DETAIL
  6
CONTINUOUS
 62
     5
 10
-219.05616038455631
 20
91.559453453798596
 30
0.0
 11
-206.23305748682739
 21
86.155642738883671
 31
0.0
  0
LINE
  8
SIZE
  6
CONTINUOUS
 62
    30
 10
13.471346113925851
 20
201.7885533463996
 30
0.0
 11
13.471346113925851
 21
549.13644396881227
 31
0.0
  0
LINE
  8
SIZE
  6
CONTINUOUS
 62
    30
 10
-49.528653916313942
 20
201.7885533463996
 30
0.0
 11
-49.528653916313942
 21
549.13644396881227
 31
0.0
  0
LINE
  8
SIZE
  6
CONTINUOUS
 62
    30
 10
-61.528653916313942
 20
529.13644396881227
 30
0.0
 11
-73.528653916313942
 21
529.13644396881227
 31
0.0
  0
LINE
  8
SIZE
  6
CONTINUOUS
 62
    30
 10
25.471346113925851
 20
529.13644396881227
 30
0.0
 11
283.30660929653158
 21
529.13644396881227
 31
0.0
  0
LINE
  8
SIZE
  6
CONTINUOUS
 62
    30
 10
-49.528653916313942
 20
529.13644396881227
 30
0.0
 11
13.471346113925851
 21
529.13644396881227
 31
0.0
  0
CIRCLE
  8
SIZE
  6
CONTINUOUS
 62
    30
 10
-49.528653916313942
 20
529.13644396881227
 30
0.0
 40
6.0
  0
LINE
  8
SIZE
  6
CONTINUOUS
 62
    30
 10
-49.528653916313942
 20
529.13644396881227
 30
0.0
 11
-61.528653916313942
 21
529.13644396881227
 31
0.0
  0
CIRCLE
  8
SIZE
  6
CONTINUOUS
 62
    30
 10
13.471346113925851
 20
529.13644396881227
 30
0.0
 40
6.0
  0
LINE
  8
SIZE
  6
CONTINUOUS
 62
    30
 10
13.471346113925851
 20
529.13644396881227
 30
0.0
 11
25.471346113925851
 21
529.13644396881227
 31
0.0
  0
TEXT
  8
SIZE
  6
CONTINUOUS
 62
    30
 10
94.558037867960238
 20
564.80311063547879
 30
0.0
 40
64.0
  1
φ63
 41
0.9
 72
     1
 11
181.50660929653171
 21
564.80311063547879
 31
0.0
  0
POINT
  8
DEFPOINTS
  6
CONTINUOUS
 62
    30
 10
13.471346113925851
 20
181.7885533463996
 30
0.0
  0
POINT
  8
DEFPOINTS
  6
CONTINUOUS
 62
    30
 10
-49.528653916313942
 20
181.7885533463996
 30
0.0
  0
POINT
  8
DEFPOINTS
  6
CONTINUOUS
 62
    30
 10
-49.528653916313942
 20
529.13644396881227
 30
0.0
  0
LINE
  8
SIZE
  6
CONTINUOUS
 62
    30
 10
24.559881782476619
 20
190.30206686399919
 30
0.0
 11
377.43603070600147
 21
190.3020668639991
 31
0.0
  0
LINE
  8
SIZE
  6
CONTINUOUS
 62
    30
 10
131.67726555440001
 20
0.0
 30
0.0
 11
377.43603070600147
 21
-0.0000000000001137
 31
0.0
  0
LINE
  8
SIZE
  6
CONTINUOUS
 62
    30
 10
357.43603070600147
 20
178.3020668639991
 30
0.0
 11
357.43603070600147
 21
11.99999999999989
 31
0.0
  0
CIRCLE
  8
SIZE
  6
CONTINUOUS
 62
    30
 10
357.43603070600147
 20
190.3020668639991
 30
0.0
 40
6.0
  0
LINE
  8
SIZE
  6
CONTINUOUS
 62
    30
 10
357.43603070600147
 20
190.3020668639991
 30
0.0
 11
357.43603070600147
 21
178.3020668639991
 31
0.0
  0
CIRCLE
  8
SIZE
  6
CONTINUOUS
 62
    30
 10
357.43603070600147
 20
-0.0000000000001137
 30
0.0
 40
6.0
  0
LINE
  8
SIZE
  6
CONTINUOUS
 62
    30
 10
357.43603070600147
 20
-0.0000000000001137
 30
0.0
 11
357.43603070600147
 21
11.99999999999989
 31
0.0
  0
TEXT
  8
SIZE
  6
CONTINUOUS
 62
    30
 10
332.43603070600147
 20
16.433284149405029
 30
0.0
 40
64.0
  1
190
 50
90.0
 41
0.9
 72
     1
 11
332.43603070600147
 21
85.004712720833595
 31
0.0
  0
POINT
  8
DEFPOINTS
  6
CONTINUOUS
 62
    30
 10
4.5598817824766229
 20
190.30206686399919
 30
0.0
  0
POINT
  8
DEFPOINTS
  6
CONTINUOUS
 62
    30
 10
111.67726555439999
 20
0.0
 30
0.0
  0
POINT
  8
DEFPOINTS
  6
CONTINUOUS
 62
    30
 10
357.43603070600147
 20
-0.0000000000001137
 30
0.0
  0
ARC
  8
DETAIL
  6
CONTINUOUS
 62
     5
 10
137.94153135610759
 20
164.18675128132799
 30
0.0
 40
3.034674084824097
 50
308.93464959424989
 51
51.065350405750017
  0
ARC
  8
DETAIL
  6
CONTINUOUS
 62
     5
 10
141.4423922333485
 20
159.34117929710831
 30
0.0
 40
2.9521821577980289
 50
122.67421738970479
 51
237.32578261029519
  0
ARC
  8
DETAIL
  6
CONTINUOUS
 62
     5
 10
134.74339344793219
 20
164.2201667984298
 30
0.0
 40
3.034674084824097
 50
308.93464959424989
 51
51.065350405750017
  0
ARC
  8
DETAIL
  6
CONTINUOUS
 62
     5
 10
138.24425432517319
 20
159.37459481421001
 30
0.0
 40
2.9521821577980289
 50
122.67421738970479
 51
237.32578261029519
  0
ARC
  8
DETAIL
  6
CONTINUOUS
 62
     5
 10
5.7216008829707334
 20
168.56220865146361
 30
0.0
 40
0.6067454388638349
 50
30.268955303259819
 51
87.836402011740319
  0
LINE
  8
DETAIL
  6
CONTINUOUS
 62
     5
 10
-48.877583489280369
 20
166.02005531248409
 30
0.0
 11
-46.820586170585102
 21
163.65977750303941
 31
0.0
  0
LINE
  8
DETAIL
  6
CONTINUOUS
 62
     5
 10
-54.187251794954143
 20
180.53091362927719
 30
0.0
 11
-53.12035850208224
 21
180.2817501122627
 31
0.0
  0
LINE
  8
DETAIL
  6
CONTINUOUS
 62
     5
 10
-74.841487809062073
 20
183.29093808479911
 30
0.0
 11
-73.8171701467204
 21
182.7926190036228
 31
0.0
  0
LINE
  8
DETAIL
  6
CONTINUOUS
 62
     5
 10
-69.522285842087967
 20
178.37672815692531
 30
0.0
 11
-71.761183237318164
 21
177.58065060300311
 31
0.0
  0
LINE
  8
DETAIL
  6
CONTINUOUS
 62
     5
 10
-44.198970514836667
 20
169.16852154383969
 30
0.0
 11
-44.694672760035253
 21
168.86804459615919
 31
0.0
  0
LINE
  8
DETAIL
  6
CONTINUOUS
 62
     5
 10
-61.092476467046247
 20
150.78296913460599
 30
0.0
 11
-60.011846189403627
 21
153.24324331679961
 31
0.0
  0
LINE
  8
DETAIL
  6
CONTINUOUS
 62
     5
 10
-207.24489805165879
 20
157.1370794715117
 30
0.0
 11
-210.2937671586968
 21
156.4428146347127
 31
0.0
  0
LINE
  8
DETAIL
  6
CONTINUOUS
 62
     5
 10
-210.08373096425609
 20
156.1030868415119
 30
0.0
 11
-207.1057753499322
 21
156.74257744720629
 31
0.0
  0
ARC
  8
DETAIL
  6
CONTINUOUS
 62
     5
 10
-195.71993920127011
 20
121.3507430049702
 30
0.0
 40
37.998025640809971
 50
112.5532380015616
 51
229.55972556543301
  0
ARC
  8
DETAIL
  6
CONTINUOUS
 62
     5
 10
-195.85566168313571
 20
121.138604583381
 30
0.0
 40
37.748549310503357
 50
112.14284368147111
 51
229.50765095893431
  0
LINE
  8
DETAIL
  6
CONTINUOUS
 62
     5
 10
-209.2550305242703
 20
87.166039657227884
 30
0.0
 11
-204.96356675389549
 21
86.680292299336088
 31
0.0
  0
LINE
  8
OUTLINE
  6
CONTINUOUS
 62
     3
 10
111.67726555439999
 20
0.0
 30
0.0
 11
0.0
 21
0.0
 31
0.0
  0
ARC
  8
OUTLINE
  6
CONTINUOUS
 62
     3
 10
109.67408590320019
 20
-5.007949127961183
 30
0.0
 40
2.003179651200008
 50
270.0
 51
0.0
  0
LINE
  8
OUTLINE
  6
CONTINUOUS
 62
     3
 10
109.67408590320019
 20
-7.0111287791623909
 30
0.0
 11
0.0
 21
-7.0111287791623909
 31
0.0
  0
LINE
  8
OUTLINE
  6
CONTINUOUS
 62
     3
 10
111.67726555439999
 20
0.0000000000381988
 30
0.0
 11
111.67726555439999
 21
-5.007949127961183
 31
0.0
  0
LINE
  8
OUTLINE
  6
CONTINUOUS
 62
     3
 10
-111.67726555439999
 20
-0.0000000000009095
 30
0.0
 11
0.0
 21
0.0
 31
0.0
  0
ARC
  8
OUTLINE
  6
CONTINUOUS
 62
     3
 10
-109.6740859031997
 20
-5.007949127961183
 30
0.0
 40
2.003179651200008
 50
180.0
 51
270.0
  0
LINE
  8
OUTLINE
  6
CONTINUOUS
 62
     3
 10
-109.6740859031997
 20
-7.0111287791623909
 30
0.0
 11
0.0
 21
-7.0111287791623909
 31
0.0
  0
LINE
  8
OUTLINE
  6
CONTINUOUS
 62
     3
 10
-111.67726555439999
 20
0.0000000000381988
 30
0.0
 11
-111.67726555439999
 21
-5.007949127961183
 31
0.0
  0
ARC
  8
OUTLINE
  6
CONTINUOUS
 62
     3
 10
7.9626020731257086
 20
181.7885533463996
 30
0.0
 40
5.5087440408000221
 50
0.0
 51
90.0
  0
ARC
  8
OUTLINE
  6
CONTINUOUS
 62
     3
 10
-44.019909875514259
 20
181.7885533463996
 30
0.0
 40
5.5087440408000221
 50
90.0
 51
180.0
  0
LINE
  8
OUTLINE
  6
CONTINUOUS
 62
     3
 10
7.9625323764958011
 20
187.29729738719931
 30
0.0
 11
5.1115505881966783
 21
187.29729738719931
 31
0.0
  0
LINE
  8
OUTLINE
  6
CONTINUOUS
 62
     3
 10
-49.528653916313942
 20
181.7885533463996
 30
0.0
 11
-49.528653916313942
 21
154.84578703775881
 31
0.0
  0
LINE
  8
OUTLINE
  6
CONTINUOUS
 62
     3
 10
13.471346113925851
 20
181.7885533463996
 30
0.0
 11
13.471346113925851
 21
161.4262840484898
 31
0.0
  0
LINE
  8
OUTLINE
  6
CONTINUOUS
 62
     3
 10
-5.2398068423212862
 20
187.29729738719931
 30
0.0
 11
-44.019766098095722
 21
187.29729738719931
 31
0.0
  0
LINE
  8
OUTLINE
  6
CONTINUOUS
 62
     3
 10
-85.335453141087328
 20
-0.0000000000009095
 30
0.0
 11
-82.188393803830422
 21
182.79888324844069
 31
0.0
  0
LINE
  8
OUTLINE
  6
CONTINUOUS
 62
     3
 10
85.135135176000404
 20
0.0
 30
0.0
 11
84.192432277040552
 21
54.007412911322263
 31
0.0
  0
ARC
  8
OUTLINE
  6
CONTINUOUS
 62
     3
 10
-53.785373634720138
 20
179.5327928023257
 30
0.0
 40
1.0015898256000391
 50
0.0
 51
48.39744545438792
  0
ARC
  8
OUTLINE
  6
CONTINUOUS
 62
     3
 10
32.852146279679801
 20
155.74721788079981
 30
0.0
 40
0.5007949128000037
 50
0.0
 51
90.0
  0
LINE
  8
OUTLINE
  6
CONTINUOUS
 62
     3
 10
-52.783783809120003
 20
178.52280285118971
 30
0.0
 11
-69.522285842087967
 21
178.37672815692531
 31
0.0
  0
LINE
  8
OUTLINE
  6
CONTINUOUS
 62
     3
 10
-42.267090640320021
 20
156.2480127935992
 30
0.0
 11
32.852146279679801
 21
156.2480127935992
 31
0.0
  0
LINE
  8
OUTLINE
  6
CONTINUOUS
 62
     3
 10
-52.783783809120003
 20
178.52280285118971
 30
0.0
 11
-52.783783809120003
 21
184.79332282319911
 31
0.0
  0
LINE
  8
OUTLINE
  6
CONTINUOUS
 62
     3
 10
57.29231631638595
 20
127.1813976662402
 30
0.0
 11
58.017647545645097
 21
85.627189873937823
 31
0.0
  0
ARC
  8
OUTLINE
  6
CONTINUOUS
 62
     3
 10
-81.687666475807873
 20
182.79014317199929
 30
0.0
 40
0.5007949128001109
 50
90.0
 51
179.00001734861749
  0
ARC
  8
OUTLINE
  6
CONTINUOUS
 62
     3
 10
-72.014308460639768
 20
187.13036574966651
 30
0.0
 40
0.5007949128000037
 50
143.13010235419509
 51
180.0
  0
ARC
  8
OUTLINE
  6
CONTINUOUS
 62
     3
 10
-70.011128809439924
 20
189.8012719511994
 30
0.0
 40
0.5007949127999499
 50
90.0
 51
143.13010235540011
  0
ARC
  8
OUTLINE
  6
CONTINUOUS
 62
     3
 10
-75.319554885119942
 20
184.79332282319911
 30
0.0
 40
0.5007949128000037
 50
90.0
 51
180.0
  0
ARC
  8
OUTLINE
  6
CONTINUOUS
 62
     3
 10
-60.496025466240098
 20
189.8012719511994
 30
0.0
 40
0.5007949128000037
 50
36.86989764580494
 51
90.0
  0
ARC
  8
OUTLINE
  6
CONTINUOUS
 62
     3
 10
-58.4928458150398
 20
187.13036574966651
 30
0.0
 40
0.5007949127998891
 50
0.0
 51
36.86989764580494
  0
ARC
  8
OUTLINE
  6
CONTINUOUS
 62
     3
 10
-53.284578721920298
 20
184.79332282319911
 30
0.0
 40
0.5007949128000037
 50
0.0
 51
90.0
  0
ARC
  8
OUTLINE
  6
CONTINUOUS
 62
     3
 10
-57.491255989440113
 20
168.30371689313009
 30
0.0
 40
0.5007949127999392
 50
180.0
 51
188.36588612400109
  0
ARC
  8
OUTLINE
  6
CONTINUOUS
 62
     3
 10
-85.901129929655781
 20
83.632744951090899
 30
0.0
 40
0.5007949128001502
 50
90.0
 51
177.99937190551009
  0
ARC
  8
OUTLINE
  6
CONTINUOUS
 62
     3
 10
-87.055347223150875
 20
50.580286192799583
 30
0.0
 40
0.5007949128000037
 50
178.00000000002251
 51
270.0
  0
ARC
  8
OUTLINE
  6
CONTINUOUS
 62
     3
 10
-96.152623257599771
 20
43.068362500799587
 30
0.0
 40
175.2782194799999
 50
29.116422074502118
 51
38.549344289805362
  0
ARC
  8
OUTLINE
  6
CONTINUOUS
 62
     3
 10
3.8060413372800208
 20
156.34817177615921
 30
0.0
 40
1.001589825600004
 50
354.25402693882052
 51
0.0
  0
ARC
  8
OUTLINE
  6
CONTINUOUS
 62
     3
 10
13.020667732800121
 20
160.33403348929369
 30
0.0
 40
1.0015898255999429
 50
0.0
 51
35.5376777919953
  0
ARC
  8
OUTLINE
  6
CONTINUOUS
 62
     3
 10
24.538950727200241
 20
156.9491256715196
 30
0.0
 40
0.5007949128000037
 50
0.0
 51
90.0
  0
ARC
  8
OUTLINE
  6
CONTINUOUS
 62
     3
 10
24.538950727200241
 20
158.15103346223989
 30
0.0
 40
0.5007949127999499
 50
270.0
 51
0.0
  0
ARC
  8
OUTLINE
  6
CONTINUOUS
 62
     3
 10
14.523052471200121
 20
165.062003258879
 30
0.0
 40
0.5007949127999499
 50
90.0
 51
180.00000130830489
  0
ARC
  8
OUTLINE
  6
CONTINUOUS
 62
     3
 10
24.538950727200241
 20
165.062003258879
 30
0.0
 40
0.5007949127999499
 50
359.9999986919035
 51
90.0
  0
ARC
  8
OUTLINE
  6
CONTINUOUS
 62
     3
 10
38.969231574109017
 20
150.73926875279949
 30
0.0
 40
2.5039745640000111
 50
38.549329029017727
 51
90.0
  0
ARC
  8
OUTLINE
  6
CONTINUOUS
 62
     3
 10
75.142478337750617
 20
83.131955524799196
 30
0.0
 40
2.0031796511999538
 50
13.495720897491539
 51
90.0
  0
LINE
  8
OUTLINE
  6
CONTINUOUS
 62
     3
 10
-155.44674093312011
 20
163.6087712524122
 30
0.0
 11
-148.5979577816706
 21
170.4575544038621
 31
0.0
  0
LINE
  8
OUTLINE
  6
CONTINUOUS
 62
     3
 10
-148.59775014258409
 20
170.2029224712692
 30
0.0
 11
-148.5979577816706
 21
170.4575544038621
 31
0.0
  0
LINE
  8
OUTLINE
  6
CONTINUOUS
 62
     3
 10
-70.011128809439924
 20
190.30206686399919
 30
0.0
 11
-60.496025466240098
 21
190.30206686399919
 31
0.0
  0
LINE
  8
OUTLINE
  6
CONTINUOUS
 62
     3
 10
-53.284578721920298
 20
185.29411773599941
 30
0.0
 11
-75.319554885119942
 21
185.29411773599941
 31
0.0
  0
LINE
  8
OUTLINE
  6
CONTINUOUS
 62
     3
 10
-81.687675164499524
 20
183.29093808479911
 30
0.0
 11
-74.841487809062073
 21
183.29093808479911
 31
0.0
  0
LINE
  8
OUTLINE
  6
CONTINUOUS
 62
     3
 10
-72.414944390880009
 20
187.43084269734661
 30
0.0
 11
-70.411764739680166
 21
190.10174889887909
 31
0.0
  0
LINE
  8
OUTLINE
  6
CONTINUOUS
 62
     3
 10
-125.3990461655208
 20
170.66000823845161
 30
0.0
 11
-82.345898204290734
 21
171.27148762534631
 31
0.0
  0
LINE
  8
OUTLINE
  6
CONTINUOUS
 62
     3
 10
-125.3990461651201
 20
170.66000823845161
 30
0.0
 11
-148.5979577816706
 21
170.4575544038621
 31
0.0
  0
LINE
  8
OUTLINE
  6
CONTINUOUS
 62
     3
 10
14.523052471200121
 20
165.5627981716793
 30
0.0
 11
24.538950727200241
 21
165.5627981716793
 31
0.0
  0
LINE
  8
OUTLINE
  6
CONTINUOUS
 62
     3
 10
-155.44674093312011
 20
163.6087712524122
 30
0.0
 11
-185.49443570112041
 21
163.25914157279931
 31
0.0
  0
LINE
  8
OUTLINE
  6
CONTINUOUS
 62
     3
 10
25.039745640000088
 20
157.95071549711969
 30
0.0
 11
24.997936846315039
 21
157.95071549711969
 31
0.0
  0
LINE
  8
OUTLINE
  6
CONTINUOUS
 62
     3
 10
22.034976163200099
 20
157.65023854943959
 30
0.0
 11
24.538950727200241
 21
157.65023854943959
 31
0.0
  0
LINE
  8
OUTLINE
  6
CONTINUOUS
 62
     3
 10
24.538950727200241
 20
157.44992058431939
 30
0.0
 11
22.034976163200099
 21
157.44992058431939
 31
0.0
  0
LINE
  8
OUTLINE
  6
CONTINUOUS
 62
     3
 10
25.039745640000088
 20
157.14944363663881
 30
0.0
 11
24.997936846315039
 21
157.14944363663881
 31
0.0
  0
LINE
  8
OUTLINE
  6
CONTINUOUS
 62
     3
 10
-45.271860117120013
 20
154.84578703775881
 30
0.0
 11
-51.882336200167629
 21
154.84578703775881
 31
0.0
  0
LINE
  8
OUTLINE
  6
CONTINUOUS
 62
     3
 10
-45.271860117120013
 20
153.24324331679961
 30
0.0
 11
-64.101748838399544
 21
153.24324331679961
 31
0.0
  0
LINE
  8
OUTLINE
  6
CONTINUOUS
 62
     3
 10
38.969231574109017
 20
153.24324331679961
 30
0.0
 11
33.352941192480102
 21
153.24324331679961
 31
0.0
  0
LINE
  8
OUTLINE
  6
CONTINUOUS
 62
     3
 10
-86.401619580212355
 20
83.650227928056211
 30
0.0
 11
-87.555837065211108
 21
50.597763683256737
 31
0.0
  0
LINE
  8
OUTLINE
  6
CONTINUOUS
 62
     3
 10
-75.820349797919789
 20
183.29093808479911
 30
0.0
 11
-75.820349797919789
 21
184.79332282319911
 31
0.0
  0
LINE
  8
OUTLINE
  6
CONTINUOUS
 62
     3
 10
-72.51510337344007
 20
185.29411773599941
 30
0.0
 11
-72.51510337344007
 21
187.13036574966651
 31
0.0
  0
LINE
  8
OUTLINE
  6
CONTINUOUS
 62
     3
 10
-82.279910281825323
 20
177.3473501245476
 30
0.0
 11
-82.281369231017834
 21
177.4723245936807
 31
0.0
  0
LINE
  8
OUTLINE
  6
CONTINUOUS
 62
     3
 10
-82.273565267169943
 20
177.2210192110274
 30
0.0
 11
-82.279910281825323
 21
177.3473501245476
 31
0.0
  0
LINE
  8
OUTLINE
  6
CONTINUOUS
 62
     3
 10
-82.261974533975263
 20
177.0933749310984
 30
0.0
 11
-82.273565267169943
 21
177.2210192110274
 31
0.0
  0
LINE
  8
OUTLINE
  6
CONTINUOUS
 62
     3
 10
-57.992050902239953
 20
178.4773509927609
 30
0.0
 11
-57.992050902239953
 21
168.30371689313009
 31
0.0
  0
LINE
  8
OUTLINE
  6
CONTINUOUS
 62
     3
 10
-57.992050902239953
 20
187.13036574966651
 30
0.0
 11
-57.992050902239953
 21
185.29411773599941
 31
0.0
  0
LINE
  8
OUTLINE
  6
CONTINUOUS
 62
     3
 10
-57.986722011380607
 20
168.23085424289459
 30
0.0
 11
-55.782661581069533
 21
153.24324331679961
 31
0.0
  0
LINE
  8
OUTLINE
  6
CONTINUOUS
 62
     3
 10
-57.992050902239953
 20
168.30371689313009
 30
0.0
 11
-57.986722011380607
 21
168.23085424289459
 31
0.0
  0
LINE
  8
OUTLINE
  6
CONTINUOUS
 62
     3
 10
-52.783783809120003
 20
179.5327928023257
 30
0.0
 11
-52.783783809120003
 21
184.79332282319911
 31
0.0
  0
LINE
  8
OUTLINE
  6
CONTINUOUS
 62
     3
 10
-51.882352966079907
 20
153.24324331679961
 30
0.0
 11
-51.882352966079907
 21
154.84578703775881
 31
0.0
  0
LINE
  8
OUTLINE
  6
CONTINUOUS
 62
     3
 10
77.090346944615249
 20
83.599442244135389
 30
0.0
 11
77.074582458214081
 21
83.599262716069461
 31
0.0
  0
LINE
  8
OUTLINE
  6
CONTINUOUS
 62
     3
 10
75.142480192895164
 20
85.135135175999494
 30
0.0
 11
-64.101748838399544
 21
85.135135175999494
 31
0.0
  0
LINE
  8
OUTLINE
  6
CONTINUOUS
 62
     3
 10
-83.866896644357439
 20
84.1335453503998
 30
0.0
 11
-85.901129738151667
 21
84.1335453503998
 31
0.0
  0
LINE
  8
OUTLINE
  6
CONTINUOUS
 62
     3
 10
-87.082334542678382
 20
64.157101848345974
 30
0.0
 11
-185.49443570112041
 21
65.103338663999239
 31
0.0
  0
LINE
  8
OUTLINE
  6
CONTINUOUS
 62
     3
 10
-87.055347223150875
 20
50.079491280000177
 30
0.0
 11
-84.461312369266579
 21
50.079491280000177
 31
0.0
  0
LINE
  8
OUTLINE
  6
CONTINUOUS
 62
     3
 10
-60.095389535999857
 20
190.10174889887909
 30
0.0
 11
-58.092209884800013
 21
187.43084269734661
 31
0.0
  0
LINE
  8
OUTLINE
  6
CONTINUOUS
 62
     3
 10
14.02225755839982
 20
157.44992058431939
 30
0.0
 11
14.02225755839982
 21
165.06200323524169
 31
0.0
  0
LINE
  8
OUTLINE
  6
CONTINUOUS
 62
     3
 10
22.034976163200099
 20
156.2480127935992
 30
0.0
 11
22.034976163200099
 21
157.65023854943959
 31
0.0
  0
LINE
  8
OUTLINE
  6
CONTINUOUS
 62
     3
 10
25.039745640000088
 20
158.15103346223989
 30
0.0
 11
25.039745640000088
 21
165.06200323524169
 31
0.0
  0
LINE
  8
OUTLINE
  6
CONTINUOUS
 62
     3
 10
25.039745640000088
 20
156.2480127935992
 30
0.0
 11
25.039745640000088
 21
156.9491256715196
 31
0.0
  0
LINE
  8
OUTLINE
  6
CONTINUOUS
 62
     3
 10
33.352941192480102
 20
155.74721788079981
 30
0.0
 11
33.352941192480102
 21
85.635930088799341
 31
0.0
  0
LINE
  8
OUTLINE
  6
CONTINUOUS
 62
     3
 10
13.835694898304149
 20
160.91619575035341
 30
0.0
 11
9.3138995479002915
 21
167.24670924099931
 31
0.0
  0
LINE
  8
OUTLINE
  6
CONTINUOUS
 62
     3
 10
5.0523052478606587
 20
171.67249610783981
 30
0.0
 11
5.057908116906674
 21
171.66392738248439
 31
0.0
  0
LINE
  8
OUTLINE
  6
CONTINUOUS
 62
     3
 10
57.292313375817677
 20
127.18156613144581
 30
0.0
 11
57.290974149160768
 21
127.1838457887507
 31
0.0
  0
LINE
  8
OUTLINE
  6
CONTINUOUS
 62
     3
 10
57.291279093199591
 20
127.22175035084
 30
0.0
 11
57.29230886946516
 21
127.1813975270188
 31
0.0
  0
LINE
  8
OUTLINE
  6
CONTINUOUS
 62
     3
 10
57.276806310821939
 20
127.41928804483
 30
0.0
 11
57.291279093199591
 21
127.22175035084
 31
0.0
  0
LINE
  8
OUTLINE
  6
CONTINUOUS
 62
     3
 10
57.246765563381359
 20
127.6150636543598
 30
0.0
 11
57.276806310821939
 21
127.41928804483
 31
0.0
  0
LINE
  8
OUTLINE
  6
CONTINUOUS
 62
     3
 10
57.20134486771758
 20
127.80785215143941
 30
0.0
 11
57.246765563381359
 21
127.6150636543598
 31
0.0
  0
LINE
  8
OUTLINE
  6
CONTINUOUS
 62
     3
 10
57.140828430151487
 20
127.99644738053669
 30
0.0
 11
57.20134486771758
 21
127.80785215143941
 31
0.0
  0
LINE
  8
OUTLINE
  6
CONTINUOUS
 62
     3
 10
57.065594880081328
 20
128.179669405135
 30
0.0
 11
57.140828430151487
 21
127.99644738053669
 31
0.0
  0
LINE
  8
OUTLINE
  6
CONTINUOUS
 62
     3
 10
56.976272536341177
 20
128.3560889162886
 30
0.0
 11
57.065594880081328
 21
128.179669405135
 31
0.0
  0
LINE
  8
OUTLINE
  6
CONTINUOUS
 62
     3
 10
84.192425741266561
 20
54.007447258140473
 30
0.0
 11
77.090346649346884
 21
83.599443474387499
 31
0.0
  0
LINE
  8
OUTLINE
  6
CONTINUOUS
 62
     3
 10
-185.49443570112041
 20
163.25908190979641
 30
0.0
 11
-185.49443570112041
 21
65.103398327003106
 31
0.0
  0
LINE
  8
OUTLINE
  6
CONTINUOUS
 62
     3
 10
-128.14751739227859
 20
64.157101848345974
 30
0.0
 11
-88.083924368278531
 21
64.157101848345974
 31
0.0
  0
LINE
  8
OUTLINE
  6
CONTINUOUS
 62
     3
 10
4.5598817824766229
 20
190.30206686399919
 30
0.0
 11
-4.5756125511579739
 21
190.30206686399919
 31
0.0
  0
LINE
  8
OUTLINE
  6
CONTINUOUS
 62
     3
 10
-7.4029645617470123
 20
177.57957884667849
 30
0.0
 11
-8.7365708505653856
 21
171.67249610783981
 31
0.0
  0
LINE
  8
OUTLINE
  6
CONTINUOUS
 62
     3
 10
-5.9791038378780286
 20
183.95276842015801
 30
0.0
 11
-7.4029645617470123
 21
177.57957884667849
 31
0.0
  0
LINE
  8
OUTLINE
  6
CONTINUOUS
 62
     3
 10
-4.5756125511579739
 20
190.30206686399919
 30
0.0
 11
-5.9791038378780286
 21
183.95276842015801
 31
0.0
  0
LINE
  8
OUTLINE
  6
CONTINUOUS
 62
     3
 10
-5.4591420869160174
 20
184.24459923200951
 30
0.0
 11
-4.1183164306808067
 21
190.30206686399919
 31
0.0
  0
LINE
  8
OUTLINE
  6
CONTINUOUS
 62
     3
 10
-6.8632273917219209
 20
177.96868659581239
 30
0.0
 11
-5.4591420869160174
 21
184.24459923200951
 31
0.0
  0
LINE
  8
OUTLINE
  6
CONTINUOUS
 62
     3
 10
-8.2857981598422157
 20
171.67249610783981
 30
0.0
 11
-6.8632273917219209
 21
177.96868659581239
 31
0.0
  0
LINE
  8
OUTLINE
  6
CONTINUOUS
 62
     3
 10
0.0232953038839696
 20
171.67249610783981
 30
0.0
 11
0.0232953038839696
 21
190.30206686399919
 31
0.0
  0
LINE
  8
OUTLINE
  6
CONTINUOUS
 62
     3
 10
0.2852265180417817
 20
190.30206686399919
 30
0.0
 11
3.1637079956399252
 21
171.67249610783981
 31
0.0
  0
LINE
  8
OUTLINE
  6
CONTINUOUS
 62
     3
 10
4.4515030665165796
 20
171.67249610783981
 30
0.0
 11
1.573021588918891
 21
190.30206686399919
 31
0.0
  0
LINE
  8
OUTLINE
  6
CONTINUOUS
 62
     3
 10
6.7729557634797857
 20
177.97956487562811
 30
0.0
 11
7.8351848668312414
 21
171.67249610783981
 31
0.0
  0
LINE
  8
OUTLINE
  6
CONTINUOUS
 62
     3
 10
5.6705210692116452
 20
184.25275794184611
 30
0.0
 11
6.7729557634797857
 21
177.97956487562811
 31
0.0
  0
LINE
  8
OUTLINE
  6
CONTINUOUS
 62
     3
 10
4.5598817824766229
 20
190.30206686399919
 30
0.0
 11
5.6705210692116452
 21
184.25275794184611
 31
0.0
  0
LINE
  8
OUTLINE
  6
CONTINUOUS
 62
     3
 10
-74.841487809062073
 20
183.29093808479911
 30
0.0
 11
-73.8171701467204
 21
182.7926190036228
 31
0.0
  0
LINE
  8
OUTLINE
  6
CONTINUOUS
 62
     3
 10
-69.522285842087967
 20
178.37672815692531
 30
0.0
 11
-71.761183237318164
 21
177.58065060300311
 31
0.0
  0
LINE
  8
SIZE
  6
CONTINUOUS
 62
    30
 10
-85.335453141087328
 20
20.0
 30
0.0
 11
-85.335453141087328
 21
692.06335647299329
 31
0.0
  0
LINE
  8
SIZE
  6
CONTINUOUS
 62
    30
 10
85.135135176000404
 20
20.0
 30
0.0
 11
85.135135176000404
 21
692.06335647299329
 31
0.0
  0
LINE
  8
SIZE
  6
CONTINUOUS
 62
    30
 10
-73.335453141087328
 20
672.06335647299329
 30
0.0
 11
73.135135176000404
 21
672.06335647299329
 31
0.0
  0
LINE
  8
SIZE
  6
CONTINUOUS
 62
    30
 10
85.135135176000404
 20
672.06335647299329
 30
0.0
 11
349.55799231885771
 21
672.06335647299329
 31
0.0
  0
CIRCLE
  8
SIZE
  6
CONTINUOUS
 62
    30
 10
-85.335453141087328
 20
672.06335647299329
 30
0.0
 40
6.0
  0
LINE
  8
SIZE
  6
CONTINUOUS
 62
    30
 10
-85.335453141087328
 20
672.06335647299329
 30
0.0
 11
-73.335453141087328
 21
672.06335647299329
 31
0.0
  0
CIRCLE
  8
SIZE
  6
CONTINUOUS
 62
    30
 10
85.135135176000404
 20
672.06335647299329
 30
0.0
 40
6.0
  0
LINE
  8
SIZE
  6
CONTINUOUS
 62
    30
 10
85.135135176000404
 20
672.06335647299329
 30
0.0
 11
73.135135176000404
 21
672.06335647299329
 31
0.0
  0
TEXT
  8
SIZE
  6
CONTINUOUS
 62
    30
 10
118.2951351760004
 20
697.06335647299329
 30
0.0
 40
64.0
  1
□170
 41
0.9
 72
     1
 11
223.34656374742889
 21
697.06335647299329
 31
0.0
  0
POINT
  8
DEFPOINTS
  6
CONTINUOUS
 62
    30
 10
-85.335453141087328
 20
0.0
 30
0.0
  0
POINT
  8
DEFPOINTS
  6
CONTINUOUS
 62
    30
 10
85.135135176000404
 20
0.0
 30
0.0
  0
POINT
  8
DEFPOINTS
  6
CONTINUOUS
 62
    30
 10
85.135135176000404
 20
672.06335647299329
 30
0.0
  0
LINE
  8
SIZE
  6
CONTINUOUS
 62
    30
 10
151.67726555440001
 20
0.0
 30
0.0
 11
377.43603070600147
 21
-0.0000000000001137
 31
0.0
  0
LINE
  8
SIZE
  6
CONTINUOUS
 62
    30
 10
129.67408590320019
 20
-7.0111287791623909
 30
0.0
 11
377.43603070600147
 21
-7.0111287791625054
 31
0.0
  0
LINE
  8
SIZE
  6
CONTINUOUS
 62
    30
 10
357.43603070600147
 20
11.99999999999989
 30
0.0
 11
357.43603070600147
 21
23.99999999999989
 31
0.0
  0
LINE
  8
SIZE
  6
CONTINUOUS
 62
    30
 10
357.43603070600147
 20
-19.011128779162451
 30
0.0
 11
357.43603070600147
 21
-136.56231239002881
 31
0.0
  0
LINE
  8
SIZE
  6
CONTINUOUS
 62
    30
 10
357.43603070600147
 20
-0.0000000000001137
 30
0.0
 11
357.43603070600147
 21
-7.0111287791625054
 31
0.0
  0
CIRCLE
  8
SIZE
  6
CONTINUOUS
 62
    30
 10
357.43603070600147
 20
-0.0000000000001137
 30
0.0
 40
6.0
  0
LINE
  8
SIZE
  6
CONTINUOUS
 62
    30
 10
357.43603070600147
 20
-0.0000000000001137
 30
0.0
 11
357.43603070600147
 21
11.99999999999989
 31
0.0
  0
CIRCLE
  8
SIZE
  6
CONTINUOUS
 62
    30
 10
357.43603070600147
 20
-7.0111287791625054
 30
0.0
 40
6.0
  0
LINE
  8
SIZE
  6
CONTINUOUS
 62
    30
 10
357.43603070600147
 20
-7.0111287791625054
 30
0.0
 11
357.43603070600147
 21
-19.011128779162451
 31
0.0
  0
TEXT
  8
SIZE
  6
CONTINUOUS
 62
    30
 10
332.43603070600147
 20
-111.56231239002879
 30
0.0
 40
64.0
  1
7
 50
90.0
 41
0.9
 72
     1
 11
332.43603070600147
 21
-92.362312390028762
 31
0.0
  0
POINT
  8
DEFPOINTS
  6
CONTINUOUS
 62
    30
 10
131.67726555440001
 20
0.0
 30
0.0
  0
POINT
  8
DEFPOINTS
  6
CONTINUOUS
 62
    30
 10
109.67408590320019
 20
-7.0111287791623909
 30
0.0
  0
POINT
  8
DEFPOINTS
  6
CONTINUOUS
 62
    30
 10
357.43603070600147
 20
-7.0111287791625054
 30
0.0
  0
LINE
  8
SIZE
  6
CONTINUOUS
 62
    30
 10
-85.335453141087328
 20
19.999999999999091
 30
0.0
 11
-85.335453141087328
 21
692.06335647299329
 31
0.0
  0
LINE
  8
SIZE
  6
CONTINUOUS
 62
    30
 10
-185.49443570112041
 20
183.25914157279931
 30
0.0
 11
-185.49443570112041
 21
692.06335647299329
 31
0.0
  0
LINE
  8
SIZE
  6
CONTINUOUS
 62
    30
 10
-97.335453141087328
 20
672.06335647299329
 30
0.0
 11
-173.49443570112041
 21
672.06335647299329
 31
0.0
  0
CIRCLE
  8
SIZE
  6
CONTINUOUS
 62
    30
 10
-85.335453141087328
 20
672.06335647299329
 30
0.0
 40
6.0
  0
LINE
  8
SIZE
  6
CONTINUOUS
 62
    30
 10
-85.335453141087328
 20
672.06335647299329
 30
0.0
 11
-97.335453141087328
 21
672.06335647299329
 31
0.0
  0
CIRCLE
  8
SIZE
  6
CONTINUOUS
 62
    30
 10
-185.49443570112041
 20
672.06335647299329
 30
0.0
 40
6.0
  0
LINE
  8
SIZE
  6
CONTINUOUS
 62
    30
 10
-185.49443570112041
 20
672.06335647299329
 30
0.0
 11
-173.49443570112041
 21
672.06335647299329
 31
0.0
  0
TEXT
  8
SIZE
  6
CONTINUOUS
 62
    30
 10
-203.98637299253241
 20
697.06335647299329
 30
0.0
 40
64.0
  1
100
 41
0.9
 72
     1
 11
-135.41494442110391
 21
697.06335647299329
 31
0.0
  0
POINT
  8
DEFPOINTS
  6
CONTINUOUS
 62
    30
 10
-85.335453141087328
 20
-0.0000000000009095
 30
0.0
  0
POINT
  8
DEFPOINTS
  6
CONTINUOUS
 62
    30
 10
-185.49443570112041
 20
163.25914157279931
 30
0.0
  0
POINT
  8
DEFPOINTS
  6
CONTINUOUS
 62
    30
 10
-185.49443570112041
 20
672.06335647299329
 30
0.0
  0
LINE
  8
SIZE
  6
CONTINUOUS
 62
    30
 10
-155.44674093312011
 20
183.6087712524122
 30
0.0
 11
-155.44674093312011
 21
421.15509923503942
 31
0.0
  0
LINE
  8
SIZE
  6
CONTINUOUS
 62
    30
 10
-185.49443570112041
 20
183.25914157279931
 30
0.0
 11
-185.49443570112041
 21
421.15509923503942
 31
0.0
  0
LINE
  8
SIZE
  6
CONTINUOUS
 62
    30
 10
-143.44674093312011
 20
401.15509923503942
 30
0.0
 11
-131.44674093312011
 21
401.15509923503942
 31
0.0
  0
LINE
  8
SIZE
  6
CONTINUOUS
 62
    30
 10
-197.49443570112041
 20
401.15509923503942
 30
0.0
 11
-390.41409431514239
 21
401.15509923503942
 31
0.0
  0
LINE
  8
SIZE
  6
CONTINUOUS
 62
    30
 10
-155.44674093312011
 20
401.15509923503942
 30
0.0
 11
-185.49443570112041
 21
401.15509923503942
 31
0.0
  0
CIRCLE
  8
SIZE
  6
CONTINUOUS
 62
    30
 10
-155.44674093312011
 20
401.15509923503942
 30
0.0
 40
6.0
  0
LINE
  8
SIZE
  6
CONTINUOUS
 62
    30
 10
-155.44674093312011
 20
401.15509923503942
 30
0.0
 11
-143.44674093312011
 21
401.15509923503942
 31
0.0
  0
CIRCLE
  8
SIZE
  6
CONTINUOUS
 62
    30
 10
-185.49443570112041
 20
401.15509923503942
 30
0.0
 40
6.0
  0
LINE
  8
SIZE
  6
CONTINUOUS
 62
    30
 10
-185.49443570112041
 20
401.15509923503942
 30
0.0
 11
-197.49443570112041
 21
401.15509923503942
 31
0.0
  0
TEXT
  8
SIZE
  6
CONTINUOUS
 62
    30
 10
-365.41409431514251
 20
426.15509923503942
 30
0.0
 40
64.0
  1
30
 41
0.9
 72
     1
 11
-318.78552288657107
 21
426.15509923503942
 31
0.0
  0
POINT
  8
DEFPOINTS
  6
CONTINUOUS
 62
    30
 10
-155.44674093312011
 20
163.6087712524122
 30
0.0
  0
POINT
  8
DEFPOINTS
  6
CONTINUOUS
 62
    30
 10
-185.49443570112041
 20
163.25914157279931
 30
0.0
  0
POINT
  8
DEFPOINTS
  6
CONTINUOUS
 62
    30
 10
-185.49443570112041
 20
401.15509923503942
 30
0.0
  0
LINE
  8
SIZE
  6
CONTINUOUS
 62
    30
 10
-125.3990461655208
 20
190.66000823845161
 30
0.0
 11
-125.3990461655208
 21
549.13644396881227
 31
0.0
  0
LINE
  8
SIZE
  6
CONTINUOUS
 62
    30
 10
-185.49443570112041
 20
183.25914157279931
 30
0.0
 11
-185.49443570112041
 21
549.13644396881227
 31
0.0
  0
LINE
  8
SIZE
  6
CONTINUOUS
 62
    30
 10
-113.3990461655208
 20
529.13644396881227
 30
0.0
 11
-101.3990461655208
 21
529.13644396881227
 31
0.0
  0
LINE
  8
SIZE
  6
CONTINUOUS
 62
    30
 10
-197.49443570112041
 20
529.13644396881227
 30
0.0
 11
-375.56460995028459
 21
529.13644396881227
 31
0.0
  0
LINE
  8
SIZE
  6
CONTINUOUS
 62
    30
 10
-125.3990461655208
 20
529.13644396881227
 30
0.0
 11
-185.49443570112041
 21
529.13644396881227
 31
0.0
  0
CIRCLE
  8
SIZE
  6
CONTINUOUS
 62
    30
 10
-125.3990461655208
 20
529.13644396881227
 30
0.0
 40
6.0
  0
LINE
  8
SIZE
  6
CONTINUOUS
 62
    30
 10
-125.3990461655208
 20
529.13644396881227
 30
0.0
 11
-113.3990461655208
 21
529.13644396881227
 31
0.0
  0
CIRCLE
  8
SIZE
  6
CONTINUOUS
 62
    30
 10
-185.49443570112041
 20
529.13644396881227
 30
0.0
 40
6.0
  0
LINE
  8
SIZE
  6
CONTINUOUS
 62
    30
 10
-185.49443570112041
 20
529.13644396881227
 30
0.0
 11
-197.49443570112041
 21
529.13644396881227
 31
0.0
  0
TEXT
  8
SIZE
  6
CONTINUOUS
 62
    30
 10
-350.56460995028471
 20
554.13644396881227
 30
0.0
 40
64.0
  1
60
 41
0.9
 72
     1
 11
-303.93603852171327
 21
554.13644396881227
 31
0.0
  0
POINT
  8
DEFPOINTS
  6
CONTINUOUS
 62
    30
 10
-125.3990461655208
 20
170.66000823845161
 30
0.0
  0
POINT
  8
DEFPOINTS
  6
CONTINUOUS
 62
    30
 10
-185.49443570112041
 20
163.25914157279931
 30
0.0
  0
POINT
  8
DEFPOINTS
  6
CONTINUOUS
 62
    30
 10
-185.49443570112041
 20
529.13644396881227
 30
0.0
  0
LINE
  8
SIZE
  6
CONTINUOUS
 62
    30
 10
-185.49443570112041
 20
183.25914157279931
 30
0.0
 11
-185.49443570112041
 21
692.06335647299329
 31
0.0
  0
LINE
  8
SIZE
  6
CONTINUOUS
 62
    30
 10
-233.71737266577841
 20
141.13860458338101
 30
0.0
 11
-233.71737266577841
 21
692.06335647299329
 31
0.0
  0
LINE
  8
SIZE
  6
CONTINUOUS
 62
    30
 10
-173.49443570112041
 20
672.06335647299329
 30
0.0
 11
-161.49443570112041
 21
672.06335647299329
 31
0.0
  0
LINE
  8
SIZE
  6
CONTINUOUS
 62
    30
 10
-245.71737266577841
 20
672.06335647299329
 30
0.0
 11
-482.71165838006408
 21
672.06335647299329
 31
0.0
  0
LINE
  8
SIZE
  6
CONTINUOUS
 62
    30
 10
-185.49443570112041
 20
672.06335647299329
 30
0.0
 11
-233.71737266577841
 21
672.06335647299329
 31
0.0
  0
CIRCLE
  8
SIZE
  6
CONTINUOUS
 62
    30
 10
-185.49443570112041
 20
672.06335647299329
 30
0.0
 40
6.0
  0
LINE
  8
SIZE
  6
CONTINUOUS
 62
    30
 10
-185.49443570112041
 20
672.06335647299329
 30
0.0
 11
-173.49443570112041
 21
672.06335647299329
 31
0.0
  0
CIRCLE
  8
SIZE
  6
CONTINUOUS
 62
    30
 10
-233.71737266577841
 20
672.06335647299329
 30
0.0
 40
6.0
  0
LINE
  8
SIZE
  6
CONTINUOUS
 62
    30
 10
-233.71737266577841
 20
672.06335647299329
 30
0.0
 11
-245.71737266577841
 21
672.06335647299329
 31
0.0
  0
TEXT
  8
SIZE
  6
CONTINUOUS
 62
    30
 10
-484.59165838006402
 20
697.06335647299329
 30
0.0
 40
64.0
  1
（48）
 41
0.9
 72
     1
 11
-370.21451552292109
 21
697.06335647299329
 31
0.0
  0
POINT
  8
DEFPOINTS
  6
CONTINUOUS
 62
    30
 10
-185.49443570112041
 20
163.25914157279931
 30
0.0
  0
POINT
  8
DEFPOINTS
  6
CONTINUOUS
 62
    30
 10
-233.71737266577841
 20
121.138604583381
 30
0.0
  0
POINT
  8
DEFPOINTS
  6
CONTINUOUS
 62
    30
 10
-233.71737266577841
 20
672.06335647299329
 30
0.0
  0
LINE
  8
SIZE
  6
CONTINUOUS
 62
    30
 10
-205.49443570112041
 20
163.25914157279931
 30
0.0
 11
-340.91945317913718
 21
163.25914157279939
 31
0.0
  0
LINE
  8
SIZE
  6
CONTINUOUS
 62
    30
 10
-205.49443570112041
 20
65.103338663999239
 30
0.0
 11
-340.91945317913718
 21
65.103338663999239
 31
0.0
  0
LINE
  8
SIZE
  6
CONTINUOUS
 62
    30
 10
-320.91945317913718
 20
77.103338663999239
 30
0.0
 11
-320.91945317913718
 21
151.25914157279939
 31
0.0
  0
LINE
  8
SIZE
  6
CONTINUOUS
 62
    30
 10
-320.91945317913718
 20
163.25914157279939
 30
0.0
 11
-320.91945317913718
 21
378.85914157279922
 31
0.0
  0
CIRCLE
  8
SIZE
  6
CONTINUOUS
 62
    30
 10
-320.91945317913718
 20
65.103338663999239
 30
0.0
 40
6.0
  0
LINE
  8
SIZE
  6
CONTINUOUS
 62
    30
 10
-320.91945317913718
 20
65.103338663999239
 30
0.0
 11
-320.91945317913718
 21
77.103338663999239
 31
0.0
  0
CIRCLE
  8
SIZE
  6
CONTINUOUS
 62
    30
 10
-320.91945317913718
 20
163.25914157279939
 30
0.0
 40
6.0
  0
LINE
  8
SIZE
  6
CONTINUOUS
 62
    30
 10
-320.91945317913718
 20
163.25914157279939
 30
0.0
 11
-320.91945317913718
 21
151.25914157279939
 31
0.0
  0
TEXT
  8
SIZE
  6
CONTINUOUS
 62
    30
 10
-356.58611984580398
 20
190.11057014422781
 30
0.0
 40
64.0
  1
φ98
 50
90.0
 41
0.9
 72
     1
 11
-356.58611984580398
 21
277.05914157279932
 31
0.0
  0
POINT
  8
DEFPOINTS
  6
CONTINUOUS
 62
    30
 10
-185.49443570112041
 20
163.25914157279931
 30
0.0
  0
POINT
  8
DEFPOINTS
  6
CONTINUOUS
 62
    30
 10
-185.49443570112041
 20
65.103338663999239
 30
0.0
  0
POINT
  8
DEFPOINTS
  6
CONTINUOUS
 62
    30
 10
-320.91945317913718
 20
65.103338663999239
 30
0.0
  0
LINE
  8
SIZE
  6
CONTINUOUS
 62
    30
 10
-168.59775014258409
 20
170.2029224712692
 30
0.0
 11
-533.85939614646577
 21
170.20292247126929
 31
0.0
  0
LINE
  8
SIZE
  6
CONTINUOUS
 62
    30
 10
-205.49443570112041
 20
65.103398327003106
 30
0.0
 11
-533.85939614646577
 21
65.103398327003219
 31
0.0
  0
LINE
  8
SIZE
  6
CONTINUOUS
 62
    30
 10
-513.85939614646577
 20
158.20292247126929
 30
0.0
 11
-513.85939614646577
 21
77.103398327003219
 31
0.0
  0
CIRCLE
  8
SIZE
  6
CONTINUOUS
 62
    30
 10
-513.85939614646577
 20
170.20292247126929
 30
0.0
 40
6.0
  0
LINE
  8
SIZE
  6
CONTINUOUS
 62
    30
 10
-513.85939614646577
 20
170.20292247126929
 30
0.0
 11
-513.85939614646577
 21
158.20292247126929
 31
0.0
  0
CIRCLE
  8
SIZE
  6
CONTINUOUS
 62
    30
 10
-513.85939614646577
 20
65.103398327003219
 30
0.0
 40
6.0
  0
LINE
  8
SIZE
  6
CONTINUOUS
 62
    30
 10
-513.85939614646577
 20
65.103398327003219
 30
0.0
 11
-513.85939614646577
 21
77.103398327003219
 31
0.0
  0
TEXT
  8
SIZE
  6
CONTINUOUS
 62
    30
 10
-549.5260628131324
 20
8.7617318277077914
 30
0.0
 40
64.0
  1
φ105
 50
90.0
 41
0.9
 72
     1
 11
-549.5260628131324
 21
117.6531603991364
 31
0.0
  0
POINT
  8
DEFPOINTS
  6
CONTINUOUS
 62
    30
 10
-148.59775014258409
 20
170.2029224712692
 30
0.0
  0
POINT
  8
DEFPOINTS
  6
CONTINUOUS
 62
    30
 10
-185.49443570112041
 20
65.103398327003106
 30
0.0
  0
POINT
  8
DEFPOINTS
  6
CONTINUOUS
 62
    30
 10
-513.85939614646577
 20
65.103398327003219
 30
0.0
  0
LINE
  8
SIZE
  6
CONTINUOUS
 62
    30
 10
-251.24247265101531
 20
113.6804452055999
 30
0.0
 11
-421.59068151981421
 21
113.6804452055999
 31
0.0
  0
LINE
  8
SIZE
  6
CONTINUOUS
 62
    30
 10
-145.45612470509059
 20
0.0
 30
0.0
 11
-421.59068151981421
 21
0.0000000000001137
 31
0.0
  0
LINE
  8
SIZE
  6
CONTINUOUS
 62
    30
 10
-401.59068151981421
 20
101.6804452055999
 30
0.0
 11
-401.59068151981421
 21
12.00000000000011
 31
0.0
  0
LINE
  8
SIZE
  6
CONTINUOUS
 62
    30
 10
-401.59068151981421
 20
0.0000000000001137
 30
0.0
 11
-401.59068151981421
 21
-190.9142857142856
 31
0.0
  0
CIRCLE
  8
SIZE
  6
CONTINUOUS
 62
    30
 10
-401.59068151981421
 20
113.6804452055999
 30
0.0
 40
6.0
  0
LINE
  8
SIZE
  6
CONTINUOUS
 62
    30
 10
-401.59068151981421
 20
113.6804452055999
 30
0.0
 11
-401.59068151981421
 21
101.6804452055999
 31
0.0
  0
CIRCLE
  8
SIZE
  6
CONTINUOUS
 62
    30
 10
-401.59068151981421
 20
0.0000000000001137
 30
0.0
 40
6.0
  0
LINE
  8
SIZE
  6
CONTINUOUS
 62
    30
 10
-401.59068151981421
 20
0.0000000000001137
 30
0.0
 11
-401.59068151981421
 21
12.00000000000011
 31
0.0
  0
TEXT
  8
SIZE
  6
CONTINUOUS
 62
    30
 10
-426.59068151981421
 20
-165.91428571428571
 30
0.0
 40
64.0
  1
114
 50
90.0
 41
0.9
 72
     1
 11
-426.59068151981421
 21
-101.4571428571428
 31
0.0
  0
POINT
  8
DEFPOINTS
  6
CONTINUOUS
 62
    30
 10
-231.24247265101531
 20
113.6804452055999
 30
0.0
  0
POINT
  8
DEFPOINTS
  6
CONTINUOUS
 62
    30
 10
-125.4561247050906
 20
0.0
 30
0.0
  0
POINT
  8
DEFPOINTS
  6
CONTINUOUS
 62
    30
 10
-401.59068151981421
 20
0.0000000000001137
 30
0.0
  0
LINE
  8
SIZE
  6
CONTINUOUS
 62
    30
 10
-205.49443570112041
 20
65.103338663999239
 30
0.0
 11
-533.85939614646577
 21
65.103338663999352
 31
0.0
  0
LINE
  8
SIZE
  6
CONTINUOUS
 62
    30
 10
-145.45612470509059
 20
0.0
 30
0.0
 11
-533.85939614646577
 21
0.0000000000001137
 31
0.0
  0
LINE
  8
SIZE
  6
CONTINUOUS
 62
    30
 10
-513.85939614646577
 20
77.103338663999352
 30
0.0
 11
-513.85939614646577
 21
89.103338663999352
 31
0.0
  0
LINE
  8
SIZE
  6
CONTINUOUS
 62
    30
 10
-513.85939614646577
 20
-11.99999999999989
 30
0.0
 11
-513.85939614646577
 21
-167.2571428571427
 31
0.0
  0
LINE
  8
SIZE
  6
CONTINUOUS
 62
    30
 10
-513.85939614646577
 20
65.103338663999352
 30
0.0
 11
-513.85939614646577
 21
0.0000000000001137
 31
0.0
  0
CIRCLE
  8
SIZE
  6
CONTINUOUS
 62
    30
 10
-513.85939614646577
 20
65.103338663999352
 30
0.0
 40
6.0
  0
LINE
  8
SIZE
  6
CONTINUOUS
 62
    30
 10
-513.85939614646577
 20
65.103338663999352
 30
0.0
 11
-513.85939614646577
 21
77.103338663999352
 31
0.0
  0
CIRCLE
  8
SIZE
  6
CONTINUOUS
 62
    30
 10
-513.85939614646577
 20
0.0000000000001137
 30
0.0
 40
6.0
  0
LINE
  8
SIZE
  6
CONTINUOUS
 62
    30
 10
-513.85939614646577
 20
0.0000000000001137
 30
0.0
 11
-513.85939614646577
 21
-11.99999999999989
 31
0.0
  0
TEXT
  8
SIZE
  6
CONTINUOUS
 62
    30
 10
-538.85939614646577
 20
-142.2571428571429
 30
0.0
 40
64.0
  1
65
 50
90.0
 41
0.9
 72
     1
 11
-538.85939614646577
 21
-95.628571428571433
 31
0.0
  0
POINT
  8
DEFPOINTS
  6
CONTINUOUS
 62
    30
 10
-185.49443570112041
 20
65.103338663999239
 30
0.0
  0
POINT
  8
DEFPOINTS
  6
CONTINUOUS
 62
    30
 10
-125.4561247050906
 20
0.0
 30
0.0
  0
POINT
  8
DEFPOINTS
  6
CONTINUOUS
 62
    30
 10
-513.85939614646577
 20
0.0000000000001137
 30
0.0
  0
CIRCLE
  8
FIX
  6
CONTINUOUS
 62
    11
 10
-98.656597821599803
 20
-7.0111287791622772
 30
0.0
 40
5.0
  0
CIRCLE
  8
FIX
  6
CONTINUOUS
 62
    11
 10
-70.111287791999871
 20
-7.0111287791623909
 30
0.0
 40
5.0
  0
CIRCLE
  8
FIX
  6
CONTINUOUS
 62
    11
 10
70.111287791999985
 20
-7.0111287791623909
 30
0.0
 40
5.0
  0
CIRCLE
  8
FIX
  6
CONTINUOUS
 62
    11
 10
98.656597821599917
 20
-7.0111287791623909
 30
0.0
 40
5.0
  0
LINE
  8
NOTE
  6
CONTINUOUS
 62
     4
 10
83.489670424141423
 20
-7.0111287791623909
 30
0.0
 11
113.8235252190586
 21
-7.0111287791623909
 31
0.0
  0
LINE
  8
NOTE
  6
CONTINUOUS
 62
     4
 10
98.656597821599917
 20
8.1557986182961031
 30
0.0
 11
98.656597821599917
 21
-22.178056176620881
 31
0.0
  0
LINE
  8
NOTE
  6
CONTINUOUS
 62
     4
 10
54.944360394541491
 20
-7.0111287791623909
 30
0.0
 11
85.278215189458479
 21
-7.0111287791623909
 31
0.0
  0
LINE
  8
NOTE
  6
CONTINUOUS
 62
     4
 10
70.111287791999985
 20
8.1557986182959894
 30
0.0
 11
70.111287791999985
 21
-22.178056176620881
 31
0.0
  0
LINE
  8
NOTE
  6
CONTINUOUS
 62
     4
 10
-85.278215189458365
 20
-7.0111287791623909
 30
0.0
 11
-54.944360394541377
 21
-7.0111287791623909
 31
0.0
  0
LINE
  8
NOTE
  6
CONTINUOUS
 62
     4
 10
-70.111287791999871
 20
8.1557986182961031
 30
0.0
 11
-70.111287791999871
 21
-22.178056176620881
 31
0.0
  0
LINE
  8
NOTE
  6
CONTINUOUS
 62
     4
 10
-113.8235252190583
 20
-7.0111287791622772
 30
0.0
 11
-83.489670424141309
 21
-7.0111287791622772
 31
0.0
  0
LINE
  8
NOTE
  6
CONTINUOUS
 62
     4
 10
-98.656597821599803
 20
8.1557986182962168
 30
0.0
 11
-98.656597821599803
 21
-22.178056176620771
 31
0.0
  0
LINE
  8
NOTE
  6
CONTINUOUS
 62
     4
 10
101.9350116074729
 20
-12.28717865938529
 30
0.0
 11
98.656597821599917
 21
-7.0111287791623909
 31
0.0
  0
LINE
  8
NOTE
  6
CONTINUOUS
 62
     4
 10
98.656597821599917
 20
-7.0111287791623909
 30
0.0
 11
104.1338167997128
 21
-9.9411068602753403
 31
0.0
  0
LINE
  8
NOTE
  6
CONTINUOUS
 62
     4
 10
98.656597821599917
 20
-7.0111287791623909
 30
0.0
 11
107.41223058558531
 21
-15.21715674049824
 31
0.0
  0
LINE
  8
NOTE
  6
CONTINUOUS
 62
     4
 10
107.41223058558531
 20
-15.21715674049824
 30
0.0
 11
382.17524267285222
 21
-269.78382115307869
 31
0.0
  0
LINE
  8
NOTE
  6
CONTINUOUS
 62
     4
 10
382.17524267285222
 20
-269.78382115307869
 30
0.0
 11
644.08952838713776
 21
-269.78382115307869
 31
0.0
  0
TEXT
  8
NOTE
  6
CONTINUOUS
 62
     4
 10
392.05921057878959
 20
-240.87118264349971
 30
0.0
 40
64.0
  1
5-φ5
 41
0.9
  0
LINE
  8
NOTE
  6
CONTINUOUS
 62
     4
 10
72.239188624451572
 20
-12.846943832542021
 30
0.0
 11
70.111287791999985
 21
-7.0111287791623909
 31
0.0
  0
LINE
  8
NOTE
  6
CONTINUOUS
 62
     4
 10
70.111287791999985
 20
-7.0111287791623909
 30
0.0
 11
74.87201750904751
 21
-11.00113527680378
 31
0.0
  0
LINE
  8
NOTE
  6
CONTINUOUS
 62
     4
 10
70.111287791999985
 20
-7.0111287791623909
 30
0.0
 11
76.999918341499097
 21
-16.83695033018336
 31
0.0
  0
LINE
  8
NOTE
  6
CONTINUOUS
 62
     4
 10
76.999918341499097
 20
-16.83695033018336
 30
0.0
 11
380.45152497579488
 21
-447.13206066498572
 31
0.0
  0
LINE
  8
NOTE
  6
CONTINUOUS
 62
     4
 10
380.45152497579488
 20
-447.13206066498572
 30
0.0
 11
642.36581069008025
 21
-447.13206066498572
 31
0.0
  0
TEXT
  8
NOTE
  6
CONTINUOUS
 62
     4
 10
390.33549288173231
 20
-418.21942215540679
 30
0.0
 40
64.0
  1
4-φ5
 41
0.9
  0
CIRCLE
  8
FIX
  6
CONTINUOUS
 62
    11
 10
-96.0
 20
-7.0111287791623909
 30
0.0
 40
5.0
  0
LINE
  8
NOTE
  6
CONTINUOUS
 62
     4
 10
-111.16692739745849
 20
-7.0111287791623909
 30
0.0
 11
-80.833072602541506
 21
-7.0111287791623909
 31
0.0
  0
LINE
  8
NOTE
  6
CONTINUOUS
 62
     4
 10
-96.0
 20
8.1557986182961031
 30
0.0
 11
-96.0
 21
-22.178056176620881
 31
0.0
  0
LINE
  8
SIZE
  6
CONTINUOUS
 62
    30
 10
0.0
 20
-93.370992037270298
 30
0.0
 11
0.0
 21
-165.71391610275171
 31
0.0
  0
LINE
  8
SIZE
  6
CONTINUOUS
 62
    30
 10
-96.0
 20
-42.178056176620878
 30
0.0
 11
-96.0
 21
-165.71391610275171
 31
0.0
  0
LINE
  8
SIZE
  6
CONTINUOUS
 62
    30
 10
-12.0
 20
-145.71391610275171
 30
0.0
 11
-84.0
 21
-145.71391610275171
 31
0.0
  0
LINE
  8
SIZE
  6
CONTINUOUS
 62
    30
 10
-96.0
 20
-145.71391610275171
 30
0.0
 11
-250.87467355764889
 21
-145.71391610275171
 31
0.0
  0
CIRCLE
  8
SIZE
  6
CONTINUOUS
 62
    30
 10
0.0
 20
-145.71391610275171
 30
0.0
 40
6.0
  0
LINE
  8
SIZE
  6
CONTINUOUS
 62
    30
 10
0.0
 20
-145.71391610275171
 30
0.0
 11
-12.0
 21
-145.71391610275171
 31
0.0
  0
CIRCLE
  8
SIZE
  6
CONTINUOUS
 62
    30
 10
-96.0
 20
-145.71391610275171
 30
0.0
 40
6.0
  0
LINE
  8
SIZE
  6
CONTINUOUS
 62
    30
 10
-96.0
 20
-145.71391610275171
 30
0.0
 11
-84.0
 21
-145.71391610275171
 31
0.0
  0
TEXT
  8
SIZE
  6
CONTINUOUS
 62
    30
 10
-225.87467355764889
 20
-120.7139161027517
 30
0.0
 40
64.0
  1
96
 41
0.9
 72
     1
 11
-180.61753070050599
 21
-120.7139161027517
 31
0.0
  0
POINT
  8
DEFPOINTS
  6
CONTINUOUS
 62
    30
 10
0.0
 20
-73.370992037270298
 30
0.0
  0
POINT
  8
DEFPOINTS
  6
CONTINUOUS
 62
    30
 10
-96.0
 20
-22.178056176620881
 30
0.0
  0
POINT
  8
DEFPOINTS
  6
CONTINUOUS
 62
    30
 10
-96.0
 20
-145.71391610275171
 30
0.0
  0
LINE
  8
SIZE
  6
CONTINUOUS
 62
    30
 10
-70.111287791999871
 20
-42.178056176620878
 30
0.0
 11
-70.111287791999871
 21
-284.03000465527663
 31
0.0
  0
LINE
  8
SIZE
  6
CONTINUOUS
 62
    30
 10
70.111287791999985
 20
-42.178056176620878
 30
0.0
 11
70.111287791999985
 21
-284.03000465527663
 31
0.0
  0
LINE
  8
SIZE
  6
CONTINUOUS
 62
    30
 10
58.111287791999978
 20
-264.03000465527663
 30
0.0
 11
-58.111287791999871
 21
-264.03000465527663
 31
0.0
  0
LINE
  8
SIZE
  6
CONTINUOUS
 62
    30
 10
-70.111287791999871
 20
-264.03000465527663
 30
0.0
 11
-312.52648568484278
 21
-264.03000465527663
 31
0.0
  0
CIRCLE
  8
SIZE
  6
CONTINUOUS
 62
    30
 10
70.111287791999985
 20
-264.03000465527663
 30
0.0
 40
6.0
  0
LINE
  8
SIZE
  6
CONTINUOUS
 62
    30
 10
70.111287791999985
 20
-264.03000465527663
 30
0.0
 11
58.111287791999978
 21
-264.03000465527663
 31
0.0
  0
CIRCLE
  8
SIZE
  6
CONTINUOUS
 62
    30
 10
-70.111287791999871
 20
-264.03000465527663
 30
0.0
 40
6.0
  0
LINE
  8
SIZE
  6
CONTINUOUS
 62
    30
 10
-70.111287791999871
 20
-264.03000465527663
 30
0.0
 11
-58.111287791999871
 21
-264.03000465527663
 31
0.0
  0
TEXT
  8
SIZE
  6
CONTINUOUS
 62
    30
 10
-287.52648568484273
 20
-239.0300046552766
 30
0.0
 40
64.0
  1
140
 41
0.9
 72
     1
 11
-218.95505711341411
 21
-239.0300046552766
 31
0.0
  0
POINT
  8
DEFPOINTS
  6
CONTINUOUS
 62
    30
 10
-70.111287791999871
 20
-22.178056176620881
 30
0.0
  0
POINT
  8
DEFPOINTS
  6
CONTINUOUS
 62
    30
 10
70.111287791999985
 20
-22.178056176620881
 30
0.0
  0
POINT
  8
DEFPOINTS
  6
CONTINUOUS
 62
    30
 10
70.111287791999985
 20
-264.03000465527663
 30
0.0
  0
LINE
  8
SIZE
  6
CONTINUOUS
 62
    30
 10
98.656597821599917
 20
-42.178056176620878
 30
0.0
 11
98.656597821599917
 21
-402.34609786212877
 31
0.0
  0
LINE
  8
SIZE
  6
CONTINUOUS
 62
    30
 10
-98.656597821599803
 20
-42.178056176620771
 30
0.0
 11
-98.656597821599803
 21
-402.34609786212877
 31
0.0
  0
LINE
  8
SIZE
  6
CONTINUOUS
 62
    30
 10
86.656597821599917
 20
-382.34609786212877
 30
0.0
 11
-86.656597821599803
 21
-382.34609786212877
 31
0.0
  0
CIRCLE
  8
SIZE
  6
CONTINUOUS
 62
    30
 10
98.656597821599917
 20
-382.34609786212877
 30
0.0
 40
6.0
  0
LINE
  8
SIZE
  6
CONTINUOUS
 62
    30
 10
98.656597821599917
 20
-382.34609786212877
 30
0.0
 11
86.656597821599917
 21
-382.34609786212877
 31
0.0
  0
CIRCLE
  8
SIZE
  6
CONTINUOUS
 62
    30
 10
-98.656597821599803
 20
-382.34609786212877
 30
0.0
 40
6.0
  0
LINE
  8
SIZE
  6
CONTINUOUS
 62
    30
 10
-98.656597821599803
 20
-382.34609786212877
 30
0.0
 11
-86.656597821599803
 21
-382.34609786212877
 31
0.0
  0
TEXT
  8
SIZE
  6
CONTINUOUS
 62
    30
 10
-68.571428571428456
 20
-357.34609786212877
 30
0.0
 40
64.0
  1
197
 41
0.9
 72
     1
 11
0.0000000000001137
 21
-357.34609786212877
 31
0.0
  0
POINT
  8
DEFPOINTS
  6
CONTINUOUS
 62
    30
 10
98.656597821599917
 20
-22.178056176620881
 30
0.0
  0
POINT
  8
DEFPOINTS
  6
CONTINUOUS
 62
    30
 10
-98.656597821599803
 20
-22.178056176620771
 30
0.0
  0
POINT
  8
DEFPOINTS
  6
CONTINUOUS
 62
    30
 10
-98.656597821599803
 20
-382.34609786212877
 30
0.0
  0
LINE
  8
SIZE
  6
CONTINUOUS
 62
    30
 10
-111.67726555439999
 20
-25.007949127961179
 30
0.0
 11
-111.67726555439999
 21
-527.32788193769659
 31
0.0
  0
LINE
  8
SIZE
  6
CONTINUOUS
 62
    30
 10
111.67726555439999
 20
-25.007949127961179
 30
0.0
 11
111.67726555439999
 21
-527.32788193769659
 31
0.0
  0
LINE
  8
SIZE
  6
CONTINUOUS
 62
    30
 10
-99.677265554400037
 20
-507.32788193769647
 30
0.0
 11
99.677265554400037
 21
-507.32788193769647
 31
0.0
  0
CIRCLE
  8
SIZE
  6
CONTINUOUS
 62
    30
 10
-111.67726555439999
 20
-507.32788193769647
 30
0.0
 40
6.0
  0
LINE
  8
SIZE
  6
CONTINUOUS
 62
    30
 10
-111.67726555439999
 20
-507.32788193769647
 30
0.0
 11
-99.677265554400037
 21
-507.32788193769647
 31
0.0
  0
CIRCLE
  8
SIZE
  6
CONTINUOUS
 62
    30
 10
111.67726555439999
 20
-507.32788193769647
 30
0.0
 40
6.0
  0
LINE
  8
SIZE
  6
CONTINUOUS
 62
    30
 10
111.67726555439999
 20
-507.32788193769647
 30
0.0
 11
99.677265554400037
 21
-507.32788193769647
 31
0.0
  0
TEXT
  8
SIZE
  6
CONTINUOUS
 62
    30
 10
-74.057142857142836
 20
-482.32788193769647
 30
0.0
 40
64.0
  1
223
 41
0.9
 72
     1
 11
0.0
 21
-482.32788193769647
 31
0.0
  0
POINT
  8
DEFPOINTS
  6
CONTINUOUS
 62
    30
 10
-111.67726555439999
 20
-5.007949127961183
 30
0.0
  0
POINT
  8
DEFPOINTS
  6
CONTINUOUS
 62
    30
 10
111.67726555439999
 20
-5.007949127961183
 30
0.0
  0
POINT
  8
DEFPOINTS
  6
CONTINUOUS
 62
    30
 10
111.67726555439999
 20
-507.32788193769647
 30
0.0
  0
TEXT
  8
NOTE
  6
CONTINUOUS
 62
     4
 10
210.2566272810773
 20
345.1456863938738
 30
0.0
 40
64.0
  1
EL
 41
0.9
  0
LINE
  8
NOTE
  6
CONTINUOUS
 62
     4
 10
30.682761790894009
 20
167.65835991542869
 30
0.0
 11
25.039745640000209
 21
165.06200323524169
 31
0.0
  0
LINE
  8
NOTE
  6
CONTINUOUS
 62
     4
 10
25.039745640000209
 20
165.06200323524169
 30
0.0
 11
28.62855500030923
 21
170.13202756115561
 31
0.0
  0
LINE
  8
NOTE
  6
CONTINUOUS
 62
     4
 10
25.039745640000209
 20
165.06200323524169
 30
0.0
 11
34.271571151203027
 21
172.72838424134261
 31
0.0
  0
LINE
  8
NOTE
  6
CONTINUOUS
 62
     4
 10
34.271571151203027
 20
172.72838424134261
 30
0.0
 11
173.2566272810773
 21
288.1456863938738
 31
0.0
  0
LINE
  8
NOTE
  6
CONTINUOUS
 62
     4
 10
173.2566272810773
 20
288.1456863938738
 30
0.0
 11
295.28519870964868
 21
288.1456863938738
 31
0.0
  0
ENDSEC
  0
EOF
