  0
SECTION
  2
HEADER
  9
$ACADVER
  1
AC1009
  9
$DWGCODEPAGE
  3
dos932
  9
$INSBASE
 10
0.0
 20
0.0
 30
0.0
  9
$EXTMIN
 10
-347.59367208182272
 20
-611.38914864439175
 30
-0.0015258207003583
  9
$EXTMAX
 10
967.55219655757719
 20
635.1013264328958
 30
0.0000000349246037
  9
$LIMMIN
 10
-2970.0
 20
-2100.0
  9
$LIMMAX
 10
2970.0
 20
2100.0
  9
$ORTHOMODE
 70
     1
  9
$REGENMODE
 70
     1
  9
$FILLMODE
 70
     1
  9
$QTEXTMODE
 70
     0
  9
$MIRRTEXT
 70
     0
  9
$LTSCALE
 40
20.0
  9
$ATTMODE
 70
     1
  9
$TEXTSIZE
 40
64.0
  9
$TRACEWID
 40
0.05
  9
$TEXTSTYLE
  7
STANDARD
  9
$CLAYER
  8
SIZE
  9
$CELTYPE
  6
CONTINUOUS
  9
$CECOLOR
 62
     7
  9
$DIMSCALE
 40
1.0
  9
$DIMASZ
 40
12.0
  9
$DIMEXO
 40
20.0
  9
$DIMDLI
 40
200.0
  9
$DIMRND
 40
0.0
  9
$DIMDLE
 40
0.0
  9
$DIMEXE
 40
20.0
  9
$DIMTP
 40
0.0
  9
$DIMTM
 40
0.0
  9
$DIMTXT
 40
64.0
  9
$DIMCEN
 40
0.09
  9
$DIMTSZ
 40
0.0
  9
$DIMTOL
 70
     0
  9
$DIMLIM
 70
     0
  9
$DIMTIH
 70
     0
  9
$DIMTOH
 70
     0
  9
$DIMSE1
 70
     0
  9
$DIMSE2
 70
     0
  9
$DIMTAD
 70
     1
  9
$DIMZIN
 70
     8
  9
$DIMBLK
  1

  9
$DIMASO
 70
     1
  9
$DIMSHO
 70
     0
  9
$DIMPOST
  1

  9
$DIMAPOST
  1

  9
$DIMALT
 70
     0
  9
$DIMALTD
 70
     2
  9
$DIMALTF
 40
25.399999999999999
  9
$DIMLFAC
 40
1.0
  9
$DIMTOFL
 70
     1
  9
$DIMTVP
 40
0.0
  9
$DIMTIX
 70
     1
  9
$DIMSOXD
 70
     0
  9
$DIMSAH
 70
     0
  9
$DIMBLK1
  1

  9
$DIMBLK2
  1

  9
$DIMSTYLE
  2
STANDARD
  9
$DIMCLRD
 70
     7
  9
$DIMCLRE
 70
     7
  9
$DIMCLRT
 70
     7
  9
$DIMTFAC
 40
1.0
  9
$DIMGAP
 40
25.0
  9
$LUNITS
 70
     2
  9
$LUPREC
 70
     4
  9
$SKETCHINC
 40
0.1
  9
$FILLETRAD
 40
3.0
  9
$AUNITS
 70
     1
  9
$AUPREC
 70
     3
  9
$MENU
  1
ACAD
  9
$ELEVATION
 40
0.0
  9
$PELEVATION
 40
0.0
  9
$THICKNESS
 40
0.0
  9
$LIMCHECK
 70
     0
  9
$CHAMFERA
 40
0.0
  9
$CHAMFERB
 40
0.0
  9
$SKPOLY
 70
     0
  9
$TDCREATE
 40
2453019.62301037
  9
$TDUPDATE
 40
2459025.490681389
  9
$TDINDWG
 40
1.7136155208
  9
$TDUSRTIMER
 40
1.7136155208
  9
$USRTIMER
 70
     1
  9
$ANGBASE
 50
0.0
  9
$ANGDIR
 70
     0
  9
$PDMODE
 70
     3
  9
$PDSIZE
 40
-2.0
  9
$PLINEWID
 40
0.0
  9
$SPLFRAME
 70
     0
  9
$SPLINETYPE
 70
     6
  9
$SPLINESEGS
 70
     8
  9
$SURFTAB1
 70
     6
  9
$SURFTAB2
 70
     6
  9
$SURFTYPE
 70
     6
  9
$SURFU
 70
     6
  9
$SURFV
 70
     6
  9
$UCSNAME
  2

  9
$UCSORG
 10
0.0
 20
0.0
 30
0.0
  9
$UCSXDIR
 10
1.0
 20
0.0
 30
0.0
  9
$UCSYDIR
 10
0.0
 20
1.0
 30
0.0
  9
$PUCSNAME
  2

  9
$PUCSORG
 10
0.0
 20
0.0
 30
0.0
  9
$PUCSXDIR
 10
1.0
 20
0.0
 30
0.0
  9
$PUCSYDIR
 10
0.0
 20
1.0
 30
0.0
  9
$USERI1
 70
     0
  9
$USERI2
 70
     0
  9
$USERI3
 70
     0
  9
$USERI4
 70
     0
  9
$USERI5
 70
     0
  9
$USERR1
 40
20.0
  9
$USERR2
 40
0.0
  9
$USERR3
 40
0.0
  9
$USERR4
 40
0.0
  9
$USERR5
 40
0.0
  9
$WORLDVIEW
 70
     1
  9
$SHADEDGE
 70
     3
  9
$SHADEDIF
 70
    70
  9
$TILEMODE
 70
     1
  9
$MAXACTVP
 70
    48
  9
$PINSBASE
 10
0.0
 20
0.0
 30
0.0
  9
$PLIMCHECK
 70
     0
  9
$PEXTMIN
 10
-100000000000000000000.0
 20
-100000000000000000000.0
 30
-100000000000000000000.0
  9
$PEXTMAX
 10
100000000000000000000.0
 20
100000000000000000000.0
 30
100000000000000000000.0
  9
$PLIMMIN
 10
0.0
 20
0.0
  9
$PLIMMAX
 10
12.0
 20
9.0
  9
$UNITMODE
 70
     0
  9
$VISRETAIN
 70
     0
  9
$PLINEGEN
 70
     0
  9
$PSLTSCALE
 70
     0
  9
$TREEDEPTH
 70
  3020
  9
$ATTDIA
 70
     0
  9
$ATTREQ
 70
     1
  9
$BLIPMODE
 70
     1
  9
$COORDS
 70
     1
  9
$DRAGMODE
 70
     2
  9
$OSMODE
 70
     0
  9
$HANDLING
 70
     0
  9
$HANDSEED
  5
10A7A
  0
ENDSEC
  0
SECTION
  2
TABLES
  0
TABLE
  2
LTYPE
 70
     2
  0
LTYPE
  2
CONTINUOUS
 70
     0
  3
実線
 72
    65
 73
     0
 40
0.0
  0
LTYPE
  2
DASHDOT
 70
     0
  3
____ _ ____ _ ____ _ ____ _ ____ _ ____ _ ____
 72
    65
 73
     4
 40
5.5
 49
4.0
 49
-0.6
 49
0.3
 49
-0.6
  0
ENDTAB
  0
TABLE
  2
LAYER
 70
    12
  0
LAYER
  2
0
 70
     0
 62
     7
  6
CONTINUOUS
  0
LAYER
  2
BASIS
 70
     0
 62
     6
  6
DASHDOT
  0
LAYER
  2
OUTLINE
 70
     0
 62
     3
  6
CONTINUOUS
  0
LAYER
  2
DETAIL
 70
     0
 62
     5
  6
CONTINUOUS
  0
LAYER
  2
SIZE
 70
     0
 62
    30
  6
CONTINUOUS
  0
LAYER
  2
ARRANGE
 70
     0
 62
     1
  6
CONTINUOUS
  0
LAYER
  2
DEFPOINTS
 70
     0
 62
     7
  6
CONTINUOUS
  0
LAYER
  2
ETC
 70
     0
 62
    61
  6
CONTINUOUS
  0
LAYER
  2
FIX
 70
     0
 62
    11
  6
CONTINUOUS
  0
LAYER
  2
NOTE
 70
     0
 62
     4
  6
CONTINUOUS
  0
LAYER
  2
SERVICESPACE
 70
    64
 62
     2
  6
DASHDOT
  0
LAYER
  2
SYMBOLLINE
 70
    64
 62
    15
  6
CONTINUOUS
  0
ENDTAB
  0
TABLE
  2
STYLE
 70
     1
  0
STYLE
  2
STANDARD
 70
     0
 40
64.0
 41
0.9
 50
0.0
 71
     0
 42
64.0
  3
SIMPLEX.shx
  4
BIGFONT.shx
  0
ENDTAB
  0
TABLE
  2
APPID
 70
    19
  0
APPID
  2
ACAD
 70
     0
  0
APPID
  2
AUTOCAD_POSTSCRIPT_FIGURE
 70
     0
  0
APPID
  2
ACAD_EXEMPT_FROM_CAD_STANDARDS
 70
     0
  0
APPID
  2
ACAD_PSEXT
 70
     0
  0
APPID
  2
ACAUTHENVIRON
 70
     0
  0
APPID
  2
GENIUS_GENOENT_13
 70
     0
  0
APPID
  2
GENIUS_GENCFG_13
 70
     0
  0
APPID
  2
GENIUS_GENCFG0_13
 70
     0
  0
APPID
  2
GENIUS_GENCFG1_13
 70
     0
  0
APPID
  2
GENIUS_GENCFG2_13
 70
     0
  0
APPID
  2
GENIUS_GENCFG3_13
 70
     0
  0
APPID
  2
GENIUS_GENCFG4_13
 70
     0
  0
APPID
  2
GENIUS_GEVCFG0_13
 70
     0
  0
APPID
  2
CONTENTBLOCKICON
 70
     0
  0
APPID
  2
CONTENTBLOCKDESCRIPTION
 70
     0
  0
APPID
  2
ACAD_NAV_VCDISPLAY
 70
     0
  0
APPID
  2
ACAD_MLEADERVER
 70
     0
  0
APPID
  2
ACDBDYNAMICBLOCKTRUENAME
 70
     0
  0
APPID
  2
ACDBDYNAMICBLOCKGUID
 70
     0
  0
ENDTAB
  0
TABLE
  2
DIMSTYLE
 70
     1
  0
DIMSTYLE
  2
STANDARD
 70
     0
  3

  4

  5
_ORIGIN
  6

  7

 40
1.0
 41
12.0
 42
20.0
 43
200.0
 44
20.0
 45
0.0
 46
0.0
 47
0.0
 48
0.0
140
64.0
141
0.09
142
0.0
143
25.399999999999999
144
1.0
145
0.0
146
1.0
147
25.0
 71
     0
 72
     0
 73
     0
 74
     0
 75
     0
 76
     0
 77
     1
 78
     8
170
     0
171
     2
172
     1
173
     0
174
     1
175
     0
176
     7
177
     7
178
     7
  0
ENDTAB
  0
TABLE
  2
VIEW
 70
     1
  0
VIEW
  2
ALL
 70
     0
 40
4282.6198079999986
 10
0.0
 20
41.309904000000003
 41
5940.0
 11
0.0
 21
0.0
 31
1.0
 12
0.0
 22
0.0
 32
0.0
 42
50.0
 43
0.0
 44
0.0
 50
0.0
 71
     0
  0
ENDTAB
  0
TABLE
  2
UCS
 70
     0
  0
ENDTAB
  0
TABLE
  2
VPORT
 70
     1
  0
VPORT
  2
*ACTIVE
 70
     0
 10
0.0
 20
0.0
 11
1.0
 21
1.0
 12
309.97926223787732
 22
11.85608889425203
 13
0.0
 23
0.0
 14
1.0
 24
1.0
 15
0.0
 25
0.0
 16
0.0
 26
0.0
 36
1.0
 17
0.0
 27
0.0
 37
0.0
 40
1254.754500326419
 41
1.747787610619469
 42
50.0
 43
0.0
 44
0.0
 50
0.0
 51
0.0
 71
     0
 72
  1000
 73
     1
 74
     3
 75
     0
 76
     0
 77
     0
 78
     0
  0
ENDTAB
  0
ENDSEC
  0
SECTION
  2
BLOCKS
  0
BLOCK
  8
0
  2
_ORIGIN
 70
     0
 10
0.0
 20
0.0
 30
0.0
  3
_ORIGIN
  1
_ORIGIN
  0
CIRCLE
  8
0
  6
CONTINUOUS
 62
     7
 10
0.0
 20
0.0
 30
0.0
 40
0.5
  0
LINE
  8
0
  6
CONTINUOUS
 62
     7
 10
0.0
 20
0.0
 30
0.0
 11
-1.0
 21
0.0
 31
0.0
  0
ENDBLK
  8
0
  0
ENDSEC
  0
SECTION
  2
ENTITIES
  0
TEXT
  8
ETC
  6
CONTINUOUS
 62
    61
 10
202.2740747800726
 20
571.06058430152939
 30
0.0
 40
64.0
  1
VD-10ZUC3-IN_6
 41
0.9
  0
TEXT
  8
ETC
  6
CONTINUOUS
 62
    61
 10
198.0880807800722
 20
453.1052742866982
 30
0.0
 40
64.0
  1
換気扇
 41
0.9
  0
CIRCLE
  8
ARRANGE
  6
CONTINUOUS
 62
     1
 10
0.0
 20
0.0
 30
0.0
 40
40.0
  0
POINT
  8
ARRANGE
  6
CONTINUOUS
 62
     1
 10
0.0
 20
0.0
 30
0.0
 50
270.0
  0
TEXT
  8
ETC
  6
CONTINUOUS
 62
    61
 10
248.78947902862819
 20
344.95650140047292
 30
0.0
 40
40.0
  1
VD-10ZUC3-IN
 41
0.9
  0
LINE
  8
NOTE
  6
CONTINUOUS
 62
     4
 10
-98.656597821600371
 20
-85.278215189458479
 30
0.0
 11
-98.656597821600371
 21
-54.944360394541491
 31
0.0
  0
LINE
  8
NOTE
  6
CONTINUOUS
 62
     4
 10
-113.82352521905889
 20
-70.111287791999985
 30
0.0
 11
-83.489670424141877
 21
-70.111287791999985
 31
0.0
  0
LINE
  8
NOTE
  6
CONTINUOUS
 62
     4
 10
-85.278215189458933
 20
-98.656597821599917
 30
0.0
 11
-54.944360394541953
 21
-98.656597821599917
 31
0.0
  0
LINE
  8
NOTE
  6
CONTINUOUS
 62
     4
 10
-70.111287792000439
 20
-113.8235252190584
 30
0.0
 11
-70.111287792000439
 21
-83.489670424141877
 31
0.0
  0
LINE
  8
BASIS
  6
DASHDOT
 62
     6
 10
156.37648969774179
 20
0.0
 30
0.0
 11
-140.19495644879041
 21
0.0
 31
0.0
  0
LINE
  8
BASIS
  6
DASHDOT
 62
     6
 10
0.0
 20
140.1956427707901
 30
0.0
 11
0.0
 21
-215.54213046912039
 31
0.0
  0
CIRCLE
  8
FIX
  6
CONTINUOUS
 62
    11
 10
-70.111287792000439
 20
-98.656597821599917
 30
0.0
 40
5.0
  0
CIRCLE
  8
FIX
  6
CONTINUOUS
 62
    11
 10
-98.656597821600371
 20
-70.111287791999985
 30
0.0
 40
5.0
  0
CIRCLE
  8
FIX
  6
CONTINUOUS
 62
    11
 10
70.11128779199953
 20
-98.656597821599917
 30
0.0
 40
5.0
  0
CIRCLE
  8
FIX
  6
CONTINUOUS
 62
    11
 10
98.656597821599462
 20
-70.111287791999985
 30
0.0
 40
5.0
  0
CIRCLE
  8
FIX
  6
CONTINUOUS
 62
    11
 10
98.656597821599462
 20
70.111287791999985
 30
0.0
 40
5.0
  0
CIRCLE
  8
FIX
  6
CONTINUOUS
 62
    11
 10
70.11128779199953
 20
98.656597821599917
 30
0.0
 40
5.0
  0
CIRCLE
  8
FIX
  6
CONTINUOUS
 62
    11
 10
-70.111287792000439
 20
98.656597821599917
 30
0.0
 40
5.0
  0
CIRCLE
  8
FIX
  6
CONTINUOUS
 62
    11
 10
-98.656597821600371
 20
70.111287791999985
 30
0.0
 40
5.0
  0
LINE
  8
NOTE
  6
CONTINUOUS
 62
     4
 10
-98.656597821600371
 20
54.944360394541953
 30
0.0
 11
-98.656597821600371
 21
85.278215189458933
 31
0.0
  0
LINE
  8
NOTE
  6
CONTINUOUS
 62
     4
 10
-113.82352521905889
 20
70.111287792000439
 30
0.0
 11
-83.489670424141877
 21
70.111287792000439
 31
0.0
  0
LINE
  8
NOTE
  6
CONTINUOUS
 62
     4
 10
-70.111287792000439
 20
83.489670424141423
 30
0.0
 11
-70.111287792000439
 21
113.8235252190584
 31
0.0
  0
LINE
  8
NOTE
  6
CONTINUOUS
 62
     4
 10
-85.278215189458933
 20
98.656597821599917
 30
0.0
 11
-54.944360394541953
 21
98.656597821599917
 31
0.0
  0
LINE
  8
NOTE
  6
CONTINUOUS
 62
     4
 10
70.11128779199953
 20
83.489670424141423
 30
0.0
 11
70.11128779199953
 21
113.8235252190584
 31
0.0
  0
LINE
  8
NOTE
  6
CONTINUOUS
 62
     4
 10
54.944360394541043
 20
98.656597821599917
 30
0.0
 11
85.278215189458024
 21
98.656597821599917
 31
0.0
  0
LINE
  8
NOTE
  6
CONTINUOUS
 62
     4
 10
98.656597821599462
 20
54.944360394541491
 30
0.0
 11
98.656597821599462
 21
85.278215189458479
 31
0.0
  0
LINE
  8
NOTE
  6
CONTINUOUS
 62
     4
 10
83.489670424140968
 20
70.111287791999985
 30
0.0
 11
113.823525219058
 21
70.111287791999985
 31
0.0
  0
LINE
  8
NOTE
  6
CONTINUOUS
 62
     4
 10
98.656597821599462
 20
-85.278215189458479
 30
0.0
 11
98.656597821599462
 21
-54.944360394541491
 31
0.0
  0
LINE
  8
NOTE
  6
CONTINUOUS
 62
     4
 10
83.489670424140968
 20
-70.111287791999985
 30
0.0
 11
113.823525219058
 21
-70.111287791999985
 31
0.0
  0
LINE
  8
NOTE
  6
CONTINUOUS
 62
     4
 10
70.11128779199953
 20
-113.8235252190584
 30
0.0
 11
70.11128779199953
 21
-83.489670424141423
 31
0.0
  0
LINE
  8
NOTE
  6
CONTINUOUS
 62
     4
 10
54.944360394541043
 20
-98.656597821599917
 30
0.0
 11
85.278215189458024
 21
-98.656597821599917
 31
0.0
  0
LINE
  8
SIZE
  6
CONTINUOUS
 62
    30
 10
70.11128779199953
 20
133.82352521905841
 30
0.0
 11
70.11128779199953
 21
265.20000549977522
 31
0.0
  0
LINE
  8
SIZE
  6
CONTINUOUS
 62
    30
 10
-70.111287792000439
 20
133.82352521905841
 30
0.0
 11
-70.111287792000439
 21
265.20000549977522
 31
0.0
  0
LINE
  8
SIZE
  6
CONTINUOUS
 62
    30
 10
82.11128779199953
 20
245.20000549977519
 30
0.0
 11
94.11128779199953
 21
245.20000549977519
 31
0.0
  0
LINE
  8
SIZE
  6
CONTINUOUS
 62
    30
 10
-82.111287792000439
 20
245.20000549977519
 30
0.0
 11
-94.111287792000439
 21
245.20000549977519
 31
0.0
  0
LINE
  8
SIZE
  6
CONTINUOUS
 62
    30
 10
70.11128779199953
 20
245.20000549977519
 30
0.0
 11
-70.111287792000439
 21
245.20000549977519
 31
0.0
  0
CIRCLE
  8
SIZE
  6
CONTINUOUS
 62
    30
 10
70.11128779199953
 20
245.20000549977519
 30
0.0
 40
6.0
  0
LINE
  8
SIZE
  6
CONTINUOUS
 62
    30
 10
70.11128779199953
 20
245.20000549977519
 30
0.0
 11
82.11128779199953
 21
245.20000549977519
 31
0.0
  0
CIRCLE
  8
SIZE
  6
CONTINUOUS
 62
    30
 10
-70.111287792000439
 20
245.20000549977519
 30
0.0
 40
6.0
  0
LINE
  8
SIZE
  6
CONTINUOUS
 62
    30
 10
-70.111287792000439
 20
245.20000549977519
 30
0.0
 11
-82.111287792000439
 21
245.20000549977519
 31
0.0
  0
TEXT
  8
SIZE
  6
CONTINUOUS
 62
    30
 10
-68.571428571429024
 20
270.20000549977522
 30
0.0
 40
64.0
  1
140
 41
0.9
 72
     1
 11
-0.0000000000004547
 21
270.20000549977522
 31
0.0
  0
POINT
  8
DEFPOINTS
  6
CONTINUOUS
 62
    30
 10
70.11128779199953
 20
113.8235252190584
 30
0.0
  0
POINT
  8
DEFPOINTS
  6
CONTINUOUS
 62
    30
 10
-70.111287792000439
 20
113.8235252190584
 30
0.0
  0
POINT
  8
DEFPOINTS
  6
CONTINUOUS
 62
    30
 10
-70.111287792000439
 20
245.20000549977519
 30
0.0
  0
LINE
  8
SIZE
  6
CONTINUOUS
 62
    30
 10
98.656597821599462
 20
105.27821518945851
 30
0.0
 11
98.656597821599462
 21
387.76312285326372
 31
0.0
  0
LINE
  8
SIZE
  6
CONTINUOUS
 62
    30
 10
-98.656597821600371
 20
105.2782151894589
 30
0.0
 11
-98.656597821600371
 21
387.76312285326372
 31
0.0
  0
LINE
  8
SIZE
  6
CONTINUOUS
 62
    30
 10
86.656597821599462
 20
367.76312285326372
 30
0.0
 11
-86.656597821600371
 21
367.76312285326372
 31
0.0
  0
CIRCLE
  8
SIZE
  6
CONTINUOUS
 62
    30
 10
98.656597821599462
 20
367.76312285326372
 30
0.0
 40
6.0
  0
LINE
  8
SIZE
  6
CONTINUOUS
 62
    30
 10
98.656597821599462
 20
367.76312285326372
 30
0.0
 11
86.656597821599462
 21
367.76312285326372
 31
0.0
  0
CIRCLE
  8
SIZE
  6
CONTINUOUS
 62
    30
 10
-98.656597821600371
 20
367.76312285326372
 30
0.0
 40
6.0
  0
LINE
  8
SIZE
  6
CONTINUOUS
 62
    30
 10
-98.656597821600371
 20
367.76312285326372
 30
0.0
 11
-86.656597821600371
 21
367.76312285326372
 31
0.0
  0
TEXT
  8
SIZE
  6
CONTINUOUS
 62
    30
 10
-68.571428571429024
 20
392.76312285326372
 30
0.0
 40
64.0
  1
197
 41
0.9
 72
     1
 11
-0.0000000000004547
 21
392.76312285326372
 31
0.0
  0
POINT
  8
DEFPOINTS
  6
CONTINUOUS
 62
    30
 10
98.656597821599462
 20
85.278215189458479
 30
0.0
  0
POINT
  8
DEFPOINTS
  6
CONTINUOUS
 62
    30
 10
-98.656597821600371
 20
85.278215189458933
 30
0.0
  0
POINT
  8
DEFPOINTS
  6
CONTINUOUS
 62
    30
 10
-98.656597821600371
 20
367.76312285326372
 30
0.0
  0
LINE
  8
SIZE
  6
CONTINUOUS
 62
    30
 10
111.67726555440051
 20
121.6613672983999
 30
0.0
 11
111.67726555440051
 21
505.89380582960803
 31
0.0
  0
LINE
  8
SIZE
  6
CONTINUOUS
 62
    30
 10
-111.67726555440029
 20
121.6613672983999
 30
0.0
 11
-111.67726555440029
 21
505.89380582960803
 31
0.0
  0
LINE
  8
SIZE
  6
CONTINUOUS
 62
    30
 10
99.677265554400492
 20
485.89380582960803
 30
0.0
 11
-99.677265554400265
 21
485.89380582960803
 31
0.0
  0
CIRCLE
  8
SIZE
  6
CONTINUOUS
 62
    30
 10
111.67726555440051
 20
485.89380582960803
 30
0.0
 40
6.0
  0
LINE
  8
SIZE
  6
CONTINUOUS
 62
    30
 10
111.67726555440051
 20
485.89380582960803
 30
0.0
 11
99.677265554400492
 21
485.89380582960803
 31
0.0
  0
CIRCLE
  8
SIZE
  6
CONTINUOUS
 62
    30
 10
-111.67726555440029
 20
485.89380582960803
 30
0.0
 40
6.0
  0
LINE
  8
SIZE
  6
CONTINUOUS
 62
    30
 10
-111.67726555440029
 20
485.89380582960803
 30
0.0
 11
-99.677265554400265
 21
485.89380582960803
 31
0.0
  0
TEXT
  8
SIZE
  6
CONTINUOUS
 62
    30
 10
-74.057142857142836
 20
510.89380582960803
 30
0.0
 40
64.0
  1
223
 41
0.9
 72
     1
 11
0.0
 21
510.89380582960803
 31
0.0
  0
POINT
  8
DEFPOINTS
  6
CONTINUOUS
 62
    30
 10
111.67726555440051
 20
101.6613672983999
 30
0.0
  0
POINT
  8
DEFPOINTS
  6
CONTINUOUS
 62
    30
 10
-111.67726555440029
 20
101.6613672983999
 30
0.0
  0
POINT
  8
DEFPOINTS
  6
CONTINUOUS
 62
    30
 10
-111.67726555440029
 20
485.89380582960803
 30
0.0
  0
LINE
  8
SIZE
  6
CONTINUOUS
 62
    30
 10
105.278215189458
 20
98.656597821599917
 30
0.0
 11
611.5943741080373
 21
98.656597821599689
 31
0.0
  0
LINE
  8
SIZE
  6
CONTINUOUS
 62
    30
 10
105.278215189458
 20
-98.656597821599917
 30
0.0
 11
611.5943741080373
 21
-98.656597821600144
 31
0.0
  0
LINE
  8
SIZE
  6
CONTINUOUS
 62
    30
 10
591.5943741080373
 20
86.656597821599689
 30
0.0
 11
591.5943741080373
 21
-86.65659782160003
 31
0.0
  0
CIRCLE
  8
SIZE
  6
CONTINUOUS
 62
    30
 10
591.5943741080373
 20
98.656597821599689
 30
0.0
 40
6.0
  0
LINE
  8
SIZE
  6
CONTINUOUS
 62
    30
 10
591.5943741080373
 20
98.656597821599689
 30
0.0
 11
591.5943741080373
 21
86.656597821599689
 31
0.0
  0
CIRCLE
  8
SIZE
  6
CONTINUOUS
 62
    30
 10
591.5943741080373
 20
-98.65659782160003
 30
0.0
 40
6.0
  0
LINE
  8
SIZE
  6
CONTINUOUS
 62
    30
 10
591.5943741080373
 20
-98.65659782160003
 30
0.0
 11
591.5943741080373
 21
-86.65659782160003
 31
0.0
  0
TEXT
  8
SIZE
  6
CONTINUOUS
 62
    30
 10
566.5943741080373
 20
-68.571428571428569
 30
0.0
 40
64.0
  1
197
 50
90.0
 41
0.9
 72
     1
 11
566.5943741080373
 21
0.0
 31
0.0
  0
POINT
  8
DEFPOINTS
  6
CONTINUOUS
 62
    30
 10
85.278215189458024
 20
98.656597821599917
 30
0.0
  0
POINT
  8
DEFPOINTS
  6
CONTINUOUS
 62
    30
 10
85.278215189458024
 20
-98.656597821599917
 30
0.0
  0
POINT
  8
DEFPOINTS
  6
CONTINUOUS
 62
    30
 10
591.5943741080373
 20
-98.65659782160003
 30
0.0
  0
LINE
  8
SIZE
  6
CONTINUOUS
 62
    30
 10
133.82352521905801
 20
70.111287791999985
 30
0.0
 11
455.22533084435139
 21
70.111287791999757
 31
0.0
  0
LINE
  8
SIZE
  6
CONTINUOUS
 62
    30
 10
133.82352521905801
 20
-70.111287791999985
 30
0.0
 11
455.22533084435139
 21
-70.111287792000098
 31
0.0
  0
LINE
  8
SIZE
  6
CONTINUOUS
 62
    30
 10
435.22533084435139
 20
-58.111287792000098
 30
0.0
 11
435.22533084435139
 21
58.111287791999757
 31
0.0
  0
LINE
  8
SIZE
  6
CONTINUOUS
 62
    30
 10
435.22533084435139
 20
70.111287791999757
 30
0.0
 11
435.22533084435139
 21
303.85342717646381
 31
0.0
  0
CIRCLE
  8
SIZE
  6
CONTINUOUS
 62
    30
 10
435.22533084435139
 20
-70.111287792000098
 30
0.0
 40
6.0
  0
LINE
  8
SIZE
  6
CONTINUOUS
 62
    30
 10
435.22533084435139
 20
-70.111287792000098
 30
0.0
 11
435.22533084435139
 21
-58.111287792000098
 31
0.0
  0
CIRCLE
  8
SIZE
  6
CONTINUOUS
 62
    30
 10
435.22533084435139
 20
70.111287791999757
 30
0.0
 40
6.0
  0
LINE
  8
SIZE
  6
CONTINUOUS
 62
    30
 10
435.22533084435139
 20
70.111287791999757
 30
0.0
 11
435.22533084435139
 21
58.111287791999757
 31
0.0
  0
TEXT
  8
SIZE
  6
CONTINUOUS
 62
    30
 10
410.22533084435139
 20
141.71057003360681
 30
0.0
 40
64.0
  1
140
 50
90.0
 41
0.9
 72
     1
 11
410.22533084435139
 21
210.2819986050354
 31
0.0
  0
POINT
  8
DEFPOINTS
  6
CONTINUOUS
 62
    30
 10
113.823525219058
 20
70.111287791999985
 30
0.0
  0
POINT
  8
DEFPOINTS
  6
CONTINUOUS
 62
    30
 10
113.823525219058
 20
-70.111287791999985
 30
0.0
  0
POINT
  8
DEFPOINTS
  6
CONTINUOUS
 62
    30
 10
435.22533084435139
 20
-70.111287792000098
 30
0.0
  0
LINE
  8
SIZE
  6
CONTINUOUS
 62
    30
 10
121.66136729840041
 20
111.6772655543998
 30
0.0
 11
766.20646531630791
 21
111.6772655543996
 31
0.0
  0
LINE
  8
SIZE
  6
CONTINUOUS
 62
    30
 10
121.66136729840041
 20
-111.6772655543999
 30
0.0
 11
766.20646531630791
 21
-111.67726555439999
 31
0.0
  0
LINE
  8
SIZE
  6
CONTINUOUS
 62
    30
 10
746.20646531630791
 20
99.677265554399582
 30
0.0
 11
746.20646531630791
 21
-99.677265554400037
 31
0.0
  0
CIRCLE
  8
SIZE
  6
CONTINUOUS
 62
    30
 10
746.20646531630791
 20
111.6772655543996
 30
0.0
 40
6.0
  0
LINE
  8
SIZE
  6
CONTINUOUS
 62
    30
 10
746.20646531630791
 20
111.6772655543996
 30
0.0
 11
746.20646531630791
 21
99.677265554399582
 31
0.0
  0
CIRCLE
  8
SIZE
  6
CONTINUOUS
 62
    30
 10
746.20646531630791
 20
-111.67726555439999
 30
0.0
 40
6.0
  0
LINE
  8
SIZE
  6
CONTINUOUS
 62
    30
 10
746.20646531630791
 20
-111.67726555439999
 30
0.0
 11
746.20646531630791
 21
-99.677265554400037
 31
0.0
  0
TEXT
  8
SIZE
  6
CONTINUOUS
 62
    30
 10
721.20646531630791
 20
-74.057142857142836
 30
0.0
 40
64.0
  1
223
 50
90.0
 41
0.9
 72
     1
 11
721.20646531630791
 21
0.0
 31
0.0
  0
POINT
  8
DEFPOINTS
  6
CONTINUOUS
 62
    30
 10
101.66136729840041
 20
111.6772655543998
 30
0.0
  0
POINT
  8
DEFPOINTS
  6
CONTINUOUS
 62
    30
 10
101.66136729840041
 20
-111.6772655543999
 30
0.0
  0
POINT
  8
DEFPOINTS
  6
CONTINUOUS
 62
    30
 10
746.20646531630791
 20
-111.67726555439999
 30
0.0
  0
LINE
  8
SIZE
  6
CONTINUOUS
 62
    30
 10
-72.357926113320104
 20
-125.4882321878781
 30
0.0
 11
-278.42084726369831
 21
-125.4882321878781
 31
0.0
  0
LINE
  8
SIZE
  6
CONTINUOUS
 62
    30
 10
-69.077901454400489
 20
-185.49443570112041
 30
0.0
 11
-278.42084726369842
 21
-185.49443570112041
 31
0.0
  0
LINE
  8
SIZE
  6
CONTINUOUS
 62
    30
 10
-258.42084726369831
 20
-113.4882321878781
 30
0.0
 11
-258.42084726369831
 21
-101.4882321878781
 31
0.0
  0
LINE
  8
SIZE
  6
CONTINUOUS
 62
    30
 10
-258.42084726369842
 20
-197.49443570112041
 30
0.0
 11
-258.42084726369842
 21
-352.75157855826308
 31
0.0
  0
LINE
  8
SIZE
  6
CONTINUOUS
 62
    30
 10
-258.42084726369831
 20
-125.4882321878781
 30
0.0
 11
-258.42084726369842
 21
-185.49443570112041
 31
0.0
  0
CIRCLE
  8
SIZE
  6
CONTINUOUS
 62
    30
 10
-258.42084726369831
 20
-125.4882321878781
 30
0.0
 40
6.0
  0
LINE
  8
SIZE
  6
CONTINUOUS
 62
    30
 10
-258.42084726369831
 20
-125.4882321878781
 30
0.0
 11
-258.42084726369831
 21
-113.4882321878781
 31
0.0
  0
CIRCLE
  8
SIZE
  6
CONTINUOUS
 62
    30
 10
-258.42084726369842
 20
-185.49443570112041
 30
0.0
 40
6.0
  0
LINE
  8
SIZE
  6
CONTINUOUS
 62
    30
 10
-258.42084726369842
 20
-185.49443570112041
 30
0.0
 11
-258.42084726369842
 21
-197.49443570112041
 31
0.0
  0
TEXT
  8
SIZE
  6
CONTINUOUS
 62
    30
 10
-283.42084726369831
 20
-327.75157855826319
 30
0.0
 40
64.0
  1
60
 50
90.0
 41
0.9
 72
     1
 11
-283.42084726369831
 21
-281.12300712969181
 31
0.0
  0
POINT
  8
DEFPOINTS
  6
CONTINUOUS
 62
    30
 10
-52.357926113320097
 20
-125.4882321878781
 30
0.0
  0
POINT
  8
DEFPOINTS
  6
CONTINUOUS
 62
    30
 10
-49.077901454400489
 20
-185.49443570112041
 30
0.0
  0
POINT
  8
DEFPOINTS
  6
CONTINUOUS
 62
    30
 10
-258.42084726369842
 20
-185.49443570112041
 30
0.0
  0
LINE
  8
SIZE
  6
CONTINUOUS
 62
    30
 10
-69.329981187681369
 20
-155.54497866427349
 30
0.0
 11
-155.46838974233111
 21
-155.54497866427349
 31
0.0
  0
LINE
  8
SIZE
  6
CONTINUOUS
 62
    30
 10
-69.068616235738546
 20
-185.49443570112041
 30
0.0
 11
-155.46838974233111
 21
-185.49443570112041
 31
0.0
  0
LINE
  8
SIZE
  6
CONTINUOUS
 62
    30
 10
-135.46838974233111
 20
-143.54497866427349
 30
0.0
 11
-135.46838974233111
 21
-131.54497866427349
 31
0.0
  0
LINE
  8
SIZE
  6
CONTINUOUS
 62
    30
 10
-135.46838974233111
 20
-197.49443570112041
 30
0.0
 11
-135.46838974233111
 21
-352.75157855826319
 31
0.0
  0
LINE
  8
SIZE
  6
CONTINUOUS
 62
    30
 10
-135.46838974233111
 20
-155.54497866427349
 30
0.0
 11
-135.46838974233111
 21
-185.49443570112041
 31
0.0
  0
CIRCLE
  8
SIZE
  6
CONTINUOUS
 62
    30
 10
-135.46838974233111
 20
-155.54497866427349
 30
0.0
 40
6.0
  0
LINE
  8
SIZE
  6
CONTINUOUS
 62
    30
 10
-135.46838974233111
 20
-155.54497866427349
 30
0.0
 11
-135.46838974233111
 21
-143.54497866427349
 31
0.0
  0
CIRCLE
  8
SIZE
  6
CONTINUOUS
 62
    30
 10
-135.46838974233111
 20
-185.49443570112041
 30
0.0
 40
6.0
  0
LINE
  8
SIZE
  6
CONTINUOUS
 62
    30
 10
-135.46838974233111
 20
-185.49443570112041
 30
0.0
 11
-135.46838974233111
 21
-197.49443570112041
 31
0.0
  0
TEXT
  8
SIZE
  6
CONTINUOUS
 62
    30
 10
-160.46838974233111
 20
-327.75157855826347
 30
0.0
 40
64.0
  1
30
 50
90.0
 41
0.9
 72
     1
 11
-160.46838974233111
 21
-281.12300712969198
 31
0.0
  0
POINT
  8
DEFPOINTS
  6
CONTINUOUS
 62
    30
 10
-49.329981187681369
 20
-155.54497866427349
 30
0.0
  0
POINT
  8
DEFPOINTS
  6
CONTINUOUS
 62
    30
 10
-49.068616235738553
 20
-185.49443570112041
 30
0.0
  0
POINT
  8
DEFPOINTS
  6
CONTINUOUS
 62
    30
 10
-135.46838974233111
 20
-185.49443570112041
 30
0.0
  0
LINE
  8
SIZE
  6
CONTINUOUS
 62
    30
 10
-49.067758928046707
 20
-205.59267343227381
 30
0.0
 11
-49.067758928046707
 21
-458.3805848805232
 31
0.0
  0
LINE
  8
SIZE
  6
CONTINUOUS
 62
    30
 10
49.088043980752452
 20
-205.59267343227381
 30
0.0
 11
49.088043980752452
 21
-458.3805848805232
 31
0.0
  0
LINE
  8
SIZE
  6
CONTINUOUS
 62
    30
 10
-37.067758928046707
 20
-438.3805848805232
 30
0.0
 11
37.088043980752452
 21
-438.3805848805232
 31
0.0
  0
LINE
  8
SIZE
  6
CONTINUOUS
 62
    30
 10
49.088043980752452
 20
-438.3805848805232
 30
0.0
 11
269.21002170428511
 21
-438.3805848805232
 31
0.0
  0
CIRCLE
  8
SIZE
  6
CONTINUOUS
 62
    30
 10
-49.067758928046707
 20
-438.3805848805232
 30
0.0
 40
6.0
  0
LINE
  8
SIZE
  6
CONTINUOUS
 62
    30
 10
-49.067758928046707
 20
-438.3805848805232
 30
0.0
 11
-37.067758928046707
 21
-438.3805848805232
 31
0.0
  0
CIRCLE
  8
SIZE
  6
CONTINUOUS
 62
    30
 10
49.088043980752452
 20
-438.3805848805232
 30
0.0
 40
6.0
  0
LINE
  8
SIZE
  6
CONTINUOUS
 62
    30
 10
49.088043980752452
 20
-438.3805848805232
 30
0.0
 11
37.088043980752452
 21
-438.3805848805232
 31
0.0
  0
TEXT
  8
SIZE
  6
CONTINUOUS
 62
    30
 10
80.461450275713659
 20
-402.71391821385657
 30
0.0
 40
64.0
  1
φ98
 41
0.9
 72
     1
 11
167.4100217042851
 21
-402.71391821385657
 31
0.0
  0
POINT
  8
DEFPOINTS
  6
CONTINUOUS
 62
    30
 10
-49.067758928046707
 20
-185.59267343227381
 30
0.0
  0
POINT
  8
DEFPOINTS
  6
CONTINUOUS
 62
    30
 10
49.088043980752452
 20
-185.59267343227381
 30
0.0
  0
POINT
  8
DEFPOINTS
  6
CONTINUOUS
 62
    30
 10
49.088043980752452
 20
-438.3805848805232
 30
0.0
  0
LINE
  8
SIZE
  6
CONTINUOUS
 62
    30
 10
-52.833804495348197
 20
-168.5979577816706
 30
0.0
 11
-52.833804495348197
 21
-611.1846460789975
 31
0.0
  0
LINE
  8
SIZE
  6
CONTINUOUS
 62
    30
 10
52.357010389285279
 20
-169.5835152693204
 30
0.0
 11
52.357010389285279
 21
-611.1846460789975
 31
0.0
  0
LINE
  8
SIZE
  6
CONTINUOUS
 62
    30
 10
-40.833804495348318
 20
-591.1846460789975
 30
0.0
 11
40.357010389285279
 21
-591.1846460789975
 31
0.0
  0
LINE
  8
SIZE
  6
CONTINUOUS
 62
    30
 10
52.357010389285279
 20
-591.1846460789975
 30
0.0
 11
311.84272467499949
 21
-591.1846460789975
 31
0.0
  0
CIRCLE
  8
SIZE
  6
CONTINUOUS
 62
    30
 10
-52.833804495348197
 20
-591.1846460789975
 30
0.0
 40
6.0
  0
LINE
  8
SIZE
  6
CONTINUOUS
 62
    30
 10
-52.833804495348197
 20
-591.1846460789975
 30
0.0
 11
-40.833804495348318
 21
-591.1846460789975
 31
0.0
  0
CIRCLE
  8
SIZE
  6
CONTINUOUS
 62
    30
 10
52.357010389285279
 20
-591.1846460789975
 30
0.0
 40
6.0
  0
LINE
  8
SIZE
  6
CONTINUOUS
 62
    30
 10
52.357010389285279
 20
-591.1846460789975
 30
0.0
 11
40.357010389285279
 21
-591.1846460789975
 31
0.0
  0
TEXT
  8
SIZE
  6
CONTINUOUS
 62
    30
 10
79.208438960713949
 20
-555.51797941233087
 30
0.0
 40
64.0
  1
φ105
 41
0.9
 72
     1
 11
188.0998675321425
 21
-555.51797941233087
 31
0.0
  0
POINT
  8
DEFPOINTS
  6
CONTINUOUS
 62
    30
 10
-52.833804495348197
 20
-148.5979577816706
 30
0.0
  0
POINT
  8
DEFPOINTS
  6
CONTINUOUS
 62
    30
 10
52.357010389285279
 20
-149.5835152693204
 30
0.0
  0
POINT
  8
DEFPOINTS
  6
CONTINUOUS
 62
    30
 10
52.357010389285279
 20
-591.1846460789975
 30
0.0
  0
TEXT
  8
NOTE
  6
CONTINUOUS
 62
     4
 10
469.94317698680521
 20
-262.22091728576203
 30
0.0
 40
64.0
  1
5-φ5
 41
0.9
  0
TEXT
  8
NOTE
  6
CONTINUOUS
 62
     4
 10
464.67230865068808
 20
-427.33262318232772
 30
0.0
 40
64.0
  1
4-φ5
 41
0.9
  0
LINE
  8
NOTE
  6
CONTINUOUS
 62
     4
 10
73.375889372815664
 20
-103.9412052628895
 30
0.0
 11
70.11128779199953
 21
-98.65659782160003
 31
0.0
  0
LINE
  8
NOTE
  6
CONTINUOUS
 62
     4
 10
70.11128779199953
 20
-98.65659782160003
 30
0.0
 11
75.580823851759305
 21
-101.6008930820971
 31
0.0
  0
LINE
  8
NOTE
  6
CONTINUOUS
 62
     4
 10
70.11128779199953
 20
-98.65659782160003
 30
0.0
 11
78.845425432575666
 21
-106.8855005233866
 31
0.0
  0
LINE
  8
NOTE
  6
CONTINUOUS
 62
     4
 10
78.845425432575666
 20
-106.8855005233866
 30
0.0
 11
454.63010214088263
 21
-460.76009110754723
 31
0.0
  0
LINE
  8
NOTE
  6
CONTINUOUS
 62
     4
 10
454.63010214088263
 20
-460.76009110754723
 30
0.0
 11
716.54438785516822
 21
-460.76009110754723
 31
0.0
  0
LINE
  8
NOTE
  6
CONTINUOUS
 62
     4
 10
102.8952509425244
 20
-74.65204973362097
 30
0.0
 11
98.656597821599462
 21
-70.111287791999985
 31
0.0
  0
LINE
  8
NOTE
  6
CONTINUOUS
 62
     4
 10
98.656597821599462
 20
-70.111287791999985
 30
0.0
 11
104.5977628051769
 21
-71.924367472519407
 31
0.0
  0
LINE
  8
NOTE
  6
CONTINUOUS
 62
     4
 10
98.656597821599462
 20
-70.111287791999985
 30
0.0
 11
108.83641592610211
 21
-76.465129414140392
 31
0.0
  0
LINE
  8
NOTE
  6
CONTINUOUS
 62
     4
 10
108.83641592610211
 20
-76.465129414140279
 30
0.0
 11
459.90097047699959
 21
-295.64838521098159
 31
0.0
  0
LINE
  8
NOTE
  6
CONTINUOUS
 62
     4
 10
459.90097047699959
 20
-295.64838521098159
 30
0.0
 11
721.81525619128524
 21
-295.64838521098159
 31
0.0
  0
LINE
  8
NOTE
  6
CONTINUOUS
 62
     4
 10
22.03497616320055
 20
-111.31955065505841
 30
0.0
 11
22.03497616320055
 21
-80.985695860141846
 31
0.0
  0
LINE
  8
NOTE
  6
CONTINUOUS
 62
     4
 10
6.8680487657411504
 20
-96.152623257599771
 30
0.0
 11
37.201903560657911
 21
-96.152623257599885
 31
0.0
  0
LINE
  8
DETAIL
  6
CONTINUOUS
 62
     5
 10
52.357010389285051
 20
-149.583515269321
 30
0.0
 11
52.357010389285051
 21
-149.89429102720121
 31
0.0
  0
LINE
  8
DETAIL
  6
CONTINUOUS
 62
     5
 10
-12.019077907200881
 20
-90.643879216800087
 30
0.0
 11
-15.02384738400019
 21
-90.643879216800087
 31
0.0
  0
LINE
  8
DETAIL
  6
CONTINUOUS
 62
     5
 10
-8.0127186048002841
 20
-96.653418170399618
 30
0.0
 11
-12.019077907200881
 21
-96.653418170399618
 31
0.0
  0
LINE
  8
DETAIL
  6
CONTINUOUS
 62
     5
 10
-10.0158982559999
 20
-87.639109740000094
 30
0.0
 11
-5.0079491280002912
 21
-90.643879216800087
 31
0.0
  0
LINE
  8
DETAIL
  6
CONTINUOUS
 62
     5
 10
-15.02384738400019
 20
-90.643879216800087
 30
0.0
 11
-10.0158982559999
 21
-87.639109740000094
 31
0.0
  0
LINE
  8
DETAIL
  6
CONTINUOUS
 62
     5
 10
-5.0079491280002912
 20
-90.643879216800087
 30
0.0
 11
-8.0127186048002841
 21
-90.643879216800087
 31
0.0
  0
LINE
  8
DETAIL
  6
CONTINUOUS
 62
     5
 10
-8.0127186048002841
 20
-90.643879216800087
 30
0.0
 11
-8.0127186048002841
 21
-96.653418170399618
 31
0.0
  0
LINE
  8
DETAIL
  6
CONTINUOUS
 62
     5
 10
-12.019077907200881
 20
-90.643879216800087
 30
0.0
 11
-12.019077907200881
 21
-96.653418170399618
 31
0.0
  0
LINE
  8
DETAIL
  6
CONTINUOUS
 62
     5
 10
-3.5055643896005222
 20
-83.523694024229826
 30
0.0
 11
-3.5055643896005222
 21
-86.027668588229972
 31
0.0
  0
LINE
  8
DETAIL
  6
CONTINUOUS
 62
     5
 10
-16.52623212240087
 20
-83.523694024229826
 30
0.0
 11
-16.52623212240087
 21
-86.027668588229972
 31
0.0
  0
ARC
  8
DETAIL
  6
CONTINUOUS
 62
     5
 10
-13.020667732800799
 20
-84.525283849829975
 30
0.0
 40
1.001589825600004
 50
90.0
 51
180.0
  0
ARC
  8
DETAIL
  6
CONTINUOUS
 62
     5
 10
-7.0111287792005896
 20
-84.525283849829975
 30
0.0
 40
1.001589825600004
 50
0.0
 51
90.0
  0
ARC
  8
DETAIL
  6
CONTINUOUS
 62
     5
 10
-7.0111287792005896
 20
-85.026078762629822
 30
0.0
 40
1.001589825600004
 50
270.0
 51
0.0
  0
ARC
  8
DETAIL
  6
CONTINUOUS
 62
     5
 10
-13.020667732800799
 20
-85.026078762629822
 30
0.0
 40
1.001589825600004
 50
180.0
 51
270.0
  0
LINE
  8
DETAIL
  6
CONTINUOUS
 62
     5
 10
-1.001589825599694
 20
-86.637519914399945
 30
0.0
 11
-19.030206686399652
 21
-86.637519914399945
 31
0.0
  0
LINE
  8
DETAIL
  6
CONTINUOUS
 62
     5
 10
-6.0095389535999857
 20
-84.525283849829975
 30
0.0
 11
-6.0095389535999857
 21
-85.026078762629822
 31
0.0
  0
LINE
  8
DETAIL
  6
CONTINUOUS
 62
     5
 10
-14.02225755840027
 20
-84.525283849829975
 30
0.0
 11
-14.02225755840027
 21
-85.026078762629822
 31
0.0
  0
LINE
  8
DETAIL
  6
CONTINUOUS
 62
     5
 10
-19.030206686399652
 20
-86.027668588229972
 30
0.0
 11
-1.001589825599694
 21
-86.027668588229972
 31
0.0
  0
ARC
  8
DETAIL
  6
CONTINUOUS
 62
     5
 10
-0.0000000000002274
 20
-84.525283849829975
 30
0.0
 40
1.001589825600004
 50
90.0
 51
180.0
  0
ARC
  8
DETAIL
  6
CONTINUOUS
 62
     5
 10
-20.031796512000259
 20
-84.525283849829975
 30
0.0
 40
1.001589825600004
 50
0.0
 51
90.0
  0
ARC
  8
DETAIL
  6
CONTINUOUS
 62
     5
 10
-10.0158982559999
 20
-89.642289391199483
 30
0.0
 40
9.0143084303999856
 50
180.0
 51
0.0
  0
LINE
  8
DETAIL
  6
CONTINUOUS
 62
     5
 10
-1.001589825599694
 20
-84.525283849829975
 30
0.0
 11
-1.001589825599694
 21
-89.642289391199483
 31
0.0
  0
LINE
  8
DETAIL
  6
CONTINUOUS
 62
     5
 10
-19.030206686399652
 20
-84.525283849829975
 30
0.0
 11
-19.030206686399652
 21
-89.642289391199483
 31
0.0
  0
LINE
  8
DETAIL
  6
CONTINUOUS
 62
     5
 10
-89.141494478400205
 20
-109.6740859031997
 30
0.0
 11
-65.103338664000262
 21
-109.6740859031997
 31
0.0
  0
CIRCLE
  8
DETAIL
  6
CONTINUOUS
 62
     5
 10
22.03497616320055
 20
-96.152623257599885
 30
0.0
 40
8.0127143574581687
  0
CIRCLE
  8
DETAIL
  6
CONTINUOUS
 62
     5
 10
-70.111287792000553
 20
-98.656597821599917
 30
0.0
 40
2.50397456399996
  0
LINE
  8
DETAIL
  6
CONTINUOUS
 62
     5
 10
54.241783875316969
 20
-115.6580997706329
 30
0.0
 11
53.08426075679904
 21
-125.3990461651202
 31
0.0
  0
LINE
  8
DETAIL
  6
CONTINUOUS
 62
     5
 10
53.08426075679904
 20
-125.39904616471961
 30
0.0
 11
52.881806922309579
 21
-148.5979577816706
 31
0.0
  0
LINE
  8
DETAIL
  6
CONTINUOUS
 62
     5
 10
49.427531134013407
 20
-155.4467409331202
 30
0.0
 11
49.07790145439958
 21
-185.49443570112069
 31
0.0
  0
LINE
  8
DETAIL
  6
CONTINUOUS
 62
     5
 10
-68.975249578597072
 20
-83.523694024229826
 30
0.0
 11
35.449677011351923
 21
-83.52369402422994
 31
0.0
  0
LINE
  8
DETAIL
  6
CONTINUOUS
 62
     5
 10
-49.427531133913483
 20
-155.44674093312011
 30
0.0
 11
-49.077901454400603
 21
-185.49443570112041
 31
0.0
  0
LINE
  8
DETAIL
  6
CONTINUOUS
 62
     5
 10
-53.084276519621312
 20
-125.3972399243698
 30
0.0
 11
-52.881806922209883
 21
-148.5979577816706
 31
0.0
  0
LINE
  8
DETAIL
  6
CONTINUOUS
 62
     5
 10
-53.08427532161943
 20
-125.3972587255134
 30
0.0
 11
-54.715867556946357
 21
-111.67726555439999
 31
0.0
  0
LINE
  8
DETAIL
  6
CONTINUOUS
 62
     5
 10
-68.974932679572817
 20
-83.219674742395
 30
0.0
 11
-68.975249578597072
 21
-83.523694024229826
 31
0.0
  0
LINE
  8
DETAIL
  6
CONTINUOUS
 62
     5
 10
53.08426075679904
 20
-125.39904616451921
 30
0.0
 11
53.039504061204752
 21
-125.3957413085142
 31
0.0
  0
LINE
  8
DETAIL
  6
CONTINUOUS
 62
     5
 10
53.039504061204752
 20
-125.3957413085142
 30
0.0
 11
52.905165692935043
 21
-125.3934803817402
 31
0.0
  0
LINE
  8
DETAIL
  6
CONTINUOUS
 62
     5
 10
52.905165692935043
 20
-125.3934803817402
 30
0.0
 11
52.681297113977053
 21
-125.3920925183821
 31
0.0
  0
LINE
  8
DETAIL
  6
CONTINUOUS
 62
     5
 10
52.681297113977053
 20
-125.3920925183821
 30
0.0
 11
52.368341821294052
 21
-125.39209031578559
 31
0.0
  0
LINE
  8
DETAIL
  6
CONTINUOUS
 62
     5
 10
52.368341821294052
 20
-125.39209031578559
 30
0.0
 11
51.478434506774647
 21
-125.39760981850409
 31
0.0
  0
LINE
  8
DETAIL
  6
CONTINUOUS
 62
     5
 10
-50.2295222637905
 20
-125.39878518656769
 30
0.0
 11
-52.367235310227557
 21
-125.3899631077643
 31
0.0
  0
LINE
  8
DETAIL
  6
CONTINUOUS
 62
     5
 10
-52.367235310227557
 20
-125.3899631077643
 30
0.0
 11
-52.681204025017109
 21
-125.3926631119862
 31
0.0
  0
LINE
  8
DETAIL
  6
CONTINUOUS
 62
     5
 10
-52.681204025017109
 20
-125.3926631119862
 30
0.0
 11
-52.90536775396788
 21
-125.3959363862614
 31
0.0
  0
LINE
  8
DETAIL
  6
CONTINUOUS
 62
     5
 10
-52.90536775396788
 20
-125.3959363862614
 30
0.0
 11
-53.039610633367488
 21
-125.3971718728517
 31
0.0
  0
LINE
  8
DETAIL
  6
CONTINUOUS
 62
     5
 10
-53.039610633367488
 20
-125.3971718728517
 30
0.0
 11
-53.084275464145428
 21
-125.3972423939899
 31
0.0
  0
LINE
  8
DETAIL
  6
CONTINUOUS
 62
     5
 10
33.666785579022871
 20
-125.3988173155668
 30
0.0
 11
23.85626208520716
 21
-125.3917561581767
 31
0.0
  0
LINE
  8
DETAIL
  6
CONTINUOUS
 62
     5
 10
17.380170841192921
 20
-125.39718058988829
 30
0.0
 11
-47.735837770641517
 21
-125.3958723273809
 31
0.0
  0
LINE
  8
DETAIL
  6
CONTINUOUS
 62
     5
 10
23.85626208520716
 20
-125.3917561581767
 30
0.0
 11
17.380170841192921
 21
-125.39718058988829
 31
0.0
  0
LINE
  8
DETAIL
  6
CONTINUOUS
 62
     5
 10
48.661886436301756
 20
-125.39549824069231
 30
0.0
 11
33.666785579022871
 21
-125.3988173155668
 31
0.0
  0
LINE
  8
DETAIL
  6
CONTINUOUS
 62
     5
 10
51.478434506774647
 20
-125.39760981850409
 30
0.0
 11
48.661886436301756
 21
-125.39549824069231
 31
0.0
  0
LINE
  8
DETAIL
  6
CONTINUOUS
 62
     5
 10
-47.735837770641517
 20
-125.3958723273809
 30
0.0
 11
-50.2295222637905
 21
-125.39878518656769
 31
0.0
  0
LINE
  8
DETAIL
  6
CONTINUOUS
 62
     5
 10
49.427531134013407
 20
-155.4467409331202
 30
0.0
 11
52.881806922309579
 21
-148.5979577816706
 31
0.0
  0
LINE
  8
DETAIL
  6
CONTINUOUS
 62
     5
 10
-49.427531133913483
 20
-155.44674093312011
 30
0.0
 11
-52.881806922209883
 21
-148.5979577816706
 31
0.0
  0
LINE
  8
DETAIL
  6
CONTINUOUS
 62
     5
 10
52.881806922309579
 20
-148.5979577816706
 30
0.0
 11
-52.881806922209883
 21
-148.5979577816706
 31
0.0
  0
LINE
  8
DETAIL
  6
CONTINUOUS
 62
     5
 10
-49.427531133913483
 20
-155.44674093312011
 30
0.0
 11
49.427531134013407
 21
-155.4467409331202
 31
0.0
  0
LINE
  8
DETAIL
  6
CONTINUOUS
 62
     5
 10
-49.077901454400603
 20
-185.49443570112041
 30
0.0
 11
49.07790145439958
 21
-185.49443570112069
 31
0.0
  0
LINE
  8
DETAIL
  6
CONTINUOUS
 62
     5
 10
-90.143084304000809
 20
-111.67726555439999
 30
0.0
 11
-101.66136729840051
 21
-111.67726555439999
 31
0.0
  0
LINE
  8
DETAIL
  6
CONTINUOUS
 62
     5
 10
-109.6740859032008
 20
-89.14149447839975
 30
0.0
 11
-109.6740859032009
 21
-65.103338663999807
 31
0.0
  0
LINE
  8
DETAIL
  6
CONTINUOUS
 62
     5
 10
-111.67726555440019
 20
-90.14171165999926
 30
0.0
 11
-111.67726555440019
 21
-101.66136729839999
 31
0.0
  0
ARC
  8
DETAIL
  6
CONTINUOUS
 62
     5
 10
-101.66136729840051
 20
-101.6613672983999
 30
0.0
 40
10.015898256000041
 50
180.0
 51
270.0
  0
CIRCLE
  8
DETAIL
  6
CONTINUOUS
 62
     5
 10
-98.656597821600599
 20
-70.111287791999985
 30
0.0
 40
2.5039745640000111
  0
CIRCLE
  8
DETAIL
  6
CONTINUOUS
 62
     5
 10
-70.111287792000553
 20
98.656597821600826
 30
0.0
 40
2.50397456399996
  0
CIRCLE
  8
DETAIL
  6
CONTINUOUS
 62
     5
 10
-98.656597821600485
 20
70.111287792000439
 30
0.0
 40
2.5039745640000608
  0
CIRCLE
  8
DETAIL
  6
CONTINUOUS
 62
     5
 10
70.11128779199953
 20
-98.65659782160003
 30
0.0
 40
2.50397456399996
  0
CIRCLE
  8
DETAIL
  6
CONTINUOUS
 62
     5
 10
98.656597821599235
 20
-70.111287792000098
 30
0.0
 40
2.5039745640000111
  0
CIRCLE
  8
DETAIL
  6
CONTINUOUS
 62
     5
 10
70.11128779199953
 20
-98.65659782160003
 30
0.0
 40
6.0095401183487551
  0
CIRCLE
  8
DETAIL
  6
CONTINUOUS
 62
     5
 10
98.656597821599235
 20
-70.111287792000098
 30
0.0
 40
6.0095401183488049
  0
CIRCLE
  8
DETAIL
  6
CONTINUOUS
 62
     5
 10
98.656597821599235
 20
-70.111287792000098
 30
0.0
 40
8.5135111929100216
  0
CIRCLE
  8
DETAIL
  6
CONTINUOUS
 62
     5
 10
70.11128779199953
 20
-98.65659782160003
 30
0.0
 40
8.5135111929099736
  0
CIRCLE
  8
DETAIL
  6
CONTINUOUS
 62
     5
 10
22.03497616320055
 20
-96.152623257599885
 30
0.0
 40
6.009538953599975
  0
CIRCLE
  8
DETAIL
  6
CONTINUOUS
 62
     5
 10
22.03497616320055
 20
-96.152623257599885
 30
0.0
 40
6.0540224956181694
  0
CIRCLE
  8
DETAIL
  6
CONTINUOUS
 62
     5
 10
22.03497616320055
 20
-96.152623257599885
 30
0.0
 40
8.0127155476474101
  0
CIRCLE
  8
DETAIL
  6
CONTINUOUS
 62
     5
 10
70.11128779199953
 20
98.656597821599917
 30
0.0
 40
2.50397456399996
  0
CIRCLE
  8
DETAIL
  6
CONTINUOUS
 62
     5
 10
98.656597821599462
 20
70.111287791999757
 30
0.0
 40
2.50397456399996
  0
CIRCLE
  8
DETAIL
  6
CONTINUOUS
 62
     5
 10
70.11128779199953
 20
98.656597821599917
 30
0.0
 40
6.0095401183488573
  0
CIRCLE
  8
DETAIL
  6
CONTINUOUS
 62
     5
 10
98.656597821599462
 20
70.111287791999757
 30
0.0
 40
6.0095401183488573
  0
CIRCLE
  8
DETAIL
  6
CONTINUOUS
 62
     5
 10
98.656597821599462
 20
70.111287791999757
 30
0.0
 40
8.5135111929099736
  0
CIRCLE
  8
DETAIL
  6
CONTINUOUS
 62
     5
 10
70.11128779199953
 20
98.656597821599917
 30
0.0
 40
8.5135111929099736
  0
CIRCLE
  8
DETAIL
  6
CONTINUOUS
 62
     5
 10
-70.111287792000553
 20
-98.656597821599917
 30
0.0
 40
2.50397456399996
  0
CIRCLE
  8
DETAIL
  6
CONTINUOUS
 62
     5
 10
-98.656597821600599
 20
-70.111287791999985
 30
0.0
 40
2.5039745640000111
  0
CIRCLE
  8
DETAIL
  6
CONTINUOUS
 62
     5
 10
-70.111287792000553
 20
-98.656597821599917
 30
0.0
 40
6.0095401183487551
  0
CIRCLE
  8
DETAIL
  6
CONTINUOUS
 62
     5
 10
-98.656597821600599
 20
-70.111287791999985
 30
0.0
 40
6.0095401183488049
  0
CIRCLE
  8
DETAIL
  6
CONTINUOUS
 62
     5
 10
-98.656597821600599
 20
-70.111287791999985
 30
0.0
 40
8.5135111929099736
  0
CIRCLE
  8
DETAIL
  6
CONTINUOUS
 62
     5
 10
-70.111287792000553
 20
-98.656597821599917
 30
0.0
 40
8.5135111929099736
  0
ARC
  8
DETAIL
  6
CONTINUOUS
 62
     5
 10
-101.66136729840051
 20
-101.6613672983999
 30
0.0
 40
10.015898255999989
 50
180.0
 51
270.0
  0
LINE
  8
DETAIL
  6
CONTINUOUS
 62
     5
 10
-101.66136729840051
 20
-111.67726555439999
 30
0.0
 11
-90.141711659999714
 21
-111.67726555439999
 31
0.0
  0
LINE
  8
DETAIL
  6
CONTINUOUS
 62
     5
 10
-65.103338664000262
 20
-109.6740859031997
 30
0.0
 11
-89.141494478400205
 21
-109.6740859031997
 31
0.0
  0
LINE
  8
DETAIL
  6
CONTINUOUS
 62
     5
 10
-26.601618332051661
 20
-97.122913401150072
 30
0.0
 11
-29.922496039800539
 21
-97.122913401150072
 31
0.0
  0
LINE
  8
DETAIL
  6
CONTINUOUS
 62
     5
 10
-21.43717079390262
 20
-97.122913401150072
 30
0.0
 11
-24.758048501550551
 21
-97.122913401150072
 31
0.0
  0
LINE
  8
DETAIL
  6
CONTINUOUS
 62
     5
 10
-31.26351981861535
 20
-92.754450296837149
 30
0.0
 11
-30.77245000458538
 21
-92.852664259663015
 31
0.0
  0
LINE
  8
DETAIL
  6
CONTINUOUS
 62
     5
 10
105.6677266007998
 20
10.516693168800201
 30
0.0
 11
105.6677266007998
 21
-10.516693168799749
 31
0.0
  0
LINE
  8
DETAIL
  6
CONTINUOUS
 62
     5
 10
-33.746615468972777
 20
-97.133047214372709
 30
0.0
 11
-34.236293943728008
 21
-97.237978316126828
 31
0.0
  0
LINE
  8
DETAIL
  6
CONTINUOUS
 62
     5
 10
-24.758048501550551
 20
-96.62211848834977
 30
0.0
 11
-22.13198661979823
 21
-96.62211848834977
 31
0.0
  0
LINE
  8
DETAIL
  6
CONTINUOUS
 62
     5
 10
-29.922496039800539
 20
-96.62211848834977
 30
0.0
 11
-27.296434158049351
 21
-96.62211848834977
 31
0.0
  0
LINE
  8
DETAIL
  6
CONTINUOUS
 62
     5
 10
-35.479251767549613
 20
-92.887775056503415
 30
0.0
 11
-35.007632209049923
 21
-92.71933949989625
 31
0.0
  0
LINE
  8
DETAIL
  6
CONTINUOUS
 62
     5
 10
-20.661595331868739
 20
-92.97339689071805
 30
0.0
 11
-22.415148882342919
 21
-94.873079903690268
 31
0.0
  0
LINE
  8
DETAIL
  6
CONTINUOUS
 62
     5
 10
-22.709997924035861
 20
-94.454169161403115
 30
0.0
 11
-21.029581158832119
 21
-92.633717665782115
 31
0.0
  0
LINE
  8
DETAIL
  6
CONTINUOUS
 62
     5
 10
-25.82604287011895
 20
-92.97339689071805
 30
0.0
 11
-27.579596420592679
 21
-94.873079903690268
 31
0.0
  0
LINE
  8
DETAIL
  6
CONTINUOUS
 62
     5
 10
-24.932837128398209
 20
-97.636717779401806
 30
0.0
 11
-25.55883076939881
 21
-98.262711420401502
 31
0.0
  0
LINE
  8
DETAIL
  6
CONTINUOUS
 62
     5
 10
-25.91294624823081
 20
-97.908595941570184
 30
0.0
 11
-25.286952607229981
 21
-97.282602300570034
 31
0.0
  0
LINE
  8
DETAIL
  6
CONTINUOUS
 62
     5
 10
-25.499421894468469
 20
-97.070133013331542
 30
0.0
 11
-26.125415535468392
 21
-97.696126654331238
 31
0.0
  0
LINE
  8
DETAIL
  6
CONTINUOUS
 62
     5
 10
-26.47953101430085
 20
-97.34201117549992
 30
0.0
 11
-25.853537373300469
 21
-96.71601753449977
 31
0.0
  0
LINE
  8
DETAIL
  6
CONTINUOUS
 62
     5
 10
-25.216585887390469
 20
-93.007314069625863
 30
0.0
 11
-24.925504756810369
 21
-92.599800486873846
 31
0.0
  0
LINE
  8
DETAIL
  6
CONTINUOUS
 62
     5
 10
-27.878395657638979
 20
-94.458448539669007
 30
0.0
 11
-26.194028697082331
 21
-92.633717665782115
 31
0.0
  0
LINE
  8
DETAIL
  6
CONTINUOUS
 62
     5
 10
-30.520819699080679
 20
-93.01827132570088
 30
0.0
 11
-30.263162842119531
 21
-92.588843230798375
 31
0.0
  0
LINE
  8
DETAIL
  6
CONTINUOUS
 62
     5
 10
-31.405640248668529
 20
-95.541306688246095
 30
0.0
 11
-32.034650310839417
 21
-97.27108435901755
 31
0.0
  0
LINE
  8
DETAIL
  6
CONTINUOUS
 62
     5
 10
-32.505294076361913
 20
-97.099941171481987
 30
0.0
 11
-31.882316856432229
 21
-95.386753816753753
 31
0.0
  0
LINE
  8
DETAIL
  6
CONTINUOUS
 62
     5
 10
-31.087434387346551
 20
-94.427586173571854
 30
0.0
 11
-31.405640248668529
 21
-95.541306688246095
 31
0.0
  0
LINE
  8
DETAIL
  6
CONTINUOUS
 62
     5
 10
-31.882316856432229
 20
-95.386753816753753
 30
0.0
 11
-31.57452907675361
 21
-94.309496587828107
 31
0.0
  0
LINE
  8
DETAIL
  6
CONTINUOUS
 62
     5
 10
-30.77245000458538
 20
-92.852664259663015
 30
0.0
 11
-31.087434387346551
 21
-94.427586173571854
 31
0.0
  0
LINE
  8
DETAIL
  6
CONTINUOUS
 62
     5
 10
-31.57452907675361
 20
-94.309496587828107
 30
0.0
 11
-31.26351981861535
 21
-92.754450296837149
 31
0.0
  0
LINE
  8
DETAIL
  6
CONTINUOUS
 62
     5
 10
-24.758048501550551
 20
-97.122913401150072
 30
0.0
 11
-24.758048501550551
 21
-96.62211848834977
 31
0.0
  0
LINE
  8
DETAIL
  6
CONTINUOUS
 62
     5
 10
-29.922496039800539
 20
-97.122913401150072
 30
0.0
 11
-29.922496039800539
 21
-96.62211848834977
 31
0.0
  0
LINE
  8
DETAIL
  6
CONTINUOUS
 62
     5
 10
-21.867868267893069
 20
-95.830820978977954
 30
0.0
 11
-21.43717079390262
 21
-97.122913401150072
 31
0.0
  0
LINE
  8
DETAIL
  6
CONTINUOUS
 62
     5
 10
-22.13198661979823
 20
-96.62211848834977
 30
0.0
 11
-22.327282786708569
 21
-96.036229987521892
 31
0.0
  0
LINE
  8
DETAIL
  6
CONTINUOUS
 62
     5
 10
-27.03231580614306
 20
-95.830820978977954
 30
0.0
 11
-26.601618332051661
 21
-97.122913401150072
 31
0.0
  0
LINE
  8
DETAIL
  6
CONTINUOUS
 62
     5
 10
-27.296434158049351
 20
-96.62211848834977
 30
0.0
 11
-27.491730324957871
 21
-96.036229987521892
 31
0.0
  0
LINE
  8
DETAIL
  6
CONTINUOUS
 62
     5
 10
-34.21957663440844
 20
-94.925895108974601
 30
0.0
 11
-33.746615468972777
 21
-97.133047214372709
 31
0.0
  0
LINE
  8
DETAIL
  6
CONTINUOUS
 62
     5
 10
-34.236293943728008
 20
-97.237978316126828
 30
0.0
 11
-34.702323239692298
 21
-95.06317493452525
 31
0.0
  0
LINE
  8
DETAIL
  6
CONTINUOUS
 62
     5
 10
-22.415148882342919
 20
-94.873079903690268
 30
0.0
 11
-21.867868267893069
 21
-95.830820978977954
 31
0.0
  0
LINE
  8
DETAIL
  6
CONTINUOUS
 62
     5
 10
-22.327282786708569
 20
-96.036229987521892
 30
0.0
 11
-22.93129057381725
 21
-94.97921636010642
 31
0.0
  0
LINE
  8
DETAIL
  6
CONTINUOUS
 62
     5
 10
-27.579596420592679
 20
-94.873079903690268
 30
0.0
 11
-27.03231580614306
 21
-95.830820978977954
 31
0.0
  0
LINE
  8
DETAIL
  6
CONTINUOUS
 62
     5
 10
-27.491730324957871
 20
-96.036229987521892
 30
0.0
 11
-28.09448739329855
 21
-94.981405117926442
 31
0.0
  0
LINE
  8
DETAIL
  6
CONTINUOUS
 62
     5
 10
-35.007632209049923
 20
-92.71933949989625
 30
0.0
 11
-34.21957663440844
 21
-94.925895108974601
 31
0.0
  0
LINE
  8
DETAIL
  6
CONTINUOUS
 62
     5
 10
-34.702323239692298
 20
-95.06317493452525
 30
0.0
 11
-35.479251767549613
 21
-92.887775056503415
 31
0.0
  0
LINE
  8
DETAIL
  6
CONTINUOUS
 62
     5
 10
-21.029581158832119
 20
-92.633717665782115
 30
0.0
 11
-20.661595331868739
 21
-92.97339689071805
 31
0.0
  0
LINE
  8
DETAIL
  6
CONTINUOUS
 62
     5
 10
-28.501396805749209
 20
-93.71084716195719
 30
0.0
 11
-27.878395657638979
 21
-94.458448539669007
 31
0.0
  0
LINE
  8
DETAIL
  6
CONTINUOUS
 62
     5
 10
-28.09448739329855
 20
-94.981405117926442
 30
0.0
 11
-28.839620709951301
 21
-94.087245138042363
 31
0.0
  0
LINE
  8
DETAIL
  6
CONTINUOUS
 62
     5
 10
-23.173893439346099
 20
-93.874299767215234
 30
0.0
 11
-22.709997924035861
 21
-94.454169161403115
 31
0.0
  0
LINE
  8
DETAIL
  6
CONTINUOUS
 62
     5
 10
-22.93129057381725
 20
-94.97921636010642
 30
0.0
 11
-23.525232179354131
 21
-94.236789353184577
 31
0.0
  0
LINE
  8
DETAIL
  6
CONTINUOUS
 62
     5
 10
-29.475561446396568
 20
-93.061404068192587
 30
0.0
 11
-28.501396805749209
 21
-93.71084716195719
 31
0.0
  0
LINE
  8
DETAIL
  6
CONTINUOUS
 62
     5
 10
-24.925504756810369
 20
-92.599800486873846
 30
0.0
 11
-23.827646940329029
 21
-93.383984641503048
 31
0.0
  0
LINE
  8
DETAIL
  6
CONTINUOUS
 62
     5
 10
-24.123465960370819
 20
-93.78811401749681
 30
0.0
 11
-25.216585887390469
 21
-93.007314069625863
 31
0.0
  0
LINE
  8
DETAIL
  6
CONTINUOUS
 62
     5
 10
-23.827646940329029
 20
-93.383984641503048
 30
0.0
 11
-23.173893439346099
 21
-93.874299767215234
 31
0.0
  0
LINE
  8
DETAIL
  6
CONTINUOUS
 62
     5
 10
-23.525232179354131
 20
-94.236789353184577
 30
0.0
 11
-24.123465960370819
 21
-93.78811401749681
 31
0.0
  0
LINE
  8
DETAIL
  6
CONTINUOUS
 62
     5
 10
-26.194028697082331
 20
-92.633717665782115
 30
0.0
 11
-25.82604287011895
 21
-92.97339689071805
 31
0.0
  0
LINE
  8
DETAIL
  6
CONTINUOUS
 62
     5
 10
-25.286952607229981
 20
-97.282602300570034
 30
0.0
 11
-24.932837128398209
 21
-97.636717779401806
 31
0.0
  0
LINE
  8
DETAIL
  6
CONTINUOUS
 62
     5
 10
-25.853537373300469
 20
-96.71601753449977
 30
0.0
 11
-25.499421894468469
 21
-97.070133013331542
 31
0.0
  0
LINE
  8
DETAIL
  6
CONTINUOUS
 62
     5
 10
-26.125415535468392
 20
-97.696126654331238
 30
0.0
 11
-26.47953101430085
 21
-97.34201117549992
 31
0.0
  0
LINE
  8
DETAIL
  6
CONTINUOUS
 62
     5
 10
-25.55883076939881
 20
-98.262711420401502
 30
0.0
 11
-25.91294624823081
 21
-97.908595941570184
 31
0.0
  0
LINE
  8
DETAIL
  6
CONTINUOUS
 62
     5
 10
-32.034650310839417
 20
-97.27108435901755
 30
0.0
 11
-32.505294076361913
 21
-97.099941171481987
 31
0.0
  0
LINE
  8
DETAIL
  6
CONTINUOUS
 62
     5
 10
-30.263162842119531
 20
-92.588843230798375
 30
0.0
 11
-29.475561446396568
 21
-93.061404068192587
 31
0.0
  0
LINE
  8
DETAIL
  6
CONTINUOUS
 62
     5
 10
-29.743436992204121
 20
-93.484700949807575
 30
0.0
 11
-30.520819699080679
 21
-93.01827132570088
 31
0.0
  0
LINE
  8
DETAIL
  6
CONTINUOUS
 62
     5
 10
-28.839620709951301
 20
-94.087245138042363
 30
0.0
 11
-29.743436992204121
 21
-93.484700949807575
 31
0.0
  0
LINE
  8
DETAIL
  6
CONTINUOUS
 62
     5
 10
-105.66772660080019
 20
0.0
 30
0.0
 11
-105.66772660080019
 21
-10.51669316879952
 31
0.0
  0
LINE
  8
DETAIL
  6
CONTINUOUS
 62
     5
 10
-109.6740859032008
 20
-89.14149447839975
 30
0.0
 11
-109.6740859032009
 21
-65.103338663999807
 31
0.0
  0
LINE
  8
DETAIL
  6
CONTINUOUS
 62
     5
 10
-111.67726555440019
 20
-90.141711659899215
 30
0.0
 11
-111.67726555440019
 21
-101.66136729839999
 31
0.0
  0
ARC
  8
DETAIL
  6
CONTINUOUS
 62
     5
 10
-10.0158982559999
 20
-89.642289391199483
 30
0.0
 40
8.8830806841273251
 50
180.0
 51
0.0
  0
ARC
  8
DETAIL
  6
CONTINUOUS
 62
     5
 10
-10.0158982559999
 20
-89.642289391199483
 30
0.0
 40
8.9645645027609877
 50
180.0
 51
0.0
  0
LINE
  8
DETAIL
  6
CONTINUOUS
 62
     5
 10
65.904642884544728
 20
-78.635313579347553
 30
0.0
 11
67.018593517085492
 21
-77.521362946806335
 31
0.0
  0
LINE
  8
DETAIL
  6
CONTINUOUS
 62
     5
 10
66.758961119945297
 20
-77.26173054966614
 30
0.0
 11
65.645010487404534
 21
-78.375681182206904
 31
0.0
  0
LINE
  8
DETAIL
  6
CONTINUOUS
 62
     5
 10
68.40429099095013
 20
-78.684701215844711
 30
0.0
 11
68.148962168482285
 21
-79.195397754516421
 31
0.0
  0
LINE
  8
DETAIL
  6
CONTINUOUS
 62
     5
 10
-12.04532345651478
 20
-96.679663719614837
 30
0.0
 11
-7.9864730555855203
 21
-96.679663719614837
 31
0.0
  0
LINE
  8
DETAIL
  6
CONTINUOUS
 62
     5
 10
-8.0127186048002841
 20
-96.653418170399618
 30
0.0
 11
-12.019077907200881
 21
-96.653418170399618
 31
0.0
  0
LINE
  8
DETAIL
  6
CONTINUOUS
 62
     5
 10
-7.9864730555855203
 20
-90.670124766014396
 30
0.0
 11
-4.9131943675731691
 21
-90.670124766014396
 31
0.0
  0
LINE
  8
DETAIL
  6
CONTINUOUS
 62
     5
 10
-15.11860214452736
 20
-90.670124766014396
 30
0.0
 11
-12.04532345651478
 21
-90.670124766014396
 31
0.0
  0
LINE
  8
DETAIL
  6
CONTINUOUS
 62
     5
 10
-12.019077907200881
 20
-90.643879216800087
 30
0.0
 11
-15.02384738400019
 21
-90.643879216800087
 31
0.0
  0
LINE
  8
DETAIL
  6
CONTINUOUS
 62
     5
 10
-5.0079491280002912
 20
-90.643879216800087
 30
0.0
 11
-8.0127186048002841
 21
-90.643879216800087
 31
0.0
  0
LINE
  8
DETAIL
  6
CONTINUOUS
 62
     5
 10
-18.89897894012665
 20
-86.646261322054215
 30
0.0
 11
-1.1328175718726921
 21
-86.646261322054215
 31
0.0
  0
LINE
  8
DETAIL
  6
CONTINUOUS
 62
     5
 10
-4.9131943675731691
 20
-90.670124766014396
 30
0.0
 11
-5.0079491280002912
 21
-90.643879216800087
 31
0.0
  0
LINE
  8
DETAIL
  6
CONTINUOUS
 62
     5
 10
-1.106572022658838
 20
-86.637519914399945
 30
0.0
 11
-1.1328175718726921
 21
-86.646261322054215
 31
0.0
  0
LINE
  8
DETAIL
  6
CONTINUOUS
 62
     5
 10
-15.11860214452736
 20
-90.670124766014396
 30
0.0
 11
-15.02384738400019
 21
-90.643879216800087
 31
0.0
  0
LINE
  8
DETAIL
  6
CONTINUOUS
 62
     5
 10
-5.2162083482908201
 20
-84.699777727221772
 30
0.0
 11
-5.3108096824835229
 21
-84.718540496303831
 31
0.0
  0
LINE
  8
DETAIL
  6
CONTINUOUS
 62
     5
 10
-17.523965481423151
 20
-82.955594668247613
 30
0.0
 11
-18.949786680758731
 21
-83.238385119515442
 31
0.0
  0
LINE
  8
DETAIL
  6
CONTINUOUS
 62
     5
 10
-5.5010311076457583
 20
-79.949597606600037
 30
0.0
 11
-6.9268523068815284
 21
-80.232388057767366
 31
0.0
  0
LINE
  8
DETAIL
  6
CONTINUOUS
 62
     5
 10
65.907232747038506
 20
-79.200596829819119
 30
0.0
 11
67.925837079767916
 21
-79.200420115420116
 31
0.0
  0
LINE
  8
DETAIL
  6
CONTINUOUS
 62
     5
 10
-14.720986829617001
 20
-84.718540496303831
 30
0.0
 11
-5.3108096824835229
 21
-84.718540496303831
 31
0.0
  0
LINE
  8
DETAIL
  6
CONTINUOUS
 62
     5
 10
-13.67944358988029
 20
-83.123214117045336
 30
0.0
 11
-6.3523529221201898
 21
-83.123214117045336
 31
0.0
  0
LINE
  8
DETAIL
  6
CONTINUOUS
 62
     5
 10
-6.9268523068815284
 20
-83.009270699523313
 30
0.0
 11
-13.10494420511918
 21
-83.009270699523313
 31
0.0
  0
LINE
  8
DETAIL
  6
CONTINUOUS
 62
     5
 10
-6.9268523068815284
 20
-80.232388057767366
 30
0.0
 11
-13.10494420511918
 21
-80.232388057767366
 31
0.0
  0
LINE
  8
DETAIL
  6
CONTINUOUS
 62
     5
 10
-71.932196382168627
 20
-79.200420115420002
 30
0.0
 11
-69.913592049540171
 21
-79.200596829819006
 31
0.0
  0
LINE
  8
DETAIL
  6
CONTINUOUS
 62
     5
 10
-69.434542830524265
 20
-79.139350184392242
 30
0.0
 11
65.371455796878763
 21
-79.139406975737643
 31
0.0
  0
LINE
  8
DETAIL
  6
CONTINUOUS
 62
     5
 10
68.40429099095013
 20
-78.684701215844711
 30
0.0
 11
78.434380032913168
 21
-78.684701215844711
 31
0.0
  0
LINE
  8
DETAIL
  6
CONTINUOUS
 62
     5
 10
-78.434380032914532
 20
-78.684701215844598
 30
0.0
 11
-72.410650293451226
 21
-78.684701215844598
 31
0.0
  0
LINE
  8
DETAIL
  6
CONTINUOUS
 62
     5
 10
67.231046624942564
 20
-77.433350548244675
 30
0.0
 11
67.848496662062416
 21
-77.433350548244675
 31
0.0
  0
LINE
  8
DETAIL
  6
CONTINUOUS
 62
     5
 10
-71.854855964463468
 20
-77.433350548244562
 30
0.0
 11
-71.23740592744366
 21
-77.433350548244562
 31
0.0
  0
LINE
  8
DETAIL
  6
CONTINUOUS
 62
     5
 10
66.971423704945437
 20
-77.173727628246638
 30
0.0
 11
68.108119582060453
 21
-77.173727628246638
 31
0.0
  0
LINE
  8
DETAIL
  6
CONTINUOUS
 62
     5
 10
-72.114478884461505
 20
-77.173727628246525
 30
0.0
 11
-70.977783007446533
 21
-77.173727628246525
 31
0.0
  0
LINE
  8
DETAIL
  6
CONTINUOUS
 62
     5
 10
-14.81558816380948
 20
-84.699777727221772
 30
0.0
 11
-14.720986829617001
 21
-84.718540496303831
 31
0.0
  0
LINE
  8
DETAIL
  6
CONTINUOUS
 62
     5
 10
-1.082009831341566
 20
-83.238385119515442
 30
0.0
 11
-2.5078310306780618
 21
-82.955594668247613
 31
0.0
  0
LINE
  8
DETAIL
  6
CONTINUOUS
 62
     5
 10
-13.10494420511918
 20
-80.232388057767366
 30
0.0
 11
-14.530765404455449
 21
-79.949597606600037
 31
0.0
  0
LINE
  8
DETAIL
  6
CONTINUOUS
 62
     5
 10
-0.1708859253833452
 20
-80.215210359571756
 30
0.0
 11
-1.510097671654876
 21
-79.949597606600037
 31
0.0
  0
LINE
  8
DETAIL
  6
CONTINUOUS
 62
     5
 10
81.689470692544774
 20
-70.171263971713984
 30
0.0
 11
81.689470692544774
 21
-36.378884029852543
 31
0.0
  0
LINE
  8
DETAIL
  6
CONTINUOUS
 62
     5
 10
78.935098672144477
 20
-78.183982576513813
 30
0.0
 11
78.935098672144477
 21
-72.674839916284895
 31
0.0
  0
LINE
  8
DETAIL
  6
CONTINUOUS
 62
     5
 10
82.20902395371013
 20
74.197525724815478
 30
0.0
 11
81.689470692544774
 21
67.053771623467128
 31
0.0
  0
LINE
  8
DETAIL
  6
CONTINUOUS
 62
     5
 10
-15.02384738400019
 20
-90.643879216800087
 30
0.0
 11
-10.0158982559999
 21
-87.639109740000094
 31
0.0
  0
LINE
  8
DETAIL
  6
CONTINUOUS
 62
     5
 10
-10.0158982559999
 20
-87.608502432957721
 30
0.0
 11
-15.11860214452736
 21
-90.670124766014396
 31
0.0
  0
LINE
  8
DETAIL
  6
CONTINUOUS
 62
     5
 10
-18.521698840445652
 20
-79.949597606600037
 30
0.0
 11
-19.860910586718092
 21
-80.215210359571756
 31
0.0
  0
LINE
  8
DETAIL
  6
CONTINUOUS
 62
     5
 10
65.906802442817025
 20
-78.824819829610192
 30
0.0
 11
65.907232747038506
 21
-79.200596829819119
 31
0.0
  0
LINE
  8
DETAIL
  6
CONTINUOUS
 62
     5
 10
68.408585088480095
 20
-77.474193134766324
 30
0.0
 11
68.408585088480095
 21
-78.183982576513813
 31
0.0
  0
LINE
  8
DETAIL
  6
CONTINUOUS
 62
     5
 10
68.148962168482058
 20
-77.733816054663407
 30
0.0
 11
68.148962168482285
 21
-79.195397754516421
 31
0.0
  0
LINE
  8
DETAIL
  6
CONTINUOUS
 62
     5
 10
65.645010487404534
 20
-78.375681182206904
 30
0.0
 11
65.645010487404761
 21
-79.137979714442395
 31
0.0
  0
LINE
  8
DETAIL
  6
CONTINUOUS
 62
     5
 10
74.197525724815023
 20
81.988991550521405
 30
0.0
 11
73.706149105591976
 21
75.234621695091846
 31
0.0
  0
LINE
  8
DETAIL
  6
CONTINUOUS
 62
     5
 10
-12.04532345651478
 20
-96.679663719614837
 30
0.0
 11
-12.019077907200881
 21
-96.653418170399618
 31
0.0
  0
LINE
  8
DETAIL
  6
CONTINUOUS
 62
     5
 10
-12.04532345651478
 20
-90.670124766014396
 30
0.0
 11
-12.019077907200881
 21
-90.643879216800087
 31
0.0
  0
LINE
  8
DETAIL
  6
CONTINUOUS
 62
     5
 10
-5.3108096824835229
 20
-84.718540496303831
 30
0.0
 11
-5.3721275484595026
 21
-82.118304389658533
 31
0.0
  0
LINE
  8
DETAIL
  6
CONTINUOUS
 62
     5
 10
-1.082009831341566
 20
-83.238385119515442
 30
0.0
 11
-1.082275832164896
 21
-82.140375547953226
 31
0.0
  0
LINE
  8
DETAIL
  6
CONTINUOUS
 62
     5
 10
-1.106572022658838
 20
-86.637519914399945
 30
0.0
 11
-1.106736540297788
 21
-83.655760376523176
 31
0.0
  0
LINE
  8
DETAIL
  6
CONTINUOUS
 62
     5
 10
-1.0513337523382229
 20
-89.642289391199483
 30
0.0
 11
-1.0513337523382229
 21
-83.242149017404245
 31
0.0
  0
LINE
  8
DETAIL
  6
CONTINUOUS
 62
     5
 10
-1.1328175718726921
 20
-86.646261322054215
 30
0.0
 11
-1.1328175718726921
 21
-89.642289391199483
 31
0.0
  0
LINE
  8
DETAIL
  6
CONTINUOUS
 62
     5
 10
-7.9864730555855203
 20
-96.679663719614837
 30
0.0
 11
-7.9864730555855203
 21
-90.670124766014396
 31
0.0
  0
LINE
  8
DETAIL
  6
CONTINUOUS
 62
     5
 10
-8.0127186048002841
 20
-90.643879216800087
 30
0.0
 11
-8.0127186048002841
 21
-96.653418170399618
 31
0.0
  0
LINE
  8
DETAIL
  6
CONTINUOUS
 62
     5
 10
-5.1280605032343374
 20
-83.079507078472943
 30
0.0
 11
-5.2162083482908201
 21
-84.699777727221772
 31
0.0
  0
LINE
  8
DETAIL
  6
CONTINUOUS
 62
     5
 10
-14.90373600886619
 20
-83.079507078472943
 30
0.0
 11
-14.81558816380948
 21
-84.699777727221772
 31
0.0
  0
LINE
  8
DETAIL
  6
CONTINUOUS
 62
     5
 10
-10.0158982559999
 20
-87.608502432957721
 30
0.0
 11
-10.0158982559999
 21
-87.639109740000094
 31
0.0
  0
LINE
  8
DETAIL
  6
CONTINUOUS
 62
     5
 10
-12.019077907200881
 20
-96.653418170399618
 30
0.0
 11
-12.019077907200881
 21
-90.643879216800087
 31
0.0
  0
LINE
  8
DETAIL
  6
CONTINUOUS
 62
     5
 10
-12.04532345651478
 20
-90.670124766014396
 30
0.0
 11
-12.04532345651478
 21
-96.679663719614837
 31
0.0
  0
LINE
  8
DETAIL
  6
CONTINUOUS
 62
     5
 10
-18.89897894012665
 20
-86.646261322054215
 30
0.0
 11
-18.89897894012665
 21
-89.642289391199483
 31
0.0
  0
LINE
  8
DETAIL
  6
CONTINUOUS
 62
     5
 10
-18.925059971702471
 20
-83.655760376523176
 30
0.0
 11
-18.925224489442371
 21
-86.637519914399945
 31
0.0
  0
LINE
  8
DETAIL
  6
CONTINUOUS
 62
     5
 10
-18.949520679834901
 20
-82.140375547953226
 30
0.0
 11
-18.949786680758731
 21
-83.238385119515442
 31
0.0
  0
LINE
  8
DETAIL
  6
CONTINUOUS
 62
     5
 10
-18.980462759762531
 20
-83.241313254889519
 30
0.0
 11
-18.980462759762531
 21
-89.642289391199483
 31
0.0
  0
LINE
  8
DETAIL
  6
CONTINUOUS
 62
     5
 10
-14.65966896354098
 20
-82.118304389658533
 30
0.0
 11
-14.720986829617001
 21
-84.718540496303831
 31
0.0
  0
LINE
  8
DETAIL
  6
CONTINUOUS
 62
     5
 10
-80.581162582681941
 20
-4.1344504475596304
 30
0.0
 11
-81.689095906241278
 21
-6.3509924291788593
 31
0.0
  0
LINE
  8
DETAIL
  6
CONTINUOUS
 62
     5
 10
-7.9864730555855203
 20
-90.670124766014396
 30
0.0
 11
-8.0127186048002841
 21
-90.643879216800087
 31
0.0
  0
LINE
  8
DETAIL
  6
CONTINUOUS
 62
     5
 10
-73.706149128928814
 20
75.234621695091846
 30
0.0
 11
-73.923636745135013
 21
78.224165379359874
 31
0.0
  0
LINE
  8
DETAIL
  6
CONTINUOUS
 62
     5
 10
-72.414521011549596
 20
-78.399012686852075
 30
0.0
 11
-72.414944390880237
 21
-77.47419313476621
 31
0.0
  0
LINE
  8
DETAIL
  6
CONTINUOUS
 62
     5
 10
-69.651369789805472
 20
-79.137979714442281
 30
0.0
 11
-69.651369789805585
 21
-78.37568118220679
 31
0.0
  0
LINE
  8
DETAIL
  6
CONTINUOUS
 62
     5
 10
-69.91316174531687
 20
-78.824819829610078
 30
0.0
 11
-69.913592049540171
 21
-79.200596829819006
 31
0.0
  0
LINE
  8
DETAIL
  6
CONTINUOUS
 62
     5
 10
-72.155321470882996
 20
-79.195397754516307
 30
0.0
 11
-72.155321470883109
 21
-77.733816054663293
 31
0.0
  0
LINE
  8
DETAIL
  6
CONTINUOUS
 62
     5
 10
73.706149105591976
 20
75.234621695091846
 30
0.0
 11
-73.706149128928814
 21
75.234621695091846
 31
0.0
  0
LINE
  8
DETAIL
  6
CONTINUOUS
 62
     5
 10
74.197525724815023
 20
81.988991550521405
 30
0.0
 11
-0.0000000000002274
 21
81.988991550521405
 31
0.0
  0
LINE
  8
DETAIL
  6
CONTINUOUS
 62
     5
 10
-4.9131943675731691
 20
-90.670124766014396
 30
0.0
 11
-10.0158982559999
 21
-87.608502432957721
 31
0.0
  0
LINE
  8
DETAIL
  6
CONTINUOUS
 62
     5
 10
-10.0158982559999
 20
-87.639109740000094
 30
0.0
 11
-5.0079491280002912
 21
-90.643879216800087
 31
0.0
  0
LINE
  8
DETAIL
  6
CONTINUOUS
 62
     5
 10
-7.9864730555855203
 20
-96.679663719614837
 30
0.0
 11
-8.0127186048002841
 21
-96.653418170399618
 31
0.0
  0
LINE
  8
DETAIL
  6
CONTINUOUS
 62
     5
 10
-78.935098672245886
 20
-72.674885263063516
 30
0.0
 11
-78.935098672245886
 21
-78.183982576513699
 31
0.0
  0
LINE
  8
DETAIL
  6
CONTINUOUS
 62
     5
 10
-80.492050393831164
 20
2.3426940359845498
 30
0.0
 11
-80.492050393831164
 21
8.0486336839794603
 31
0.0
  0
LINE
  8
DETAIL
  6
CONTINUOUS
 62
     5
 10
-80.666683963256332
 20
-1.0922380614319991
 30
0.0
 11
-80.666878548221689
 21
-3.8553272173589899
 31
0.0
  0
LINE
  8
DETAIL
  6
CONTINUOUS
 62
     5
 10
-81.689095906241278
 20
-6.3509924291788593
 30
0.0
 11
-81.689113003891293
 21
-9.2624551931971837
 31
0.0
  0
LINE
  8
DETAIL
  6
CONTINUOUS
 62
     5
 10
-80.662688175233711
 20
-0.1474781328447534
 30
0.0
 11
-80.666683963256332
 21
-1.0922380614319991
 31
0.0
  0
LINE
  8
DETAIL
  6
CONTINUOUS
 62
     5
 10
-18.925224489442371
 20
-86.637519914399945
 30
0.0
 11
-18.89897894012665
 21
-86.646261322054215
 31
0.0
  0
LINE
  8
DETAIL
  6
CONTINUOUS
 62
     5
 10
-72.410650293451226
 20
-78.684701215844598
 30
0.0
 11
-72.155321470882996
 21
-79.195397754516307
 31
0.0
  0
LINE
  8
DETAIL
  6
CONTINUOUS
 62
     5
 10
-69.651369789805585
 20
-78.37568118220679
 30
0.0
 11
-70.765320422446393
 21
-77.261730549666026
 31
0.0
  0
LINE
  8
DETAIL
  6
CONTINUOUS
 62
     5
 10
-71.024952819587497
 20
-77.521362946806221
 30
0.0
 11
-69.911002187045824
 21
-78.635313579347439
 31
0.0
  0
LINE
  8
DETAIL
  6
CONTINUOUS
 62
     5
 10
-0.1708859253833452
 20
-80.215210359571756
 30
0.0
 11
79.964887173761554
 21
-80.21521035957187
 31
0.0
  0
LINE
  8
DETAIL
  6
CONTINUOUS
 62
     5
 10
-79.964887172759632
 20
-80.215210359571756
 30
0.0
 11
-19.860910586718092
 21
-80.215210359571756
 31
0.0
  0
LINE
  8
DETAIL
  6
CONTINUOUS
 62
     5
 10
83.219979836371522
 20
-71.7017622734312
 30
0.0
 11
83.219979836371522
 21
75.208386338455966
 31
0.0
  0
LINE
  8
DETAIL
  6
CONTINUOUS
 62
     5
 10
80.465607815971453
 20
-79.714480878231484
 30
0.0
 11
80.465607815971225
 21
-74.20536631199559
 31
0.0
  0
LINE
  8
DETAIL
  6
CONTINUOUS
 62
     5
 10
75.208381933262672
 20
83.219979836371749
 30
0.0
 11
-0.0000000000002274
 21
83.219979836371749
 31
0.0
  0
LINE
  8
DETAIL
  6
CONTINUOUS
 62
     5
 10
-80.465607815972589
 20
-74.205366311995476
 30
0.0
 11
-80.465607815972476
 21
-79.714480874625224
 31
0.0
  0
LINE
  8
DETAIL
  6
CONTINUOUS
 62
     5
 10
-83.219979836371863
 20
0.0
 30
0.0
 11
-83.219979836371976
 21
-71.701762269825394
 31
0.0
  0
LINE
  8
DETAIL
  6
CONTINUOUS
 62
     5
 10
81.689470692544774
 20
-9.2629007599853139
 30
0.0
 11
81.689470692544774
 21
9.2629007599853139
 31
0.0
  0
LINE
  8
DETAIL
  6
CONTINUOUS
 62
     5
 10
81.689470692544774
 20
36.380030579059621
 30
0.0
 11
81.689470692544774
 21
67.053771623467128
 31
0.0
  0
LINE
  8
DETAIL
  6
CONTINUOUS
 62
     5
 10
-81.689272247213125
 20
-36.379105909241389
 30
0.0
 11
-81.689470692645273
 21
-70.17126397171387
 31
0.0
  0
LINE
  8
DETAIL
  6
CONTINUOUS
 62
     5
 10
-81.689470692545115
 20
36.380030579059621
 30
0.0
 11
-81.689470692545115
 21
67.053771623467128
 31
0.0
  0
LINE
  8
DETAIL
  6
CONTINUOUS
 62
     5
 10
-81.689470692545115
 20
-9.2629007599853139
 30
0.0
 11
-81.689470692545115
 21
9.2629007599853139
 31
0.0
  0
LINE
  8
DETAIL
  6
CONTINUOUS
 62
     5
 10
-75.208381933264832
 20
83.219979836371749
 30
0.0
 11
-0.0000000000002274
 21
83.219979836371749
 31
0.0
  0
LINE
  8
DETAIL
  6
CONTINUOUS
 62
     5
 10
-83.219979836371976
 20
-71.701762273431086
 30
0.0
 11
-83.219979836371863
 21
75.208386338455966
 31
0.0
  0
LINE
  8
DETAIL
  6
CONTINUOUS
 62
     5
 10
-74.197525724816046
 20
81.988991550521405
 30
0.0
 11
-0.0000000000002274
 21
81.988991550521405
 31
0.0
  0
LINE
  8
DETAIL
  6
CONTINUOUS
 62
     5
 10
-73.706149105592999
 20
75.234621695091846
 30
0.0
 11
73.706149128928473
 21
75.234621695091846
 31
0.0
  0
LINE
  8
DETAIL
  6
CONTINUOUS
 62
     5
 10
-74.197525724816046
 20
81.988991550521405
 30
0.0
 11
-73.706149105592999
 21
75.234621695091846
 31
0.0
  0
LINE
  8
DETAIL
  6
CONTINUOUS
 62
     5
 10
-82.209023953710243
 20
74.197525724815478
 30
0.0
 11
-81.689470692545115
 21
67.053771623467128
 31
0.0
  0
LINE
  8
DETAIL
  6
CONTINUOUS
 62
     5
 10
-101.66136729840051
 20
111.6772655543996
 30
0.0
 11
-90.14171165989967
 21
111.6772655543996
 31
0.0
  0
LINE
  8
DETAIL
  6
CONTINUOUS
 62
     5
 10
-64.103121482401662
 20
111.6772655543996
 30
0.0
 11
-52.583465843900854
 21
111.6772655543996
 31
0.0
  0
LINE
  8
DETAIL
  6
CONTINUOUS
 62
     5
 10
-27.543720204000461
 20
111.6772655543996
 30
0.0
 11
-14.52030718309925
 21
111.6772655543996
 31
0.0
  0
LINE
  8
DETAIL
  6
CONTINUOUS
 62
     5
 10
-65.103338664000262
 20
109.67408590320019
 30
0.0
 11
-89.141494478400205
 21
109.67408590320019
 31
0.0
  0
LINE
  8
DETAIL
  6
CONTINUOUS
 62
     5
 10
-10.51669316879997
 20
105.66772660080009
 30
0.0
 11
-0.0000000000002274
 21
105.66772660080009
 31
0.0
  0
LINE
  8
DETAIL
  6
CONTINUOUS
 62
     5
 10
-108.25885863222911
 20
52.461086135936512
 30
0.0
 11
-110.04100465389099
 21
52.461086135936512
 31
0.0
  0
LINE
  8
DETAIL
  6
CONTINUOUS
 62
     5
 10
-110.04100465389099
 20
27.666099912063601
 30
0.0
 11
-108.25885863222911
 21
27.666099912063601
 31
0.0
  0
LINE
  8
DETAIL
  6
CONTINUOUS
 62
     5
 10
-109.6768311913021
 20
12.51987282000027
 30
0.0
 11
-107.67090625200061
 21
12.51987282000027
 31
0.0
  0
LINE
  8
DETAIL
  6
CONTINUOUS
 62
     5
 10
-12.519872820000501
 20
107.67090625200029
 30
0.0
 11
-12.519872820000501
 21
109.6768311913015
 31
0.0
  0
LINE
  8
DETAIL
  6
CONTINUOUS
 62
     5
 10
-27.666099912064059
 20
108.2864265095768
 30
0.0
 11
-27.666099912064059
 21
110.04100465399139
 31
0.0
  0
LINE
  8
DETAIL
  6
CONTINUOUS
 62
     5
 10
-52.583465844000898
 20
110.02096986723291
 30
0.0
 11
-52.583465844000898
 21
108.2659188431157
 31
0.0
  0
LINE
  8
DETAIL
  6
CONTINUOUS
 62
     5
 10
-65.103338664000262
 20
110.677048372901
 30
0.0
 11
-65.103338664000262
 21
109.67408590320019
 31
0.0
  0
LINE
  8
DETAIL
  6
CONTINUOUS
 62
     5
 10
-105.66772660080019
 20
10.51669316880043
 30
0.0
 11
-105.66772660080019
 21
-10.51669316879952
 31
0.0
  0
LINE
  8
DETAIL
  6
CONTINUOUS
 62
     5
 10
-109.6740859032008
 20
89.141494478400091
 30
0.0
 11
-109.6740859032008
 21
65.103338663999693
 31
0.0
  0
LINE
  8
DETAIL
  6
CONTINUOUS
 62
     5
 10
-111.67726555440019
 20
14.52030718309879
 30
0.0
 11
-111.67726555440019
 21
27.543720204100278
 31
0.0
  0
LINE
  8
DETAIL
  6
CONTINUOUS
 62
     5
 10
-111.67726555440019
 20
52.58346584389983
 30
0.0
 11
-111.67726555440019
 21
64.103121482501138
 31
0.0
  0
LINE
  8
DETAIL
  6
CONTINUOUS
 62
     5
 10
-111.67726555440019
 20
90.141711659999146
 30
0.0
 11
-111.67726555440019
 21
101.6613672983999
 31
0.0
  0
ARC
  8
DETAIL
  6
CONTINUOUS
 62
     5
 10
-10.51669316879997
 20
107.67090625200029
 30
0.0
 40
2.003179651200008
 50
180.0
 51
270.0
  0
ARC
  8
DETAIL
  6
CONTINUOUS
 62
     5
 10
-40.063593024000618
 20
33.928855342199768
 30
0.0
 40
78.750000037800092
 50
95.152628194894376
 51
99.147842519795148
  0
ARC
  8
DETAIL
  6
CONTINUOUS
 62
     5
 10
-40.063593024000618
 20
33.928855342199768
 30
0.0
 40
78.750000037800262
 50
80.852157480204866
 51
84.847371805105624
  0
ARC
  8
DETAIL
  6
CONTINUOUS
 62
     5
 10
-33.92885534220045
 20
40.063593024000063
 30
0.0
 40
78.750000037800049
 50
185.15262819489439
 51
189.14784251979461
  0
ARC
  8
DETAIL
  6
CONTINUOUS
 62
     5
 10
-33.92885534220045
 20
40.063593024000063
 30
0.0
 40
78.750000037799992
 50
170.85215748020539
 51
174.84737180510561
  0
ARC
  8
DETAIL
  6
CONTINUOUS
 62
     5
 10
-40.063593023996191
 20
-475.1177037300472
 30
0.0
 40
587.52089989640638
 50
89.310267025155227
 51
90.689732974857804
  0
ARC
  8
DETAIL
  6
CONTINUOUS
 62
     5
 10
475.11753563225187
 20
40.063593023999601
 30
0.0
 40
587.5207318107914
 50
179.3102668278126
 51
180.6897331721874
  0
ARC
  8
DETAIL
  6
CONTINUOUS
 62
     5
 10
-40.063593024000618
 20
33.928855342199768
 30
0.0
 40
77.115219693080604
 50
80.748648872596107
 51
99.3434883524951
  0
ARC
  8
DETAIL
  6
CONTINUOUS
 62
     5
 10
-33.92885534220045
 20
40.063593024000063
 30
0.0
 40
77.115219693080434
 50
170.74864887259659
 51
189.25135112740341
  0
ARC
  8
DETAIL
  6
CONTINUOUS
 62
     5
 10
-40.063593024000618
 20
33.928855342199768
 30
0.0
 40
75.383991837527731
 50
80.534255672998356
 51
99.560056259605972
  0
ARC
  8
DETAIL
  6
CONTINUOUS
 62
     5
 10
-33.92885534220045
 20
40.063593024000063
 30
0.0
 40
75.356799458007544
 50
170.5308085382955
 51
189.4691914617045
  0
ARC
  8
DETAIL
  6
CONTINUOUS
 62
     5
 10
-101.66136729840051
 20
101.6613672983999
 30
0.0
 40
10.01589825600001
 50
90.0
 51
180.0
  0
CIRCLE
  8
DETAIL
  6
CONTINUOUS
 62
     5
 10
-70.111287792000553
 20
98.656597821599917
 30
0.0
 40
8.5135111929099736
  0
CIRCLE
  8
DETAIL
  6
CONTINUOUS
 62
     5
 10
-98.656597821600485
 20
70.111287791999985
 30
0.0
 40
8.5135111929099736
  0
CIRCLE
  8
DETAIL
  6
CONTINUOUS
 62
     5
 10
-98.656597821600485
 20
70.111287791999985
 30
0.0
 40
6.0095401183488573
  0
CIRCLE
  8
DETAIL
  6
CONTINUOUS
 62
     5
 10
-70.111287792000553
 20
98.656597821599917
 30
0.0
 40
6.0095401183488573
  0
CIRCLE
  8
DETAIL
  6
CONTINUOUS
 62
     5
 10
-98.656597821600485
 20
70.111287791999985
 30
0.0
 40
2.50397456399996
  0
CIRCLE
  8
DETAIL
  6
CONTINUOUS
 62
     5
 10
-70.111287792000553
 20
98.656597821599917
 30
0.0
 40
2.50397456399996
  0
ARC
  8
DETAIL
  6
CONTINUOUS
 62
     5
 10
-107.67090625200061
 20
10.51669316880043
 30
0.0
 40
2.003179651200008
 50
0.0
 51
90.0
  0
LINE
  8
DETAIL
  6
CONTINUOUS
 62
     5
 10
-57.025351629567922
 20
182.4583217481759
 30
0.0
 11
-58.016032184980759
 21
182.72377380295671
 31
0.0
  0
LINE
  8
DETAIL
  6
CONTINUOUS
 62
     5
 10
-64.375564333910006
 20
185.34504254232209
 30
0.0
 11
-65.401192315324806
 21
185.34504254232209
 31
0.0
  0
LINE
  8
DETAIL
  6
CONTINUOUS
 62
     5
 10
-71.734755761863198
 20
182.72377380295671
 30
0.0
 11
-72.725436317276035
 21
182.4583217481759
 31
0.0
  0
LINE
  8
DETAIL
  6
CONTINUOUS
 62
     5
 10
-65.401192315324806
 20
185.34504254232209
 30
0.0
 11
-65.401192315324806
 21
178.93486765848229
 31
0.0
  0
LINE
  8
DETAIL
  6
CONTINUOUS
 62
     5
 10
-64.375564333910006
 20
185.34504254232209
 30
0.0
 11
-64.375564333910006
 21
178.93486765848229
 31
0.0
  0
LINE
  8
DETAIL
  6
CONTINUOUS
 62
     5
 10
-58.016032184980759
 20
182.72377380295671
 30
0.0
 11
-59.675107527355983
 21
176.53202033162549
 31
0.0
  0
LINE
  8
DETAIL
  6
CONTINUOUS
 62
     5
 10
-57.025351629567922
 20
182.4583217481759
 30
0.0
 11
-58.68442697194314
 21
176.26656827684559
 31
0.0
  0
LINE
  8
DETAIL
  6
CONTINUOUS
 62
     5
 10
-71.066360974899908
 20
176.26656827684559
 30
0.0
 11
-72.725436317276035
 21
182.4583217481759
 31
0.0
  0
LINE
  8
DETAIL
  6
CONTINUOUS
 62
     5
 10
-70.075680419487981
 20
176.53202033162549
 30
0.0
 11
-71.734755761863198
 21
182.72377380295671
 31
0.0
  0
LINE
  8
DETAIL
  6
CONTINUOUS
 62
     5
 10
-49.067758928046828
 20
-185.59267343227381
 30
0.0
 11
49.088043980752218
 21
-185.5926734322741
 31
0.0
  0
LINE
  8
DETAIL
  6
CONTINUOUS
 62
     5
 10
52.893488465346991
 20
-148.5198416561831
 30
0.0
 11
49.3502662403871
 21
-155.544978664274
 31
0.0
  0
LINE
  8
DETAIL
  6
CONTINUOUS
 62
     5
 10
49.3502662403871
 20
-155.544978664274
 30
0.0
 11
49.088043980752218
 21
-185.5926734322741
 31
0.0
  0
LINE
  8
DETAIL
  6
CONTINUOUS
 62
     5
 10
-49.329981187681483
 20
-155.54497866427349
 30
0.0
 11
49.3502662403871
 21
-155.544978664274
 31
0.0
  0
LINE
  8
DETAIL
  6
CONTINUOUS
 62
     5
 10
-52.873203412641601
 20
-148.51984165618299
 30
0.0
 11
52.893488465346991
 21
-148.5198416561831
 31
0.0
  0
LINE
  8
DETAIL
  6
CONTINUOUS
 62
     5
 10
-47.731675541927068
 20
-125.49411940627211
 30
0.0
 11
-50.222577597508582
 21
-125.49702326777739
 31
0.0
  0
LINE
  8
DETAIL
  6
CONTINUOUS
 62
     5
 10
51.490926257756662
 20
-125.4958526525576
 30
0.0
 11
48.678302843799429
 21
-125.4937475340986
 31
0.0
  0
LINE
  8
DETAIL
  6
CONTINUOUS
 62
     5
 10
23.561898262102659
 20
-125.48993141406361
 30
0.0
 11
-41.088066291335167
 21
-125.49719798049939
 31
0.0
  0
LINE
  8
DETAIL
  6
CONTINUOUS
 62
     5
 10
48.678302843799429
 20
-125.4937475340986
 30
0.0
 11
33.68861808941142
 21
-125.4970546607079
 31
0.0
  0
LINE
  8
DETAIL
  6
CONTINUOUS
 62
     5
 10
-41.088066291335167
 20
-125.49719798049939
 30
0.0
 11
-47.731675541927068
 21
-125.49411940627211
 31
0.0
  0
LINE
  8
DETAIL
  6
CONTINUOUS
 62
     5
 10
33.68861808941142
 20
-125.4970546607079
 30
0.0
 11
23.561898262102659
 21
-125.48993141406361
 31
0.0
  0
LINE
  8
DETAIL
  6
CONTINUOUS
 62
     5
 10
-53.029520356650323
 20
-125.49541581236009
 30
0.0
 11
-53.074132929177843
 21
-125.49548136140631
 31
0.0
  0
LINE
  8
DETAIL
  6
CONTINUOUS
 62
     5
 10
-52.895434177380707
 20
-125.4941870112816
 30
0.0
 11
-53.029520356650323
 21
-125.49541581236009
 31
0.0
  0
LINE
  8
DETAIL
  6
CONTINUOUS
 62
     5
 10
-52.67153189632711
 20
-125.4909245433596
 30
0.0
 11
-52.895434177380707
 21
-125.4941870112816
 31
0.0
  0
LINE
  8
DETAIL
  6
CONTINUOUS
 62
     5
 10
-52.357926113320097
 20
-125.4882321878781
 30
0.0
 11
-52.67153189632711
 21
-125.4909245433596
 31
0.0
  0
LINE
  8
DETAIL
  6
CONTINUOUS
 62
     5
 10
-50.222577597508582
 20
-125.49702326777739
 30
0.0
 11
-52.357926113320097
 21
-125.4882321878781
 31
0.0
  0
LINE
  8
DETAIL
  6
CONTINUOUS
 62
     5
 10
52.379550304442091
 20
-125.4903540075467
 30
0.0
 11
51.490926257756662
 21
-125.4958526525576
 31
0.0
  0
LINE
  8
DETAIL
  6
CONTINUOUS
 62
     5
 10
52.692044772456711
 20
-125.49035563903649
 30
0.0
 11
52.379550304442091
 21
-125.4903540075467
 31
0.0
  0
LINE
  8
DETAIL
  6
CONTINUOUS
 62
     5
 10
52.915579414256172
 20
-125.4917378562328
 30
0.0
 11
52.692044772456711
 21
-125.49035563903649
 31
0.0
  0
LINE
  8
DETAIL
  6
CONTINUOUS
 62
     5
 10
53.04971487555099
 20
-125.493990602121
 30
0.0
 11
52.915579414256172
 21
-125.4917378562328
 31
0.0
  0
LINE
  8
DETAIL
  6
CONTINUOUS
 62
     5
 10
53.094403283153042
 20
-125.49728389577299
 30
0.0
 11
53.04971487555099
 21
-125.493990602121
 31
0.0
  0
LINE
  8
DETAIL
  6
CONTINUOUS
 62
     5
 10
-53.074132787153872
 20
-125.49549763183219
 30
0.0
 11
-54.717402049326779
 21
-111.67726555439999
 31
0.0
  0
LINE
  8
DETAIL
  6
CONTINUOUS
 62
     5
 10
-49.329981187681483
 20
-155.54497866427349
 30
0.0
 11
-49.067758928046828
 21
-185.59267343227381
 31
0.0
  0
LINE
  8
DETAIL
  6
CONTINUOUS
 62
     5
 10
-53.074133982651013
 20
-125.4954788730561
 30
0.0
 11
-52.873203412641601
 21
-148.51984165618299
 31
0.0
  0
LINE
  8
DETAIL
  6
CONTINUOUS
 62
     5
 10
-52.873203412641601
 20
-148.51984165618299
 30
0.0
 11
-49.329981187681483
 21
-155.54497866427349
 31
0.0
  0
LINE
  8
DETAIL
  6
CONTINUOUS
 62
     5
 10
54.736638775762003
 20
-111.67726555440019
 30
0.0
 11
53.094403283153042
 21
-125.4972838962741
 31
0.0
  0
LINE
  8
DETAIL
  6
CONTINUOUS
 62
     5
 10
53.094463726799397
 20
-125.4903577400092
 30
0.0
 11
52.965294102202961
 21
-140.29173065821951
 31
0.0
  0
LINE
  8
DETAIL
  6
CONTINUOUS
 62
     5
 10
52.965294102202961
 20
-140.29173065821951
 30
0.0
 11
52.893488465346991
 21
-148.5198416561831
 31
0.0
  0
ARC
  8
DETAIL
  6
CONTINUOUS
 62
     5
 10
-72.615262356000244
 20
-33.052464244799921
 30
0.0
 40
1.99884741823773
 50
270.0
 51
0.0
  0
ARC
  8
DETAIL
  6
CONTINUOUS
 62
     5
 10
-80.127186048000226
 20
-7.6837693381489771
 30
0.0
 40
2.0075118840622959
 50
315.00000000000921
 51
0.0
  0
LINE
  8
DETAIL
  6
CONTINUOUS
 62
     5
 10
-66.273933543571843
 20
-35.040771850971851
 30
0.0
 11
-61.69330845129673
 21
-34.840899303063452
 31
0.0
  0
LINE
  8
DETAIL
  6
CONTINUOUS
 62
     5
 10
-68.103772330559991
 20
-35.051311663137767
 30
0.0
 11
-67.083648965534053
 21
-35.04996379846898
 31
0.0
  0
LINE
  8
DETAIL
  6
CONTINUOUS
 62
     5
 10
-79.622055324959661
 20
-35.051311663137767
 30
0.0
 11
-72.615262356000244
 21
-35.051311663137767
 31
0.0
  0
LINE
  8
DETAIL
  6
CONTINUOUS
 62
     5
 10
-70.612082704799946
 20
-37.130504040595497
 30
0.0
 11
-80.127186048000226
 21
-37.129054623532738
 31
0.0
  0
LINE
  8
DETAIL
  6
CONTINUOUS
 62
     5
 10
-61.69330845129673
 20
-17.24177162803608
 30
0.0
 11
-66.273933543571843
 21
-17.041899080127681
 31
0.0
  0
LINE
  8
DETAIL
  6
CONTINUOUS
 62
     5
 10
-80.122853815238273
 20
-11.346437348150181
 30
0.0
 11
-79.537404960961908
 21
-9.9330387840886942
 31
0.0
  0
LINE
  8
DETAIL
  6
CONTINUOUS
 62
     5
 10
-78.707660781511663
 20
-9.1032946046379948
 30
0.0
 11
-79.537404960961908
 21
-9.9330387840886942
 31
0.0
  0
LINE
  8
DETAIL
  6
CONTINUOUS
 62
     5
 10
-70.612082704799946
 20
-16.472513771550439
 30
0.0
 11
-74.764471474174684
 21
-30.592877262399721
 31
0.0
  0
LINE
  8
DETAIL
  6
CONTINUOUS
 62
     5
 10
-68.604570820837694
 20
-17.53206246508125
 30
0.0
 11
-68.604570820837694
 21
-34.550614788854553
 31
0.0
  0
LINE
  8
DETAIL
  6
CONTINUOUS
 62
     5
 10
-70.616414937662853
 20
-33.052464244799921
 30
0.0
 11
-70.616414937662853
 21
-16.72592620683281
 31
0.0
  0
LINE
  8
DETAIL
  6
CONTINUOUS
 62
     5
 10
-78.053459433759713
 20
7.6837693382494763
 30
0.0
 11
-78.053459433759713
 21
-7.6837693381489771
 31
0.0
  0
LINE
  8
DETAIL
  6
CONTINUOUS
 62
     5
 10
-78.119674164037974
 20
7.6837693382494763
 30
0.0
 11
-78.119674164037974
 21
-7.6837693381489771
 31
0.0
  0
LINE
  8
DETAIL
  6
CONTINUOUS
 62
     5
 10
-80.05694427188439
 20
-30.047694767999928
 30
0.0
 11
-80.05694427188439
 21
-11.346437348150181
 31
0.0
  0
LINE
  8
DETAIL
  6
CONTINUOUS
 62
     5
 10
-80.122853815238273
 20
-11.346437348150181
 30
0.0
 11
-80.122853815238273
 21
-34.550614788854553
 31
0.0
  0
ARC
  8
DETAIL
  6
CONTINUOUS
 62
     5
 10
72.673595537678693
 20
-61.005157029121733
 30
0.0
 40
6.0181278023973981
 50
97.17331729299525
 51
270.73554309829831
  0
ARC
  8
DETAIL
  6
CONTINUOUS
 62
     5
 10
72.673595537678693
 20
-61.005157029121733
 30
0.0
 40
6.0533985496273779
 50
97.8004112713989
 51
270.04456538659542
  0
ARC
  8
DETAIL
  6
CONTINUOUS
 62
     5
 10
72.673595537678693
 20
-61.005157029121733
 30
0.0
 40
6.096953030745218
 50
318.60194176890258
 51
45.000000000009223
  0
ARC
  8
DETAIL
  6
CONTINUOUS
 62
     5
 10
30.63067711378244
 20
-81.881074533917968
 30
0.0
 40
6.0181278021971991
 50
104.9999999999945
 51
138.60670193550149
  0
ARC
  8
DETAIL
  6
CONTINUOUS
 62
     5
 10
30.63067711378244
 20
-81.881074533917968
 30
0.0
 40
6.1905273041829147
 50
104.9999999999945
 51
142.34607669070141
  0
CIRCLE
  8
DETAIL
  6
CONTINUOUS
 62
     5
 10
13.52146264559974
 20
-18.028616860800181
 30
0.0
 40
41.329134743386483
  0
CIRCLE
  8
DETAIL
  6
CONTINUOUS
 62
     5
 10
13.52146264559974
 20
-18.028616860800181
 30
0.0
 40
41.335742036957193
  0
ARC
  8
DETAIL
  6
CONTINUOUS
 62
     5
 10
13.52146264559974
 20
-18.028616860800181
 30
0.0
 40
59.914401185417177
 50
284.99999999999437
 51
329.14124457960628
  0
ARC
  8
DETAIL
  6
CONTINUOUS
 62
     5
 10
13.52146264559974
 20
-18.028616860800181
 30
0.0
 40
60.08680068690218
 50
284.99999999999437
 51
326.28997303190249
  0
ARC
  8
DETAIL
  6
CONTINUOUS
 62
     5
 10
13.52146264559974
 20
-18.028616860800181
 30
0.0
 40
63.901430873280113
 50
324.52013631819409
 51
328.86718412918702
  0
ARC
  8
DETAIL
  6
CONTINUOUS
 62
     5
 10
-72.615262356000244
 20
-33.052464244799921
 30
0.0
 40
1.972548915870455
 50
270.0
 51
0.0
  0
ARC
  8
DETAIL
  6
CONTINUOUS
 62
     5
 10
-80.127186048000226
 20
-10.51669316879952
 30
0.0
 40
2.0031796511999969
 50
134.99999999789051
 51
180.0
  0
ARC
  8
DETAIL
  6
CONTINUOUS
 62
     5
 10
-74.079557348468597
 20
-66.586655159939255
 30
0.0
 40
5.0778803897363174
 50
162.9999999999915
 51
300.00000000000051
  0
ARC
  8
DETAIL
  6
CONTINUOUS
 62
     5
 10
-82.130365699200524
 20
-6.8540251587983221
 30
0.0
 40
2.0031796511999969
 50
314.99999999999079
 51
0.0
  0
ARC
  8
DETAIL
  6
CONTINUOUS
 62
     5
 10
-16.624160176502301
 20
64.795801138250226
 30
0.0
 40
6.0359157350195796
 50
165.74223937500469
 51
2.2577606249011399
  0
LINE
  8
DETAIL
  6
CONTINUOUS
 62
     5
 10
66.877224985824569
 20
-76.800134764321797
 30
0.0
 11
77.247124139580364
 21
-65.036989414999539
 31
0.0
  0
LINE
  8
DETAIL
  6
CONTINUOUS
 62
     5
 10
73.13289725925074
 20
-67.854569195207773
 30
0.0
 11
66.340900052047573
 21
-75.559104135740313
 31
0.0
  0
LINE
  8
DETAIL
  6
CONTINUOUS
 62
     5
 10
66.35854253750199
 20
-75.485754730778922
 30
0.0
 11
73.054299228935406
 21
-67.890390685533134
 31
0.0
  0
LINE
  8
DETAIL
  6
CONTINUOUS
 62
     5
 10
66.915718007977148
 20
-77.408053291255897
 30
0.0
 11
65.889770296754932
 21
-78.434001002378068
 31
0.0
  0
LINE
  8
DETAIL
  6
CONTINUOUS
 62
     5
 10
65.460272203845079
 20
-76.565165066134455
 30
0.0
 11
65.27931464223343
 21
-76.746122627846148
 31
0.0
  0
LINE
  8
DETAIL
  6
CONTINUOUS
 62
     5
 10
69.991761275713543
 20
-48.411901947306092
 30
0.0
 11
69.694232123196343
 21
-48.851243769900627
 31
0.0
  0
LINE
  8
DETAIL
  6
CONTINUOUS
 62
     5
 10
25.280285769042852
 20
-78.940908252002941
 30
0.0
 11
25.642044734597221
 21
-78.932442237981491
 31
0.0
  0
LINE
  8
DETAIL
  6
CONTINUOUS
 62
     5
 10
24.876060537898411
 20
-78.947889696263815
 30
0.0
 11
25.280285769042852
 21
-78.940908252002941
 31
0.0
  0
LINE
  8
DETAIL
  6
CONTINUOUS
 62
     5
 10
24.101466675359919
 20
-78.957156508994672
 30
0.0
 11
24.876060537898411
 21
-78.947889696263815
 31
0.0
  0
LINE
  8
DETAIL
  6
CONTINUOUS
 62
     5
 10
23.100076494556561
 20
-78.963902458554571
 30
0.0
 11
24.101466675359919
 21
-78.957156508994672
 31
0.0
  0
LINE
  8
DETAIL
  6
CONTINUOUS
 62
     5
 10
14.919337099910081
 20
-78.966070586528645
 30
0.0
 11
23.100076494556561
 21
-78.963902458554571
 31
0.0
  0
LINE
  8
DETAIL
  6
CONTINUOUS
 62
     5
 10
65.460270884250122
 20
-76.565166385728958
 30
0.0
 11
66.522070419046713
 21
-76.564944326253794
 31
0.0
  0
LINE
  8
DETAIL
  6
CONTINUOUS
 62
     5
 10
14.858884839311941
 20
-79.08694610689156
 30
0.0
 11
63.181028039071862
 21
-79.08694610689156
 31
0.0
  0
LINE
  8
DETAIL
  6
CONTINUOUS
 62
     5
 10
-35.220606440688243
 20
-79.086946106891446
 30
0.0
 11
12.18404600820759
 21
-79.08694610689156
 31
0.0
  0
LINE
  8
DETAIL
  6
CONTINUOUS
 62
     5
 10
-37.89547284656237
 20
-79.086946106891446
 30
0.0
 11
-67.187395665385452
 21
-79.086946106891446
 31
0.0
  0
LINE
  8
DETAIL
  6
CONTINUOUS
 62
     5
 10
-35.160154180090103
 20
-78.966070586528531
 30
0.0
 11
12.123588191289629
 21
-78.966070586528645
 31
0.0
  0
LINE
  8
DETAIL
  6
CONTINUOUS
 62
     5
 10
-57.608709450160973
 20
-78.963986908401694
 30
0.0
 11
-37.955903088710329
 21
-78.966070586528531
 31
0.0
  0
LINE
  8
DETAIL
  6
CONTINUOUS
 62
     5
 10
26.491580612050711
 20
-78.733549141257868
 30
0.0
 11
63.004351331769612
 21
-78.733549141257868
 31
0.0
  0
LINE
  8
DETAIL
  6
CONTINUOUS
 62
     5
 10
-60.955619794366733
 20
-78.724960292160176
 30
0.0
 11
-67.006416536740403
 21
-78.724960292160176
 31
0.0
  0
LINE
  8
DETAIL
  6
CONTINUOUS
 62
     5
 10
-67.993729020686487
 20
-78.519488798232942
 30
0.0
 11
-68.779760255690462
 21
-78.519488653603275
 31
0.0
  0
LINE
  8
DETAIL
  6
CONTINUOUS
 62
     5
 10
-36.026920629467213
 20
-78.519488935651225
 30
0.0
 11
-37.089136585548893
 21
-78.519488827779696
 31
0.0
  0
LINE
  8
DETAIL
  6
CONTINUOUS
 62
     5
 10
64.773401169933777
 20
-78.519489086991257
 30
0.0
 11
63.987369595390867
 21
-78.519489043923045
 31
0.0
  0
LINE
  8
DETAIL
  6
CONTINUOUS
 62
     5
 10
65.27931464223343
 20
-76.746122627846148
 30
0.0
 11
66.703248720638612
 21
-76.746122627846148
 31
0.0
  0
LINE
  8
DETAIL
  6
CONTINUOUS
 62
     5
 10
-70.709608023139708
 20
-76.746122627846034
 30
0.0
 11
-69.285673944634482
 21
-76.746122627846034
 31
0.0
  0
LINE
  8
DETAIL
  6
CONTINUOUS
 62
     5
 10
-70.484948071133886
 20
-76.521462675839757
 30
0.0
 11
-69.510333896640304
 21
-76.521462675839757
 31
0.0
  0
LINE
  8
DETAIL
  6
CONTINUOUS
 62
     5
 10
-36.041900172326002
 20
-75.711598535816847
 30
0.0
 11
-37.074154786007277
 21
-75.711603157052195
 31
0.0
  0
LINE
  8
DETAIL
  6
CONTINUOUS
 62
     5
 10
64.758419836230814
 20
-75.711601966262265
 30
0.0
 11
64.002349190632913
 21
-75.711598532111225
 31
0.0
  0
LINE
  8
DETAIL
  6
CONTINUOUS
 62
     5
 10
-68.781043197907138
 20
-75.679071370379916
 30
0.0
 11
-67.992446593186514
 21
-75.679072255384654
 31
0.0
  0
LINE
  8
DETAIL
  6
CONTINUOUS
 62
     5
 10
63.986086992011913
 20
-75.679071657736245
 30
0.0
 11
64.774683751878683
 21
-75.679071657635745
 31
0.0
  0
LINE
  8
DETAIL
  6
CONTINUOUS
 62
     5
 10
-37.09041899812496
 20
-75.679072255384654
 30
0.0
 11
-36.02563797190146
 21
-75.679071657635632
 31
0.0
  0
LINE
  8
DETAIL
  6
CONTINUOUS
 62
     5
 10
-58.710776810559878
 20
-78.956769883403012
 30
0.0
 11
-57.608709450160973
 21
-78.963986908401694
 31
0.0
  0
LINE
  8
DETAIL
  6
CONTINUOUS
 62
     5
 10
70.071101335454841
 20
-48.031851463988573
 30
0.0
 11
70.072536701313766
 21
-48.138191836481496
 31
0.0
  0
LINE
  8
DETAIL
  6
CONTINUOUS
 62
     5
 10
70.068848237507154
 20
-47.755420619938491
 30
0.0
 11
70.071101335454841
 21
-48.031851463988573
 31
0.0
  0
LINE
  8
DETAIL
  6
CONTINUOUS
 62
     5
 10
70.063803458519033
 20
-44.815070640740601
 30
0.0
 11
70.068848237507154
 21
-47.755420619938491
 31
0.0
  0
LINE
  8
DETAIL
  6
CONTINUOUS
 62
     5
 10
70.019926003043111
 20
-44.802932333580088
 30
0.0
 11
70.024923396015538
 21
-48.208683918008433
 31
0.0
  0
LINE
  8
DETAIL
  6
CONTINUOUS
 62
     5
 10
63.556604514186567
 20
-68.181226490006907
 30
0.0
 11
63.552735415559027
 21
-68.222834127695592
 31
0.0
  0
LINE
  8
DETAIL
  6
CONTINUOUS
 62
     5
 10
-37.157852277208121
 20
-71.854056734744063
 30
0.0
 11
-35.958222056279958
 21
-71.854056734744063
 31
0.0
  0
LINE
  8
DETAIL
  6
CONTINUOUS
 62
     5
 10
-68.879191051798671
 20
-70.19110363875825
 30
0.0
 11
-67.894298296893112
 21
-70.19110363875825
 31
0.0
  0
LINE
  8
DETAIL
  6
CONTINUOUS
 62
     5
 10
-68.970186575481648
 20
-70.017687579388621
 30
0.0
 11
-67.807596870740099
 21
-70.017687579388621
 31
0.0
  0
LINE
  8
DETAIL
  6
CONTINUOUS
 62
     5
 10
63.551391468108477
 20
-68.13528476631393
 30
0.0
 11
63.547735746072931
 21
-67.801526339573343
 31
0.0
  0
LINE
  8
DETAIL
  6
CONTINUOUS
 62
     5
 10
65.464603117012075
 20
-55.408874224561373
 30
0.0
 11
65.461309134167095
 21
-54.948632867804577
 31
0.0
  0
LINE
  8
DETAIL
  6
CONTINUOUS
 62
     5
 10
65.259195680364201
 20
-76.814821543777384
 30
0.0
 11
65.269622890695928
 21
-78.009661507420446
 31
0.0
  0
LINE
  8
DETAIL
  6
CONTINUOUS
 62
     5
 10
63.547735746072931
 20
-67.801526339573343
 30
0.0
 11
63.544053394469067
 21
-67.21601097492487
 31
0.0
  0
LINE
  8
DETAIL
  6
CONTINUOUS
 62
     5
 10
65.460270884250349
 20
-48.287753267450277
 30
0.0
 11
65.461309134167095
 21
-54.948632867804577
 31
0.0
  0
LINE
  8
DETAIL
  6
CONTINUOUS
 62
     5
 10
63.544053394469067
 20
-67.21601097492487
 30
0.0
 11
63.541899313291651
 21
-51.187884543217137
 31
0.0
  0
LINE
  8
DETAIL
  6
CONTINUOUS
 62
     5
 10
65.503974594239253
 20
-78.522008662719259
 30
0.0
 11
65.50397459423948
 21
-79.139011348062127
 31
0.0
  0
LINE
  8
DETAIL
  6
CONTINUOUS
 62
     5
 10
65.482160877481874
 20
-55.384211140397042
 30
0.0
 11
65.482160877481647
 21
-75.154636282581237
 31
0.0
  0
LINE
  8
DETAIL
  6
CONTINUOUS
 62
     5
 10
65.461055183269991
 20
-75.735464408365374
 30
0.0
 11
65.460272203845079
 21
-76.565165066134455
 31
0.0
  0
LINE
  8
DETAIL
  6
CONTINUOUS
 62
     5
 10
65.420899407123215
 20
-48.203445220513117
 30
0.0
 11
65.419270360934888
 21
-67.127066178265636
 31
0.0
  0
LINE
  8
DETAIL
  6
CONTINUOUS
 62
     5
 10
65.276725736529215
 20
-77.986448610216598
 30
0.0
 11
65.276842227564657
 21
-76.954236403572054
 31
0.0
  0
LINE
  8
DETAIL
  6
CONTINUOUS
 62
     5
 10
65.259195680364201
 20
-76.212320605492664
 30
0.0
 11
65.259195680364201
 21
-76.814821543777384
 31
0.0
  0
LINE
  8
DETAIL
  6
CONTINUOUS
 62
     5
 10
63.703413220650653
 20
-76.905602231049784
 30
0.0
 11
63.703603040051121
 21
-76.212320605492664
 31
0.0
  0
LINE
  8
DETAIL
  6
CONTINUOUS
 62
     5
 10
63.505127175800908
 20
-78.232830501926969
 30
0.0
 11
63.505127175801142
 21
-51.375996444526777
 31
0.0
  0
LINE
  8
DETAIL
  6
CONTINUOUS
 62
     5
 10
65.419270360934888
 20
-67.127066178265636
 30
0.0
 11
65.414555459362191
 21
-67.942654019932093
 31
0.0
  0
LINE
  8
DETAIL
  6
CONTINUOUS
 62
     5
 10
65.461055183269991
 20
-75.735464408365374
 30
0.0
 11
65.464603117012075
 21
-75.22764835890132
 31
0.0
  0
LINE
  8
DETAIL
  6
CONTINUOUS
 62
     5
 10
63.692164380943503
 20
-78.208536475067945
 30
0.0
 11
63.703413220650653
 21
-76.905602231049784
 31
0.0
  0
LINE
  8
DETAIL
  6
CONTINUOUS
 62
     5
 10
65.414555459362191
 20
-67.942654019932093
 30
0.0
 11
65.410581851145025
 21
-68.305434719786376
 31
0.0
  0
LINE
  8
DETAIL
  6
CONTINUOUS
 62
     5
 10
65.410581851145025
 20
-68.305434719786376
 30
0.0
 11
65.280360195842832
 21
-76.060244305968467
 31
0.0
  0
LINE
  8
DETAIL
  6
CONTINUOUS
 62
     5
 10
0.4355407693628877
 20
61.304496846232269
 30
0.0
 11
-12.686248063067071
 21
69.503900529843577
 31
0.0
  0
LINE
  8
DETAIL
  6
CONTINUOUS
 62
     5
 10
1.585339310262498
 20
60.53497744920287
 30
0.0
 11
3.3030308233519459
 21
59.461331692374642
 31
0.0
  0
LINE
  8
DETAIL
  6
CONTINUOUS
 62
     5
 10
-9.8272596766937568
 20
65.477946380302001
 30
0.0
 11
-1.121905198541072
 21
60.038237169430431
 31
0.0
  0
LINE
  8
DETAIL
  6
CONTINUOUS
 62
     5
 10
1.0537422012728259
 20
60.870016373280123
 30
0.0
 11
1.585339310262498
 21
60.53497744920287
 31
0.0
  0
LINE
  8
DETAIL
  6
CONTINUOUS
 62
     5
 10
63.681374339689462
 20
-75.875896427299836
 30
0.0
 11
63.551391468108477
 21
-68.13528476631393
 31
0.0
  0
LINE
  8
DETAIL
  6
CONTINUOUS
 62
     5
 10
-61.090465594485181
 20
-37.462685602074089
 30
0.0
 11
-70.612082704799946
 21
-37.462683965276028
 31
0.0
  0
LINE
  8
DETAIL
  6
CONTINUOUS
 62
     5
 10
-61.487608856004158
 20
-37.27367936087694
 30
0.0
 11
-66.077505618019245
 21
-37.073368007351753
 31
0.0
  0
LINE
  8
DETAIL
  6
CONTINUOUS
 62
     5
 10
-67.32817978090327
 20
-37.061880626207767
 30
0.0
 11
-80.127186048000226
 21
-37.061422886837143
 31
0.0
  0
LINE
  8
DETAIL
  6
CONTINUOUS
 62
     5
 10
-79.595779468839396
 20
-35.025013160870913
 30
0.0
 11
-72.615262356000244
 21
-35.025013160870913
 31
0.0
  0
LINE
  8
DETAIL
  6
CONTINUOUS
 62
     5
 10
-67.704266791492159
 20
-34.6517834779238
 30
0.0
 11
-61.29079502129764
 21
-34.6517834779238
 31
0.0
  0
LINE
  8
DETAIL
  6
CONTINUOUS
 62
     5
 10
63.004351331769612
 20
-78.733549141257868
 30
0.0
 11
63.181028039071862
 21
-79.08694610689156
 31
0.0
  0
LINE
  8
DETAIL
  6
CONTINUOUS
 62
     5
 10
-70.261430925105969
 20
-70.245690061500227
 30
0.0
 11
-71.540617153549874
 21
-70.98422857480864
 31
0.0
  0
LINE
  8
DETAIL
  6
CONTINUOUS
 62
     5
 10
69.763034541495472
 20
-49.472202367654631
 30
0.0
 11
76.984792370320974
 21
-56.693960196480127
 31
0.0
  0
LINE
  8
DETAIL
  6
CONTINUOUS
 62
     5
 10
69.002118647825228
 20
-50.97174798741537
 30
0.0
 11
72.213651624255363
 21
-54.18328096374546
 31
0.0
  0
LINE
  8
DETAIL
  6
CONTINUOUS
 62
     5
 10
72.138114706349143
 20
-54.157624416154817
 30
0.0
 11
68.983340654276617
 21
-51.002850363982468
 31
0.0
  0
LINE
  8
DETAIL
  6
CONTINUOUS
 62
     5
 10
-75.268718522957101
 20
-61.480618581125782
 30
0.0
 11
-72.486333746752393
 21
-59.874207843742617
 31
0.0
  0
LINE
  8
DETAIL
  6
CONTINUOUS
 62
     5
 10
-69.739829842128643
 20
-15.01951515113751
 30
0.0
 11
-67.122300839833883
 21
-15.018327084216709
 31
0.0
  0
LINE
  8
DETAIL
  6
CONTINUOUS
 62
     5
 10
-61.29079502820889
 20
-17.430887453276231
 30
0.0
 11
-67.704266791492159
 21
-17.430887453276231
 31
0.0
  0
LINE
  8
DETAIL
  6
CONTINUOUS
 62
     5
 10
-66.273933543571843
 20
-15.00897533897205
 30
0.0
 11
-61.69330845129673
 21
-14.809102791063649
 31
0.0
  0
LINE
  8
DETAIL
  6
CONTINUOUS
 62
     5
 10
-70.038785409217894
 20
-14.619986965923539
 30
0.0
 11
-61.29079502129764
 21
-14.619986965923539
 31
0.0
  0
LINE
  8
DETAIL
  6
CONTINUOUS
 62
     5
 10
-67.006416536740403
 20
-78.724960292160176
 30
0.0
 11
-67.187395665385452
 21
-79.086946106891446
 31
0.0
  0
LINE
  8
DETAIL
  6
CONTINUOUS
 62
     5
 10
-70.616996721229157
 20
-37.467097449007717
 30
0.0
 11
-70.612082704799946
 21
-37.462683965276028
 31
0.0
  0
LINE
  8
DETAIL
  6
CONTINUOUS
 62
     5
 10
-70.628021265811299
 20
-37.478603457519057
 30
0.0
 11
-70.616996721229157
 21
-37.467097449007717
 31
0.0
  0
LINE
  8
DETAIL
  6
CONTINUOUS
 62
     5
 10
-35.742947466578933
 20
-76.909270466147063
 30
0.0
 11
-35.731715360833959
 21
-78.208536475067831
 31
0.0
  0
LINE
  8
DETAIL
  6
CONTINUOUS
 62
     5
 10
-35.74315402004072
 20
-76.21232060549255
 30
0.0
 11
-35.742947466578933
 21
-76.909270466147063
 31
0.0
  0
LINE
  8
DETAIL
  6
CONTINUOUS
 62
     5
 10
-35.660930024221898
 20
-72.308953091070634
 30
0.0
 11
-35.660930024221898
 21
-78.465351947297677
 31
0.0
  0
LINE
  8
DETAIL
  6
CONTINUOUS
 62
     5
 10
-35.660930024221898
 20
-72.308953091070634
 30
0.0
 11
-35.72092531957901
 21
-75.87589642840112
 31
0.0
  0
LINE
  8
DETAIL
  6
CONTINUOUS
 62
     5
 10
-53.294406345126959
 20
37.613822525324849
 30
0.0
 11
-59.986893096677818
 21
37.613822557676492
 31
0.0
  0
LINE
  8
DETAIL
  6
CONTINUOUS
 62
     5
 10
-70.612082704799946
 20
37.626971776458497
 30
0.0
 11
-53.280481223452739
 21
37.626971776458497
 31
0.0
  0
LINE
  8
DETAIL
  6
CONTINUOUS
 62
     5
 10
-37.455127244679034
 20
-72.30896394570027
 30
0.0
 11
-37.395133604449477
 21
-75.875824261851449
 31
0.0
  0
LINE
  8
DETAIL
  6
CONTINUOUS
 62
     5
 10
-37.372903248860212
 20
-76.21232060549255
 30
0.0
 11
-37.373137474145778
 21
-76.914978709753996
 31
0.0
  0
LINE
  8
DETAIL
  6
CONTINUOUS
 62
     5
 10
-37.455127244679034
 20
-78.465351947297677
 30
0.0
 11
-37.455127244679034
 21
-72.30896394570027
 31
0.0
  0
LINE
  8
DETAIL
  6
CONTINUOUS
 62
     5
 10
-37.373137474145778
 20
-76.914978709753996
 30
0.0
 11
-37.384341908066972
 21
-78.208536475067831
 31
0.0
  0
LINE
  8
DETAIL
  6
CONTINUOUS
 62
     5
 10
-33.229689462354138
 20
50.391962109293218
 30
0.0
 11
-29.41541550752299
 21
62.13109026637585
 31
0.0
  0
LINE
  8
DETAIL
  6
CONTINUOUS
 62
     5
 10
-35.10797532087895
 20
50.757034990231197
 30
0.0
 11
-31.20703847335972
 21
62.76288410554298
 31
0.0
  0
LINE
  8
DETAIL
  6
CONTINUOUS
 62
     5
 10
-74.413528345921918
 20
-55.779147102465693
 30
0.0
 11
-75.96769563286864
 21
-60.862599242552278
 31
0.0
  0
LINE
  8
DETAIL
  6
CONTINUOUS
 62
     5
 10
-75.326490751535061
 20
-53.446007415719123
 30
0.0
 11
-74.751162022455105
 21
-51.564451933914818
 31
0.0
  0
LINE
  8
DETAIL
  6
CONTINUOUS
 62
     5
 10
-78.935558515355524
 20
-65.102026613980343
 30
0.0
 11
-75.83847576540677
 21
-54.971925391775592
 31
0.0
  0
LINE
  8
DETAIL
  6
CONTINUOUS
 62
     5
 10
-75.56584349313664
 20
-54.220103512353027
 30
0.0
 11
-75.326490751535061
 21
-53.446007415719123
 31
0.0
  0
LINE
  8
DETAIL
  6
CONTINUOUS
 62
     5
 10
-75.682747572523226
 20
-54.591679194902099
 30
0.0
 11
-75.56584349313664
 21
-54.220103512353027
 31
0.0
  0
LINE
  8
DETAIL
  6
CONTINUOUS
 62
     5
 10
-75.748941225445492
 20
-54.798211506767529
 30
0.0
 11
-75.682747572523226
 21
-54.591679194902099
 31
0.0
  0
LINE
  8
DETAIL
  6
CONTINUOUS
 62
     5
 10
-81.543647963325498
 20
-9.1002312534747034
 30
0.0
 11
-80.713903783975297
 21
-8.2704870741240484
 31
0.0
  0
LINE
  8
DETAIL
  6
CONTINUOUS
 62
     5
 10
-74.751162022455105
 20
-51.564451933914818
 30
0.0
 11
-74.740738173858631
 21
-51.520812110031777
 31
0.0
  0
LINE
  8
DETAIL
  6
CONTINUOUS
 62
     5
 10
-70.740801054102235
 20
-17.046564093813231
 30
0.0
 11
-74.72985276983411
 21
-30.603059234264951
 31
0.0
  0
LINE
  8
DETAIL
  6
CONTINUOUS
 62
     5
 10
-70.257487177988082
 20
-15.52029099526999
 30
0.0
 11
-70.545658964761174
 21
-16.49315962906303
 31
0.0
  0
LINE
  8
DETAIL
  6
CONTINUOUS
 62
     5
 10
-60.789915642624813
 20
-35.152458870809369
 30
0.0
 11
-60.789917099136012
 21
-37.162278747052369
 31
0.0
  0
LINE
  8
DETAIL
  6
CONTINUOUS
 62
     5
 10
-60.789915642624813
 20
-15.12066235880911
 30
0.0
 11
-60.789915642624813
 21
-16.930212066800781
 31
0.0
  0
LINE
  8
DETAIL
  6
CONTINUOUS
 62
     5
 10
-61.163643335964593
 20
-16.74333826432758
 30
0.0
 11
-61.163643335964593
 21
-15.307536154872199
 31
0.0
  0
LINE
  8
DETAIL
  6
CONTINUOUS
 62
     5
 10
-61.163643355996207
 20
-36.975429849811462
 30
0.0
 11
-61.163643335964593
 21
-35.339332666871996
 31
0.0
  0
LINE
  8
DETAIL
  6
CONTINUOUS
 62
     5
 10
-61.202238637266532
 20
-16.740995784003641
 30
0.0
 11
-61.202238637266532
 21
-15.30987863519613
 31
0.0
  0
LINE
  8
DETAIL
  6
CONTINUOUS
 62
     5
 10
0.6853966805674645
 20
61.226563452195023
 30
0.0
 11
3.570675510516367
 21
61.34501727539373
 31
0.0
  0
LINE
  8
DETAIL
  6
CONTINUOUS
 62
     5
 10
-69.37415162664206
 20
-70.860753837202083
 30
0.0
 11
-69.286721409778011
 21
-76.060160970088873
 31
0.0
  0
LINE
  8
DETAIL
  6
CONTINUOUS
 62
     5
 10
-69.284492359602382
 20
-76.779759852181996
 30
0.0
 11
-69.293738881571926
 21
-76.330957326503267
 31
0.0
  0
LINE
  8
DETAIL
  6
CONTINUOUS
 62
     5
 10
-67.698523683344547
 20
-78.208536475067831
 30
0.0
 11
-67.70960210895305
 21
-76.936576961002629
 31
0.0
  0
LINE
  8
DETAIL
  6
CONTINUOUS
 62
     5
 10
-69.283097059347028
 20
-77.986296675423091
 30
0.0
 11
-69.283357809027848
 21
-76.910908242392452
 31
0.0
  0
LINE
  8
DETAIL
  6
CONTINUOUS
 62
     5
 10
-67.709946961036849
 20
-76.84118069641454
 30
0.0
 11
-67.709832014081485
 21
-76.136485553958664
 31
0.0
  0
LINE
  8
DETAIL
  6
CONTINUOUS
 62
     5
 10
-67.507154245440915
 20
-78.224165376455403
 30
0.0
 11
-67.507154245440915
 21
-70.318164528871876
 31
0.0
  0
LINE
  8
DETAIL
  6
CONTINUOUS
 62
     5
 10
-68.205042635524592
 20
-17.931663297308209
 30
0.0
 11
-68.205042635524592
 21
-34.151007633891822
 31
0.0
  0
LINE
  8
DETAIL
  6
CONTINUOUS
 62
     5
 10
-69.47096241951408
 20
-70.509817369621942
 30
0.0
 11
-69.471038695887046
 21
-66.097024941081145
 31
0.0
  0
LINE
  8
DETAIL
  6
CONTINUOUS
 62
     5
 10
-69.510333896640304
 20
-70.679435217081846
 30
0.0
 11
-69.510333896640304
 21
-76.521462675839757
 31
0.0
  0
LINE
  8
DETAIL
  6
CONTINUOUS
 62
     5
 10
-69.510333896640191
 20
-79.139350152462612
 30
0.0
 11
-69.510333896640304
 21
-78.522008662719145
 31
0.0
  0
LINE
  8
DETAIL
  6
CONTINUOUS
 62
     5
 10
-70.612082704799946
 20
-15.295400281374899
 30
0.0
 11
-70.612082704799946
 21
-16.472513771550439
 31
0.0
  0
LINE
  8
DETAIL
  6
CONTINUOUS
 62
     5
 10
-70.612082704799946
 20
-37.462683965276028
 30
0.0
 11
-70.612082704799946
 21
-37.130504040595497
 31
0.0
  0
LINE
  8
DETAIL
  6
CONTINUOUS
 62
     5
 10
-70.642713440030207
 20
-33.052464244799921
 30
0.0
 11
-70.642713440030207
 21
-16.72213898506789
 31
0.0
  0
LINE
  8
DETAIL
  6
CONTINUOUS
 62
     5
 10
-67.686941186824015
 20
-75.833096087731974
 30
0.0
 11
-67.600423428907789
 21
-70.682990589431938
 31
0.0
  0
LINE
  8
DETAIL
  6
CONTINUOUS
 62
     5
 10
-25.755793298328399
 20
65.920741350874323
 30
0.0
 11
-23.13070612212778
 21
66.876194945339194
 31
0.0
  0
LINE
  8
DETAIL
  6
CONTINUOUS
 62
     5
 10
-23.105084738653431
 20
66.90444988876925
 30
0.0
 11
-25.770023689558229
 21
65.934491434610663
 31
0.0
  0
LINE
  8
DETAIL
  6
CONTINUOUS
 62
     5
 10
-26.400494871467341
 20
67.641864148647983
 30
0.0
 11
-19.504432588554891
 21
70.151825553272374
 31
0.0
  0
LINE
  8
DETAIL
  6
CONTINUOUS
 62
     5
 10
-19.497150557071109
 20
70.219755227985388
 30
0.0
 11
-26.449726995519999
 21
67.689224352898236
 31
0.0
  0
LINE
  8
DETAIL
  6
CONTINUOUS
 62
     5
 10
-80.096555312870919
 20
-30.047694767999928
 30
0.0
 11
-80.096555312870919
 21
-34.524237316738443
 31
0.0
  0
LINE
  8
DETAIL
  6
CONTINUOUS
 62
     5
 10
-80.127186048000226
 20
-6.8540251587983221
 30
0.0
 11
-80.127186048000226
 21
6.8540251587987768
 31
0.0
  0
LINE
  8
DETAIL
  6
CONTINUOUS
 62
     5
 10
-75.248486597981469
 20
-37.32302425733269
 30
0.0
 11
-75.265559589476766
 21
-37.12979518552811
 31
0.0
  0
LINE
  8
DETAIL
  6
CONTINUOUS
 62
     5
 10
-79.2710163139119
 20
-37.188664947122113
 30
0.0
 11
-79.275906771546147
 21
-37.129184297263691
 31
0.0
  0
LINE
  8
DETAIL
  6
CONTINUOUS
 62
     5
 10
-77.30741079882057
 20
-37.214992007118781
 30
0.0
 11
-77.314710233728078
 21
-37.129483042462653
 31
0.0
  0
LINE
  8
DETAIL
  6
CONTINUOUS
 62
     5
 10
-82.130365699200524
 20
-35.125493554006432
 30
0.0
 11
-82.130365699200524
 21
-10.51669316879952
 31
0.0
  0
LINE
  8
DETAIL
  6
CONTINUOUS
 62
     5
 10
-69.510333896640304
 20
-76.521462675839757
 30
0.0
 11
-69.285673944634482
 21
-76.746122627846034
 31
0.0
  0
LINE
  8
DETAIL
  6
CONTINUOUS
 62
     5
 10
-69.896129599256028
 20
-78.434001002377954
 30
0.0
 11
-70.922077310378199
 21
-77.408053291255783
 31
0.0
  0
LINE
  8
DETAIL
  6
CONTINUOUS
 62
     5
 10
-63.926852092041372
 20
162.39798456738981
 30
0.0
 11
-60.108530270349547
 21
176.64815560559151
 31
0.0
  0
LINE
  8
DETAIL
  6
CONTINUOUS
 62
     5
 10
-65.84990455719344
 20
162.49490108411959
 30
0.0
 11
-69.64225767649441
 21
176.64815560559151
 31
0.0
  0
LINE
  8
DETAIL
  6
CONTINUOUS
 62
     5
 10
-65.84990455719344
 20
178.93486765848229
 30
0.0
 11
-65.84990455719344
 21
160.00741918760289
 31
0.0
  0
LINE
  8
DETAIL
  6
CONTINUOUS
 62
     5
 10
-63.926852092041372
 20
178.93486765848229
 30
0.0
 11
-63.926852092041372
 21
160.00741918760289
 31
0.0
  0
LINE
  8
DETAIL
  6
CONTINUOUS
 62
     5
 10
-63.926852092041372
 20
178.93486765848229
 30
0.0
 11
-65.84990455719344
 21
178.93486765848229
 31
0.0
  0
LINE
  8
DETAIL
  6
CONTINUOUS
 62
     5
 10
-67.174276202685178
 20
160.00741918760289
 30
0.0
 11
-71.499783717893479
 21
176.15043300287971
 31
0.0
  0
LINE
  8
DETAIL
  6
CONTINUOUS
 62
     5
 10
-62.576511744158779
 20
160.00741918760289
 30
0.0
 11
-58.251004228950478
 21
176.15043300287971
 31
0.0
  0
LINE
  8
DETAIL
  6
CONTINUOUS
 62
     5
 10
-61.67030653150141
 20
160.00741918760289
 30
0.0
 11
-68.080481415342547
 21
160.00741918760289
 31
0.0
  0
LINE
  8
DETAIL
  6
CONTINUOUS
 62
     5
 10
-61.67030653150141
 20
160.00741918760289
 30
0.0
 11
-61.67030653150141
 21
140.59046678560389
 31
0.0
  0
LINE
  8
DETAIL
  6
CONTINUOUS
 62
     5
 10
-68.080481415342547
 20
160.00741918760289
 30
0.0
 11
-68.080481415342547
 21
142.8228070520654
 31
0.0
  0
LINE
  8
DETAIL
  6
CONTINUOUS
 62
     5
 10
-69.64225767649441
 20
176.64815560559151
 30
0.0
 11
-71.499783717893479
 21
176.15043300287971
 31
0.0
  0
LINE
  8
DETAIL
  6
CONTINUOUS
 62
     5
 10
-58.251004228950478
 20
176.15043300287971
 30
0.0
 11
-60.108530270349547
 21
176.64815560559151
 31
0.0
  0
LINE
  8
DETAIL
  6
CONTINUOUS
 62
     5
 10
-68.080481415342547
 20
139.61771961014571
 30
0.0
 11
-68.080481415342661
 21
109.67408590320019
 31
0.0
  0
LINE
  8
DETAIL
  6
CONTINUOUS
 62
     5
 10
-61.67030653150141
 20
137.3853793436833
 30
0.0
 11
-61.670306531501517
 21
111.6772655543996
 31
0.0
  0
LINE
  8
DETAIL
  6
CONTINUOUS
 62
     5
 10
-18.058327877668489
 20
66.229968839415505
 30
0.0
 11
-15.189992456226721
 21
63.361633417973742
 31
0.0
  0
LINE
  8
DETAIL
  6
CONTINUOUS
 62
     5
 10
-15.1899924992249
 20
66.229968839415505
 30
0.0
 11
-18.05832792066667
 21
63.361633417973742
 31
0.0
  0
CIRCLE
  8
DETAIL
  6
CONTINUOUS
 62
     5
 10
-16.624160188492169
 20
64.795801150239186
 30
0.0
 40
4.2367249622880392
  0
CIRCLE
  8
DETAIL
  6
CONTINUOUS
 62
     5
 10
-74.079557360456647
 20
-66.58665517183772
 30
0.0
 40
4.2367249622879886
  0
LINE
  8
DETAIL
  6
CONTINUOUS
 62
     5
 10
-72.645389671189378
 20
-65.1524874826614
 30
0.0
 11
-75.513725092632058
 21
-68.02082290410317
 31
0.0
  0
LINE
  8
DETAIL
  6
CONTINUOUS
 62
     5
 10
-75.513725049633877
 20
-65.1524874826614
 30
0.0
 11
-72.645389628192106
 21
-68.02082290410317
 31
0.0
  0
CIRCLE
  8
DETAIL
  6
CONTINUOUS
 62
     5
 10
72.673595559133673
 20
-61.005157007577623
 30
0.0
 40
4.2367249622879886
  0
LINE
  8
DETAIL
  6
CONTINUOUS
 62
     5
 10
74.10776324840117
 20
-59.570989318400848
 30
0.0
 11
71.239427826958263
 21
-62.439324739843073
 31
0.0
  0
LINE
  8
DETAIL
  6
CONTINUOUS
 62
     5
 10
71.239427869956671
 20
-59.570989318400848
 30
0.0
 11
74.107763291399124
 21
-62.439324739843073
 31
0.0
  0
ARC
  8
DETAIL
  6
CONTINUOUS
 62
     5
 10
13.52146264559974
 20
-18.028616860800181
 30
0.0
 40
11.268300655769769
 50
54.707099489498027
 51
152.72986038860449
  0
CIRCLE
  8
DETAIL
  6
CONTINUOUS
 62
     5
 10
13.52146264559974
 20
-18.028616860800181
 30
0.0
 40
1.001589825600004
  0
ARC
  8
DETAIL
  6
CONTINUOUS
 62
     5
 10
13.52146264559974
 20
-18.028616860800181
 30
0.0
 40
11.26830065576994
 50
152.72986038860449
 51
206.57054338181439
  0
ARC
  8
DETAIL
  6
CONTINUOUS
 62
     5
 10
13.52146264559974
 20
-18.028616860800181
 30
0.0
 40
11.268300655769851
 50
206.57054338181439
 51
305.29290051050202
  0
ARC
  8
DETAIL
  6
CONTINUOUS
 62
     5
 10
13.52146264559974
 20
-18.028616860800181
 30
0.0
 40
11.26830065576989
 50
305.29290051050202
 51
54.707099489498027
  0
CIRCLE
  8
DETAIL
  6
CONTINUOUS
 62
     5
 10
13.52146264559974
 20
-18.028616860800181
 30
0.0
 40
39.963434041439989
  0
ARC
  8
DETAIL
  6
CONTINUOUS
 62
     5
 10
-67.418256345865984
 20
139.9255295356356
 30
0.0
 40
3.034674084824097
 50
38.934649594266247
 51
141.0653504057338
  0
ARC
  8
DETAIL
  6
CONTINUOUS
 62
     5
 10
-62.572684361646218
 20
143.4263904128766
 30
0.0
 40
2.9521821577980289
 50
212.67421738970481
 51
327.32578261029522
  0
ARC
  8
DETAIL
  6
CONTINUOUS
 62
     5
 10
-67.451671862967714
 20
136.72739162746029
 30
0.0
 40
3.034674084824097
 50
38.934649594266247
 51
141.0653504057338
  0
ARC
  8
DETAIL
  6
CONTINUOUS
 62
     5
 10
-62.606099878747948
 20
140.2282525047012
 30
0.0
 40
2.9521821577980289
 50
212.67421738970481
 51
327.32578261029522
  0
LINE
  8
DETAIL
  6
CONTINUOUS
 62
     5
 10
-90.14171165989967
 20
111.6772655543996
 30
0.0
 11
-89.141494478400205
 21
109.67408590320019
 31
0.0
  0
LINE
  8
DETAIL
  6
CONTINUOUS
 62
     5
 10
-111.67726555440019
 20
90.141711659999146
 30
0.0
 11
-109.6740859032008
 21
89.141494478400091
 31
0.0
  0
LINE
  8
DETAIL
  6
CONTINUOUS
 62
     5
 10
-111.67726555440019
 20
64.103121482501138
 30
0.0
 11
-109.6740859032008
 21
65.103338663999693
 31
0.0
  0
LINE
  8
DETAIL
  6
CONTINUOUS
 62
     5
 10
-111.67726555440019
 20
14.52030718309879
 30
0.0
 11
-109.6768311913021
 21
12.51987282000027
 31
0.0
  0
LINE
  8
DETAIL
  6
CONTINUOUS
 62
     5
 10
-108.25885863222911
 20
-52.461086135936633
 30
0.0
 11
-110.04100465389099
 21
-52.461086135936633
 31
0.0
  0
LINE
  8
DETAIL
  6
CONTINUOUS
 62
     5
 10
-110.04100465389099
 20
-27.666099912063601
 30
0.0
 11
-108.25885863222911
 21
-27.666099912063601
 31
0.0
  0
LINE
  8
DETAIL
  6
CONTINUOUS
 62
     5
 10
-109.6768311913021
 20
-12.51987282000027
 30
0.0
 11
-107.67090625200061
 21
-12.51987282000027
 31
0.0
  0
LINE
  8
DETAIL
  6
CONTINUOUS
 62
     5
 10
-111.67726555440019
 20
-14.52030718309879
 30
0.0
 11
-111.67726555440019
 21
-27.543720204100509
 31
0.0
  0
LINE
  8
DETAIL
  6
CONTINUOUS
 62
     5
 10
-111.67726555440019
 20
-52.583465843899937
 30
0.0
 11
-111.67726555440029
 21
-64.103121482501251
 31
0.0
  0
ARC
  8
DETAIL
  6
CONTINUOUS
 62
     5
 10
-33.92885534220045
 20
-40.063593024000063
 30
0.0
 40
78.750000037800049
 50
170.85215748020539
 51
174.84737180510561
  0
ARC
  8
DETAIL
  6
CONTINUOUS
 62
     5
 10
-33.92885534220045
 20
-40.063593024000063
 30
0.0
 40
78.750000037799992
 50
185.15262819489439
 51
189.14784251979461
  0
ARC
  8
DETAIL
  6
CONTINUOUS
 62
     5
 10
475.11753563225187
 20
-40.063593024000284
 30
0.0
 40
587.5207318107914
 50
179.3102668278126
 51
180.6897331721874
  0
ARC
  8
DETAIL
  6
CONTINUOUS
 62
     5
 10
-33.92885534220045
 20
-40.063593024000063
 30
0.0
 40
77.115219693080434
 50
170.74864887259659
 51
189.25135112740341
  0
ARC
  8
DETAIL
  6
CONTINUOUS
 62
     5
 10
-33.92885534220045
 20
-40.063593024000063
 30
0.0
 40
75.356799458007544
 50
170.5308085382955
 51
189.4691914617045
  0
ARC
  8
DETAIL
  6
CONTINUOUS
 62
     5
 10
-107.67090625200061
 20
-10.51669316880043
 30
0.0
 40
2.003179651200008
 50
270.0
 51
0.0
  0
LINE
  8
DETAIL
  6
CONTINUOUS
 62
     5
 10
-111.67726555440029
 20
-64.103121482501251
 30
0.0
 11
-109.6740859032009
 21
-65.103338663999807
 31
0.0
  0
LINE
  8
DETAIL
  6
CONTINUOUS
 62
     5
 10
-111.67726555440019
 20
-14.52030718309879
 30
0.0
 11
-109.6768311913021
 21
-12.51987282000027
 31
0.0
  0
LINE
  8
DETAIL
  6
CONTINUOUS
 62
     5
 10
-90.14171165989967
 20
-111.6772655543996
 30
0.0
 11
-89.141494478400205
 21
-109.67408590320019
 31
0.0
  0
LINE
  8
DETAIL
  6
CONTINUOUS
 62
     5
 10
-111.67726555440019
 20
-90.14171165999926
 30
0.0
 11
-109.6740859032008
 21
-89.141494478400205
 31
0.0
  0
LINE
  8
DETAIL
  6
CONTINUOUS
 62
     5
 10
-12.519872820000501
 20
109.6768311913015
 30
0.0
 11
-14.52030718309925
 21
111.6772655543996
 31
0.0
  0
LINE
  8
DETAIL
  6
CONTINUOUS
 62
     5
 10
-65.103338664000262
 20
110.677048372901
 30
0.0
 11
-64.103121482401662
 21
111.6772655543996
 31
0.0
  0
LINE
  8
DETAIL
  6
CONTINUOUS
 62
     5
 10
64.103121482401548
 20
111.6772655543996
 30
0.0
 11
52.58346584390074
 21
111.6772655543996
 31
0.0
  0
LINE
  8
DETAIL
  6
CONTINUOUS
 62
     5
 10
27.54372020400001
 20
111.6772655543996
 30
0.0
 11
14.520307183099019
 21
111.6772655543996
 31
0.0
  0
LINE
  8
DETAIL
  6
CONTINUOUS
 62
     5
 10
10.516693168799749
 20
105.66772660080009
 30
0.0
 11
-0.0000000000002274
 21
105.66772660080009
 31
0.0
  0
LINE
  8
DETAIL
  6
CONTINUOUS
 62
     5
 10
12.51987282000027
 20
107.67090625200029
 30
0.0
 11
12.51987282000027
 21
109.6768311913015
 31
0.0
  0
LINE
  8
DETAIL
  6
CONTINUOUS
 62
     5
 10
27.666099912064059
 20
108.2864265095768
 30
0.0
 11
27.666099912064059
 21
110.04100465399139
 31
0.0
  0
LINE
  8
DETAIL
  6
CONTINUOUS
 62
     5
 10
52.583465844000777
 20
110.02096986723291
 30
0.0
 11
52.583465844000777
 21
108.2659188431157
 31
0.0
  0
LINE
  8
DETAIL
  6
CONTINUOUS
 62
     5
 10
65.103338664000148
 20
110.677048372901
 30
0.0
 11
65.103338664000148
 21
109.67408590320019
 31
0.0
  0
ARC
  8
DETAIL
  6
CONTINUOUS
 62
     5
 10
10.516693168799749
 20
107.67090625200029
 30
0.0
 40
2.003179651200008
 50
270.0
 51
0.0
  0
ARC
  8
DETAIL
  6
CONTINUOUS
 62
     5
 10
40.063593024000511
 20
33.928855342199768
 30
0.0
 40
78.750000037800092
 50
80.852157480204866
 51
84.847371805105624
  0
ARC
  8
DETAIL
  6
CONTINUOUS
 62
     5
 10
40.063593024000511
 20
33.928855342199768
 30
0.0
 40
78.750000037800262
 50
95.152628194894376
 51
99.147842519795148
  0
ARC
  8
DETAIL
  6
CONTINUOUS
 62
     5
 10
40.063593023995509
 20
-475.1177037300472
 30
0.0
 40
587.52089989640638
 50
89.31026702514221
 51
90.689732974857804
  0
ARC
  8
DETAIL
  6
CONTINUOUS
 62
     5
 10
40.063593024000511
 20
33.928855342199768
 30
0.0
 40
77.115219693080604
 50
80.656511647518826
 51
99.251351127403893
  0
ARC
  8
DETAIL
  6
CONTINUOUS
 62
     5
 10
40.063593024000511
 20
33.928855342199768
 30
0.0
 40
75.383991837527731
 50
80.439943740394028
 51
99.465744326988798
  0
LINE
  8
DETAIL
  6
CONTINUOUS
 62
     5
 10
12.51987282000027
 20
109.6768311913015
 30
0.0
 11
14.520307183099019
 21
111.6772655543996
 31
0.0
  0
LINE
  8
DETAIL
  6
CONTINUOUS
 62
     5
 10
65.103338664000148
 20
110.677048372901
 30
0.0
 11
64.103121482401548
 21
111.6772655543996
 31
0.0
  0
LINE
  8
DETAIL
  6
CONTINUOUS
 62
     5
 10
-64.103121482402798
 20
-111.6772655543989
 30
0.0
 11
-52.58346584390199
 21
-111.677265554399
 31
0.0
  0
LINE
  8
DETAIL
  6
CONTINUOUS
 62
     5
 10
-27.543720204001598
 20
-111.6772655543992
 30
0.0
 11
-14.520307183100609
 21
-111.6772655543994
 31
0.0
  0
LINE
  8
DETAIL
  6
CONTINUOUS
 62
     5
 10
-10.51669316880111
 20
-105.6677266007998
 30
0.0
 11
-0.0000000000013642
 21
-105.6677266007999
 31
0.0
  0
LINE
  8
DETAIL
  6
CONTINUOUS
 62
     5
 10
-12.51987282000141
 20
-107.67090625200009
 30
0.0
 11
-12.51987282000141
 21
-109.6768311913013
 31
0.0
  0
LINE
  8
DETAIL
  6
CONTINUOUS
 62
     5
 10
-27.666099912065189
 20
-108.2864265095765
 30
0.0
 11
-27.666099912065189
 21
-110.0410046539911
 31
0.0
  0
LINE
  8
DETAIL
  6
CONTINUOUS
 62
     5
 10
-52.583465844001921
 20
-110.0209698672323
 30
0.0
 11
-52.583465844001921
 21
-108.2659188431152
 31
0.0
  0
LINE
  8
DETAIL
  6
CONTINUOUS
 62
     5
 10
-65.103338664001285
 20
-110.6770483729002
 30
0.0
 11
-65.103338664001285
 21
-109.6740859031994
 31
0.0
  0
ARC
  8
DETAIL
  6
CONTINUOUS
 62
     5
 10
-10.51669316880111
 20
-107.67090625200009
 30
0.0
 40
2.003179651200008
 50
90.0
 51
180.0
  0
ARC
  8
DETAIL
  6
CONTINUOUS
 62
     5
 10
-40.063593024000973
 20
-33.928855342199313
 30
0.0
 40
78.750000037800092
 50
260.85215748020488
 51
264.84737180510558
  0
ARC
  8
DETAIL
  6
CONTINUOUS
 62
     5
 10
-40.063593024000973
 20
-33.928855342199313
 30
0.0
 40
78.750000037800262
 50
275.15262819489442
 51
279.14784251979512
  0
ARC
  8
DETAIL
  6
CONTINUOUS
 62
     5
 10
-40.063593023991068
 20
475.11770373004771
 30
0.0
 40
587.52089989640638
 50
269.3102670251422
 51
270.68973297484479
  0
ARC
  8
DETAIL
  6
CONTINUOUS
 62
     5
 10
-40.063593024000973
 20
-33.928855342199313
 30
0.0
 40
77.115219693080604
 50
260.65651164750489
 51
279.25135112740389
  0
ARC
  8
DETAIL
  6
CONTINUOUS
 62
     5
 10
-40.063593024000973
 20
-33.928855342199313
 30
0.0
 40
75.383991837527731
 50
260.43994374039403
 51
279.46574432700157
  0
LINE
  8
DETAIL
  6
CONTINUOUS
 62
     5
 10
-12.51987282000141
 20
-109.6768311913013
 30
0.0
 11
-14.520307183100609
 21
-111.6772655543994
 31
0.0
  0
LINE
  8
DETAIL
  6
CONTINUOUS
 62
     5
 10
-65.103338664001285
 20
-110.6770483729002
 30
0.0
 11
-64.103121482402798
 21
-111.6772655543989
 31
0.0
  0
LINE
  8
DETAIL
  6
CONTINUOUS
 62
     5
 10
64.103121482400184
 20
-111.67726555440019
 30
0.0
 11
52.583465843899383
 21
-111.67726555439999
 31
0.0
  0
LINE
  8
DETAIL
  6
CONTINUOUS
 62
     5
 10
27.543720203999101
 20
-111.6772655543998
 30
0.0
 11
14.52030718309811
 21
-111.6772655543997
 31
0.0
  0
LINE
  8
DETAIL
  6
CONTINUOUS
 62
     5
 10
10.516693168798611
 20
-105.66772660080019
 30
0.0
 11
-0.0000000000013642
 21
-105.6677266007999
 31
0.0
  0
LINE
  8
DETAIL
  6
CONTINUOUS
 62
     5
 10
12.519872819998911
 20
-107.67090625200061
 30
0.0
 11
12.519872819998911
 21
-109.6768311913016
 31
0.0
  0
LINE
  8
DETAIL
  6
CONTINUOUS
 62
     5
 10
27.666099912062691
 20
-108.286426509577
 30
0.0
 11
27.666099912062691
 21
-110.04100465399149
 31
0.0
  0
LINE
  8
DETAIL
  6
CONTINUOUS
 62
     5
 10
52.58346584399942
 20
-110.0209698672334
 30
0.0
 11
52.58346584399942
 21
-108.2659188431162
 31
0.0
  0
LINE
  8
DETAIL
  6
CONTINUOUS
 62
     5
 10
65.103338663998784
 20
-110.6770483729016
 30
0.0
 11
65.103338663998784
 21
-109.6740859032008
 31
0.0
  0
ARC
  8
DETAIL
  6
CONTINUOUS
 62
     5
 10
10.516693168798611
 20
-107.67090625200061
 30
0.0
 40
2.003179651200008
 50
0.0
 51
90.0
  0
ARC
  8
DETAIL
  6
CONTINUOUS
 62
     5
 10
40.063593024000063
 20
-33.928855342200222
 30
0.0
 40
78.750000037800092
 50
275.15262819489442
 51
279.14784251979512
  0
ARC
  8
DETAIL
  6
CONTINUOUS
 62
     5
 10
40.063593024000063
 20
-33.928855342200222
 30
0.0
 40
78.750000037800262
 50
260.85215748020488
 51
264.84737180510558
  0
ARC
  8
DETAIL
  6
CONTINUOUS
 62
     5
 10
40.063593024000738
 20
475.11770373004668
 30
0.0
 40
587.52089989640638
 50
269.3102670251422
 51
270.6897329748578
  0
ARC
  8
DETAIL
  6
CONTINUOUS
 62
     5
 10
40.063593024000063
 20
-33.928855342200222
 30
0.0
 40
77.115219693080604
 50
260.74864887259611
 51
279.34348835248107
  0
ARC
  8
DETAIL
  6
CONTINUOUS
 62
     5
 10
40.063593024000063
 20
-33.928855342200222
 30
0.0
 40
75.383991837527731
 50
260.53425567301122
 51
279.56005625960597
  0
LINE
  8
DETAIL
  6
CONTINUOUS
 62
     5
 10
12.519872819998911
 20
-109.6768311913016
 30
0.0
 11
14.52030718309811
 21
-111.6772655543997
 31
0.0
  0
LINE
  8
DETAIL
  6
CONTINUOUS
 62
     5
 10
65.103338663998784
 20
-110.6770483729016
 30
0.0
 11
64.103121482400184
 21
-111.67726555440019
 31
0.0
  0
LINE
  8
DETAIL
  6
CONTINUOUS
 62
     5
 10
89.141494478399864
 20
-109.6740859031999
 30
0.0
 11
65.103338664000148
 21
-109.6740859031999
 31
0.0
  0
LINE
  8
DETAIL
  6
CONTINUOUS
 62
     5
 10
90.143084304000695
 20
-111.67726555440019
 30
0.0
 11
101.66136729840041
 21
-111.67726555440019
 31
0.0
  0
LINE
  8
DETAIL
  6
CONTINUOUS
 62
     5
 10
109.67408590320041
 20
-89.14149447839975
 30
0.0
 11
109.67408590320041
 21
-65.103338663999807
 31
0.0
  0
LINE
  8
DETAIL
  6
CONTINUOUS
 62
     5
 10
111.6772655543998
 20
-90.14171165999926
 30
0.0
 11
111.6772655543998
 21
-101.66136729839999
 31
0.0
  0
ARC
  8
DETAIL
  6
CONTINUOUS
 62
     5
 10
101.66136729840041
 20
-101.66136729839999
 30
0.0
 40
10.015898256000041
 50
270.0
 51
0.0
  0
ARC
  8
DETAIL
  6
CONTINUOUS
 62
     5
 10
101.66136729840041
 20
-101.66136729839999
 30
0.0
 40
10.015898255999989
 50
270.0
 51
0.0
  0
LINE
  8
DETAIL
  6
CONTINUOUS
 62
     5
 10
101.66136729840041
 20
-111.67726555440019
 30
0.0
 11
90.141711659999601
 21
-111.67726555440019
 31
0.0
  0
LINE
  8
DETAIL
  6
CONTINUOUS
 62
     5
 10
65.103338664000148
 20
-109.6740859031999
 30
0.0
 11
89.141494478399864
 21
-109.6740859031999
 31
0.0
  0
LINE
  8
DETAIL
  6
CONTINUOUS
 62
     5
 10
109.67408590320041
 20
-89.14149447839975
 30
0.0
 11
109.67408590320041
 21
-65.103338663999807
 31
0.0
  0
LINE
  8
DETAIL
  6
CONTINUOUS
 62
     5
 10
111.6772655543998
 20
-90.141711659899215
 30
0.0
 11
111.6772655543998
 21
-101.66136729839999
 31
0.0
  0
LINE
  8
DETAIL
  6
CONTINUOUS
 62
     5
 10
101.66136729840041
 20
111.6772655543994
 30
0.0
 11
90.141711659899556
 21
111.6772655543996
 31
0.0
  0
LINE
  8
DETAIL
  6
CONTINUOUS
 62
     5
 10
65.103338664000148
 20
109.67408590320019
 30
0.0
 11
89.141494478399864
 21
109.67408590320019
 31
0.0
  0
LINE
  8
DETAIL
  6
CONTINUOUS
 62
     5
 10
109.67408590320041
 20
89.141494478399864
 30
0.0
 11
109.67408590320041
 21
65.103338663999466
 31
0.0
  0
LINE
  8
DETAIL
  6
CONTINUOUS
 62
     5
 10
111.6772655543998
 20
90.141711659998919
 30
0.0
 11
111.6772655543998
 21
101.6613672983997
 31
0.0
  0
ARC
  8
DETAIL
  6
CONTINUOUS
 62
     5
 10
101.66136729840041
 20
101.6613672983997
 30
0.0
 40
10.01589825600001
 50
0.0
 51
90.0
  0
LINE
  8
DETAIL
  6
CONTINUOUS
 62
     5
 10
90.141711659899556
 20
111.6772655543996
 30
0.0
 11
89.141494478399864
 21
109.67408590320019
 31
0.0
  0
LINE
  8
DETAIL
  6
CONTINUOUS
 62
     5
 10
111.6772655543998
 20
90.141711659998919
 30
0.0
 11
109.67408590320041
 21
89.141494478399864
 31
0.0
  0
LINE
  8
DETAIL
  6
CONTINUOUS
 62
     5
 10
90.141711659899556
 20
-111.6772655543997
 30
0.0
 11
89.141494478399864
 21
-109.67408590320029
 31
0.0
  0
LINE
  8
DETAIL
  6
CONTINUOUS
 62
     5
 10
111.6772655543998
 20
-90.14171165999926
 30
0.0
 11
109.67408590320041
 21
-89.141494478400205
 31
0.0
  0
ARC
  8
DETAIL
  6
CONTINUOUS
 62
     5
 10
-72.841251340945405
 20
66.404900814015036
 30
0.0
 40
8.8719794308475901
 50
95.594447418669731
 51
175.8058082567926
  0
ARC
  8
DETAIL
  6
CONTINUOUS
 62
     5
 10
-69.118564958159936
 20
68.751994907504923
 30
0.0
 40
14.17793788237425
 50
110.99152567377401
 51
157.41306305586201
  0
ARC
  8
DETAIL
  6
CONTINUOUS
 62
     5
 10
-74.780733129904775
 20
74.780732894759694
 30
0.0
 40
8.4500752920030759
 50
92.900914169295078
 51
177.0990543265155
  0
ARC
  8
DETAIL
  6
CONTINUOUS
 62
     5
 10
72.841251340945291
 20
66.404900814015036
 30
0.0
 40
8.8719794308475901
 50
4.1941917432073614
 51
84.405552581316684
  0
ARC
  8
DETAIL
  6
CONTINUOUS
 62
     5
 10
69.118564958159823
 20
68.751994907504923
 30
0.0
 40
14.17793788237425
 50
22.58693694413806
 51
69.008474326225979
  0
ARC
  8
DETAIL
  6
CONTINUOUS
 62
     5
 10
74.780733129904547
 20
74.780732894759694
 30
0.0
 40
8.4500752920030759
 50
2.9009456734845509
 51
87.099085830717939
  0
LINE
  8
DETAIL
  6
CONTINUOUS
 62
     5
 10
-80.465607815972476
 20
-79.714480874625224
 30
0.0
 11
-79.964887172759632
 21
-80.215210359571756
 31
0.0
  0
LINE
  8
DETAIL
  6
CONTINUOUS
 62
     5
 10
-78.935098672245886
 20
-78.183982576513699
 30
0.0
 11
-78.434380032914532
 21
-78.684701215844598
 31
0.0
  0
LINE
  8
DETAIL
  6
CONTINUOUS
 62
     5
 10
-83.219979836371976
 20
-71.701762273431086
 30
0.0
 11
-80.465607815972589
 21
-74.205366311995476
 31
0.0
  0
LINE
  8
DETAIL
  6
CONTINUOUS
 62
     5
 10
-81.689470692645273
 20
-70.17126397171387
 30
0.0
 11
-78.935098672245886
 21
-72.674885263063516
 31
0.0
  0
LINE
  8
DETAIL
  6
CONTINUOUS
 62
     5
 10
80.465607815972362
 20
-79.714480874625337
 30
0.0
 11
79.96488717275929
 21
-80.21521035957187
 31
0.0
  0
LINE
  8
DETAIL
  6
CONTINUOUS
 62
     5
 10
78.935098672245431
 20
-78.183982576513813
 30
0.0
 11
78.434380032914078
 21
-78.684701215844711
 31
0.0
  0
LINE
  8
DETAIL
  6
CONTINUOUS
 62
     5
 10
83.219979836371522
 20
-71.7017622734312
 30
0.0
 11
80.465607815972135
 21
-74.20536631199559
 31
0.0
  0
LINE
  8
DETAIL
  6
CONTINUOUS
 62
     5
 10
81.689470692644818
 20
-70.171263971713984
 30
0.0
 11
78.935098672245431
 21
-72.674885263063629
 31
0.0
  0
LINE
  8
DETAIL
  6
CONTINUOUS
 62
     5
 10
-71.932196382168627
 20
-79.200420115420002
 30
0.0
 11
-72.155321470882996
 21
-79.195397754516307
 31
0.0
  0
LINE
  8
DETAIL
  6
CONTINUOUS
 62
     5
 10
-72.410650293451226
 20
-78.684701215844598
 30
0.0
 11
-72.414521011549596
 21
-78.399012686852075
 31
0.0
  0
LINE
  8
DETAIL
  6
CONTINUOUS
 62
     5
 10
-72.414944390880237
 20
-77.47419313476621
 30
0.0
 11
-72.114478884461505
 21
-77.173727628246525
 31
0.0
  0
LINE
  8
DETAIL
  6
CONTINUOUS
 62
     5
 10
-71.854855964463468
 20
-77.433350548244562
 30
0.0
 11
-72.155321470883109
 21
-77.733816054663293
 31
0.0
  0
LINE
  8
DETAIL
  6
CONTINUOUS
 62
     5
 10
-71.23740592744366
 20
-77.433350548244562
 30
0.0
 11
-71.024952819587497
 21
-77.521362946806221
 31
0.0
  0
LINE
  8
DETAIL
  6
CONTINUOUS
 62
     5
 10
-70.977783007446533
 20
-77.173727628246525
 30
0.0
 11
-70.765320422446393
 21
-77.261730549666026
 31
0.0
  0
LINE
  8
DETAIL
  6
CONTINUOUS
 62
     5
 10
-69.911002187045824
 20
-78.635313579347439
 30
0.0
 11
-69.91316174531687
 21
-78.824819829610078
 31
0.0
  0
LINE
  8
DETAIL
  6
CONTINUOUS
 62
     5
 10
-69.434542830524265
 20
-79.139350184392242
 30
0.0
 11
-69.913592049540171
 21
-79.200596829819006
 31
0.0
  0
LINE
  8
DETAIL
  6
CONTINUOUS
 62
     5
 10
-70.484948071133886
 20
-76.521462675839757
 30
0.0
 11
-70.977783007446533
 21
-77.173727628246525
 31
0.0
  0
LINE
  8
DETAIL
  6
CONTINUOUS
 62
     5
 10
-68.781043197907138
 20
-75.679071370379916
 30
0.0
 11
-69.286721409778011
 21
-76.060160970088873
 31
0.0
  0
LINE
  8
DETAIL
  6
CONTINUOUS
 62
     5
 10
-67.992446593186514
 20
-75.679072255384654
 30
0.0
 11
-67.686941186824015
 21
-75.833096087731974
 31
0.0
  0
LINE
  8
DETAIL
  6
CONTINUOUS
 62
     5
 10
-67.698523683344547
 20
-78.208536475067831
 30
0.0
 11
-67.993729020686487
 21
-78.519488798232942
 31
0.0
  0
LINE
  8
DETAIL
  6
CONTINUOUS
 62
     5
 10
-68.779760255690462
 20
-78.519488653603275
 30
0.0
 11
-69.283097059347028
 21
-77.986296675423091
 31
0.0
  0
LINE
  8
DETAIL
  6
CONTINUOUS
 62
     5
 10
-67.507154245440915
 20
-78.224165376455403
 30
0.0
 11
-67.519506429674379
 21
-79.139350991162701
 31
0.0
  0
LINE
  8
DETAIL
  6
CONTINUOUS
 62
     5
 10
-67.507154245440915
 20
-70.318164528871876
 30
0.0
 11
-67.807596870740099
 21
-70.017687579388621
 31
0.0
  0
LINE
  8
DETAIL
  6
CONTINUOUS
 62
     5
 10
-68.970186575481648
 20
-70.017687579388621
 30
0.0
 11
-69.47096241951408
 21
-70.509817369621942
 31
0.0
  0
LINE
  8
DETAIL
  6
CONTINUOUS
 62
     5
 10
-69.37415162664206
 20
-70.860753837202083
 30
0.0
 11
-68.879191051798671
 21
-70.19110363875825
 31
0.0
  0
LINE
  8
DETAIL
  6
CONTINUOUS
 62
     5
 10
-67.894298296893112
 20
-70.19110363875825
 30
0.0
 11
-67.600423428907789
 21
-70.682990589431938
 31
0.0
  0
LINE
  8
DETAIL
  6
CONTINUOUS
 62
     5
 10
-70.261430925105969
 20
-70.245690061500227
 30
0.0
 11
-69.47096241951408
 21
-70.509817369621942
 31
0.0
  0
LINE
  8
DETAIL
  6
CONTINUOUS
 62
     5
 10
-75.96769563286864
 20
-60.862599242552278
 30
0.0
 11
-75.268718522957101
 21
-61.480618581125782
 31
0.0
  0
LINE
  8
DETAIL
  6
CONTINUOUS
 62
     5
 10
-72.486333746752393
 20
-59.874207843742617
 30
0.0
 11
-72.091179522134667
 21
-59.7126597982965
 31
0.0
  0
LINE
  8
DETAIL
  6
CONTINUOUS
 62
     5
 10
-74.413528345921918
 20
-55.779147102465693
 30
0.0
 11
-73.587272554697051
 21
-55.258187716255179
 31
0.0
  0
LINE
  8
DETAIL
  6
CONTINUOUS
 62
     5
 10
-67.32817978090327
 20
-37.061880626207767
 30
0.0
 11
-66.077505618019245
 21
-37.073368007351753
 31
0.0
  0
LINE
  8
DETAIL
  6
CONTINUOUS
 62
     5
 10
-61.487608856004158
 20
-37.27367936087694
 30
0.0
 11
-61.163643355996207
 21
-36.975429849811462
 31
0.0
  0
LINE
  8
DETAIL
  6
CONTINUOUS
 62
     5
 10
-61.163643335964593
 20
-35.339332666871996
 30
0.0
 11
-61.69330845129673
 21
-34.840899303063452
 31
0.0
  0
LINE
  8
DETAIL
  6
CONTINUOUS
 62
     5
 10
-66.273933543571843
 20
-35.040771850971851
 30
0.0
 11
-67.083648965534053
 21
-35.04996379846898
 31
0.0
  0
LINE
  8
DETAIL
  6
CONTINUOUS
 62
     5
 10
-68.103772330559991
 20
-35.051311663137767
 30
0.0
 11
-68.604570820837694
 21
-34.550614788854553
 31
0.0
  0
LINE
  8
DETAIL
  6
CONTINUOUS
 62
     5
 10
-68.205042635524592
 20
-34.151007633891822
 30
0.0
 11
-67.704266791492159
 21
-34.6517834779238
 31
0.0
  0
LINE
  8
DETAIL
  6
CONTINUOUS
 62
     5
 10
-61.29079502129764
 20
-34.6517834779238
 30
0.0
 11
-60.789915642624813
 21
-35.152458870809369
 31
0.0
  0
LINE
  8
DETAIL
  6
CONTINUOUS
 62
     5
 10
-60.789917099136012
 20
-37.162278747052369
 30
0.0
 11
-61.090465594485181
 21
-37.462685602074089
 31
0.0
  0
LINE
  8
DETAIL
  6
CONTINUOUS
 62
     5
 10
-68.205042635524592
 20
-17.931663297308209
 30
0.0
 11
-67.704266791492159
 21
-17.430887453276231
 31
0.0
  0
LINE
  8
DETAIL
  6
CONTINUOUS
 62
     5
 10
-68.604570820837694
 20
-17.53206246508125
 30
0.0
 11
-67.919479320893174
 21
-16.917155444237778
 31
0.0
  0
LINE
  8
DETAIL
  6
CONTINUOUS
 62
     5
 10
-67.919479320893174
 20
-16.917155444237778
 30
0.0
 11
-66.273933543571843
 21
-17.041899080127681
 31
0.0
  0
LINE
  8
DETAIL
  6
CONTINUOUS
 62
     5
 10
-61.69330845129673
 20
-17.24177162803608
 30
0.0
 11
-61.202238637266532
 21
-16.740995784003641
 31
0.0
  0
LINE
  8
DETAIL
  6
CONTINUOUS
 62
     5
 10
-61.29079502820889
 20
-17.430887453276231
 30
0.0
 11
-60.789915642624813
 21
-16.930212066800781
 31
0.0
  0
LINE
  8
DETAIL
  6
CONTINUOUS
 62
     5
 10
-60.789915642624813
 20
-15.12066235880911
 30
0.0
 11
-61.29079502129764
 21
-14.619986965923539
 31
0.0
  0
LINE
  8
DETAIL
  6
CONTINUOUS
 62
     5
 10
-61.163643335964593
 20
-15.307536154872199
 30
0.0
 11
-61.69330845129673
 21
-14.809102791063649
 31
0.0
  0
LINE
  8
DETAIL
  6
CONTINUOUS
 62
     5
 10
-66.273933543571843
 20
-15.00897533897205
 30
0.0
 11
-67.122300839833883
 21
-15.018327084216709
 31
0.0
  0
LINE
  8
DETAIL
  6
CONTINUOUS
 62
     5
 10
-69.739829842128643
 20
-15.01951515113751
 30
0.0
 11
-70.257487177988082
 21
-15.52029099526999
 31
0.0
  0
LINE
  8
DETAIL
  6
CONTINUOUS
 62
     5
 10
-70.038785409217894
 20
-14.619986965923539
 30
0.0
 11
-70.612082704799946
 21
-15.295400281374899
 31
0.0
  0
ARC
  8
DETAIL
  6
CONTINUOUS
 62
     5
 10
-77.303791785435237
 20
-28.939397193020572
 30
0.0
 40
3.0647892983876761
 50
206.06227455452091
 51
327.12344729421989
  0
LINE
  8
DETAIL
  6
CONTINUOUS
 62
     5
 10
-80.096555312870919
 20
-34.524237316738443
 30
0.0
 11
-79.595779468839396
 21
-35.025013160870913
 31
0.0
  0
LINE
  8
DETAIL
  6
CONTINUOUS
 62
     5
 10
-82.130365699200524
 20
-35.125493554006432
 30
0.0
 11
-80.127186048000226
 21
-37.129054623532738
 31
0.0
  0
LINE
  8
DETAIL
  6
CONTINUOUS
 62
     5
 10
-80.581162582681941
 20
-4.1344504475596304
 30
0.0
 11
-80.666878548221689
 21
-3.8553272173589899
 31
0.0
  0
LINE
  8
DETAIL
  6
CONTINUOUS
 62
     5
 10
-80.662688175233711
 20
-0.1474781328447534
 30
0.0
 11
-80.492050393831164
 21
2.3426940359845498
 31
0.0
  0
ARC
  8
DETAIL
  6
CONTINUOUS
 62
     5
 10
-72.615262356000244
 20
33.052464244799921
 30
0.0
 40
1.99884741823773
 50
0.0
 51
90.0
  0
ARC
  8
DETAIL
  6
CONTINUOUS
 62
     5
 10
-80.127186048000226
 20
7.6837693381489771
 30
0.0
 40
2.0075118840622959
 50
0.0
 51
44.999999999990777
  0
LINE
  8
DETAIL
  6
CONTINUOUS
 62
     5
 10
-66.273933543571843
 20
35.040771850971851
 30
0.0
 11
-61.69330845129673
 21
34.840899303063452
 31
0.0
  0
LINE
  8
DETAIL
  6
CONTINUOUS
 62
     5
 10
-68.103772330559991
 20
35.051311663137767
 30
0.0
 11
-67.083648965534053
 21
35.04996379846898
 31
0.0
  0
LINE
  8
DETAIL
  6
CONTINUOUS
 62
     5
 10
-79.622055324959661
 20
35.051311663137767
 30
0.0
 11
-72.615262356000244
 21
35.051311663137767
 31
0.0
  0
LINE
  8
DETAIL
  6
CONTINUOUS
 62
     5
 10
-70.612082704799946
 20
37.130504040595497
 30
0.0
 11
-80.127186048000226
 21
37.129054623532738
 31
0.0
  0
LINE
  8
DETAIL
  6
CONTINUOUS
 62
     5
 10
-61.69330845129673
 20
17.24177162803608
 30
0.0
 11
-66.273933543571843
 21
17.041899080127681
 31
0.0
  0
LINE
  8
DETAIL
  6
CONTINUOUS
 62
     5
 10
-80.122853815238273
 20
11.346437348150181
 30
0.0
 11
-79.537404960961908
 21
9.9330387840886942
 31
0.0
  0
LINE
  8
DETAIL
  6
CONTINUOUS
 62
     5
 10
-78.707660781511663
 20
9.1032946046379948
 30
0.0
 11
-79.537404960961908
 21
9.9330387840886942
 31
0.0
  0
LINE
  8
DETAIL
  6
CONTINUOUS
 62
     5
 10
-70.612082704799946
 20
16.472513771550439
 30
0.0
 11
-74.764471474174684
 21
30.592877262399721
 31
0.0
  0
LINE
  8
DETAIL
  6
CONTINUOUS
 62
     5
 10
-68.604570820837694
 20
17.53206246508125
 30
0.0
 11
-68.604570820837694
 21
34.550614788854553
 31
0.0
  0
LINE
  8
DETAIL
  6
CONTINUOUS
 62
     5
 10
-70.616414937662853
 20
33.052464244799921
 30
0.0
 11
-70.616414937662853
 21
16.72592620683281
 31
0.0
  0
LINE
  8
DETAIL
  6
CONTINUOUS
 62
     5
 10
-78.053459433759713
 20
-7.6837693382494763
 30
0.0
 11
-78.053459433759713
 21
7.6837693381489771
 31
0.0
  0
LINE
  8
DETAIL
  6
CONTINUOUS
 62
     5
 10
-78.119674164037974
 20
-7.6837693382494763
 30
0.0
 11
-78.119674164037974
 21
7.6837693381489771
 31
0.0
  0
LINE
  8
DETAIL
  6
CONTINUOUS
 62
     5
 10
-80.05694427188439
 20
30.047694767999928
 30
0.0
 11
-80.05694427188439
 21
11.346437348150181
 31
0.0
  0
LINE
  8
DETAIL
  6
CONTINUOUS
 62
     5
 10
-80.122853815238273
 20
11.346437348150181
 30
0.0
 11
-80.122853815238273
 21
34.550614788854553
 31
0.0
  0
ARC
  8
DETAIL
  6
CONTINUOUS
 62
     5
 10
-72.615262356000244
 20
33.052464244799921
 30
0.0
 40
1.972548915870455
 50
0.0
 51
90.0
  0
ARC
  8
DETAIL
  6
CONTINUOUS
 62
     5
 10
-80.127186048000226
 20
10.51669316879952
 30
0.0
 40
2.0031796511999969
 50
180.0
 51
225.0000000020911
  0
ARC
  8
DETAIL
  6
CONTINUOUS
 62
     5
 10
-82.130365699200524
 20
6.8540251587983221
 30
0.0
 40
2.0031796511999969
 50
0.0
 51
45.000000000009223
  0
LINE
  8
DETAIL
  6
CONTINUOUS
 62
     5
 10
-61.090465594485181
 20
37.462685602074089
 30
0.0
 11
-70.612082704799946
 21
37.462683965276028
 31
0.0
  0
LINE
  8
DETAIL
  6
CONTINUOUS
 62
     5
 10
-61.487608856004158
 20
37.27367936087694
 30
0.0
 11
-66.077505618019245
 21
37.073368007351753
 31
0.0
  0
LINE
  8
DETAIL
  6
CONTINUOUS
 62
     5
 10
-67.32817978090327
 20
37.061880626207767
 30
0.0
 11
-80.127186048000226
 21
37.061422886837143
 31
0.0
  0
LINE
  8
DETAIL
  6
CONTINUOUS
 62
     5
 10
-79.595779468839396
 20
35.025013160870913
 30
0.0
 11
-72.615262356000244
 21
35.025013160870913
 31
0.0
  0
LINE
  8
DETAIL
  6
CONTINUOUS
 62
     5
 10
-67.704266791492159
 20
34.6517834779238
 30
0.0
 11
-61.29079502129764
 21
34.6517834779238
 31
0.0
  0
LINE
  8
DETAIL
  6
CONTINUOUS
 62
     5
 10
-69.739829842128643
 20
15.01951515113751
 30
0.0
 11
-67.122300839833883
 21
15.018327084216709
 31
0.0
  0
LINE
  8
DETAIL
  6
CONTINUOUS
 62
     5
 10
-61.29079502820889
 20
17.430887453276231
 30
0.0
 11
-67.704266791492159
 21
17.430887453276231
 31
0.0
  0
LINE
  8
DETAIL
  6
CONTINUOUS
 62
     5
 10
-66.273933543571843
 20
15.00897533897205
 30
0.0
 11
-61.69330845129673
 21
14.809102791063649
 31
0.0
  0
LINE
  8
DETAIL
  6
CONTINUOUS
 62
     5
 10
-70.038785409217894
 20
14.619986965923539
 30
0.0
 11
-61.29079502129764
 21
14.619986965923539
 31
0.0
  0
LINE
  8
DETAIL
  6
CONTINUOUS
 62
     5
 10
-70.616996721229157
 20
37.467097449007717
 30
0.0
 11
-70.612082704799946
 21
37.462683965276028
 31
0.0
  0
LINE
  8
DETAIL
  6
CONTINUOUS
 62
     5
 10
-70.628021265811299
 20
37.478603457519057
 30
0.0
 11
-70.616996721229157
 21
37.467097449007717
 31
0.0
  0
LINE
  8
DETAIL
  6
CONTINUOUS
 62
     5
 10
-81.543647963325498
 20
9.1002312534747034
 30
0.0
 11
-80.713903783975297
 21
8.2704870741240484
 31
0.0
  0
LINE
  8
DETAIL
  6
CONTINUOUS
 62
     5
 10
-70.740801054102235
 20
17.046564093813231
 30
0.0
 11
-74.72985276983411
 21
30.603059234264951
 31
0.0
  0
LINE
  8
DETAIL
  6
CONTINUOUS
 62
     5
 10
-70.257487177988082
 20
15.52029099526999
 30
0.0
 11
-70.545658964761174
 21
16.49315962906303
 31
0.0
  0
LINE
  8
DETAIL
  6
CONTINUOUS
 62
     5
 10
-60.789915642624813
 20
35.152458870809369
 30
0.0
 11
-60.789917099136012
 21
37.162278747052369
 31
0.0
  0
LINE
  8
DETAIL
  6
CONTINUOUS
 62
     5
 10
-60.789915642624813
 20
15.12066235880911
 30
0.0
 11
-60.789915642624813
 21
16.930212066800781
 31
0.0
  0
LINE
  8
DETAIL
  6
CONTINUOUS
 62
     5
 10
-61.163643335964593
 20
16.74333826432758
 30
0.0
 11
-61.163643335964593
 21
15.307536154872199
 31
0.0
  0
LINE
  8
DETAIL
  6
CONTINUOUS
 62
     5
 10
-61.163643355996207
 20
36.975429849811462
 30
0.0
 11
-61.163643335964593
 21
35.339332666871996
 31
0.0
  0
LINE
  8
DETAIL
  6
CONTINUOUS
 62
     5
 10
-61.202238637266532
 20
16.740995784003641
 30
0.0
 11
-61.202238637266532
 21
15.30987863519613
 31
0.0
  0
LINE
  8
DETAIL
  6
CONTINUOUS
 62
     5
 10
-68.205042635524592
 20
17.931663297308209
 30
0.0
 11
-68.205042635524592
 21
34.151007633891822
 31
0.0
  0
LINE
  8
DETAIL
  6
CONTINUOUS
 62
     5
 10
-70.612082704799946
 20
15.295400281374899
 30
0.0
 11
-70.612082704799946
 21
16.472513771550439
 31
0.0
  0
LINE
  8
DETAIL
  6
CONTINUOUS
 62
     5
 10
-70.612082704799946
 20
37.462683965276028
 30
0.0
 11
-70.612082704799946
 21
37.130504040595497
 31
0.0
  0
LINE
  8
DETAIL
  6
CONTINUOUS
 62
     5
 10
-70.642713440030207
 20
33.052464244799921
 30
0.0
 11
-70.642713440030207
 21
16.72213898506789
 31
0.0
  0
LINE
  8
DETAIL
  6
CONTINUOUS
 62
     5
 10
-80.096555312870919
 20
30.047694767999928
 30
0.0
 11
-80.096555312870919
 21
34.524237316738443
 31
0.0
  0
LINE
  8
DETAIL
  6
CONTINUOUS
 62
     5
 10
-82.130365699200524
 20
35.125493554006432
 30
0.0
 11
-82.130365699200524
 21
10.51669316879952
 31
0.0
  0
LINE
  8
DETAIL
  6
CONTINUOUS
 62
     5
 10
-67.32817978090327
 20
37.061880626207767
 30
0.0
 11
-66.077505618019245
 21
37.073368007351753
 31
0.0
  0
LINE
  8
DETAIL
  6
CONTINUOUS
 62
     5
 10
-61.487608856004158
 20
37.27367936087694
 30
0.0
 11
-61.163643355996207
 21
36.975429849811462
 31
0.0
  0
LINE
  8
DETAIL
  6
CONTINUOUS
 62
     5
 10
-61.163643335964593
 20
35.339332666871996
 30
0.0
 11
-61.69330845129673
 21
34.840899303063452
 31
0.0
  0
LINE
  8
DETAIL
  6
CONTINUOUS
 62
     5
 10
-66.273933543571843
 20
35.040771850971851
 30
0.0
 11
-67.083648965534053
 21
35.04996379846898
 31
0.0
  0
LINE
  8
DETAIL
  6
CONTINUOUS
 62
     5
 10
-68.103772330559991
 20
35.051311663137767
 30
0.0
 11
-68.604570820837694
 21
34.550614788854553
 31
0.0
  0
LINE
  8
DETAIL
  6
CONTINUOUS
 62
     5
 10
-68.205042635524592
 20
34.151007633891822
 30
0.0
 11
-67.704266791492159
 21
34.6517834779238
 31
0.0
  0
LINE
  8
DETAIL
  6
CONTINUOUS
 62
     5
 10
-61.29079502129764
 20
34.6517834779238
 30
0.0
 11
-60.789915642624813
 21
35.152458870809369
 31
0.0
  0
LINE
  8
DETAIL
  6
CONTINUOUS
 62
     5
 10
-60.789917099136012
 20
37.162278747052369
 30
0.0
 11
-61.090465594485181
 21
37.462685602074089
 31
0.0
  0
LINE
  8
DETAIL
  6
CONTINUOUS
 62
     5
 10
-68.205042635524592
 20
17.931663297308209
 30
0.0
 11
-67.704266791492159
 21
17.430887453276231
 31
0.0
  0
LINE
  8
DETAIL
  6
CONTINUOUS
 62
     5
 10
-68.604570820837694
 20
17.53206246508125
 30
0.0
 11
-67.919479320893174
 21
16.917155444237778
 31
0.0
  0
LINE
  8
DETAIL
  6
CONTINUOUS
 62
     5
 10
-67.919479320893174
 20
16.917155444237778
 30
0.0
 11
-66.273933543571843
 21
17.041899080127681
 31
0.0
  0
LINE
  8
DETAIL
  6
CONTINUOUS
 62
     5
 10
-61.69330845129673
 20
17.24177162803608
 30
0.0
 11
-61.202238637266532
 21
16.740995784003641
 31
0.0
  0
LINE
  8
DETAIL
  6
CONTINUOUS
 62
     5
 10
-61.29079502820889
 20
17.430887453276231
 30
0.0
 11
-60.789915642624813
 21
16.930212066800781
 31
0.0
  0
LINE
  8
DETAIL
  6
CONTINUOUS
 62
     5
 10
-60.789915642624813
 20
15.12066235880911
 30
0.0
 11
-61.29079502129764
 21
14.619986965923539
 31
0.0
  0
LINE
  8
DETAIL
  6
CONTINUOUS
 62
     5
 10
-61.163643335964593
 20
15.307536154872199
 30
0.0
 11
-61.69330845129673
 21
14.809102791063649
 31
0.0
  0
LINE
  8
DETAIL
  6
CONTINUOUS
 62
     5
 10
-66.273933543571843
 20
15.00897533897205
 30
0.0
 11
-67.122300839833883
 21
15.018327084216709
 31
0.0
  0
LINE
  8
DETAIL
  6
CONTINUOUS
 62
     5
 10
-69.739829842128643
 20
15.01951515113751
 30
0.0
 11
-70.257487177988082
 21
15.52029099526999
 31
0.0
  0
LINE
  8
DETAIL
  6
CONTINUOUS
 62
     5
 10
-70.038785409217894
 20
14.619986965923539
 30
0.0
 11
-70.612082704799946
 21
15.295400281374899
 31
0.0
  0
ARC
  8
DETAIL
  6
CONTINUOUS
 62
     5
 10
-77.303791785435237
 20
28.939397193020799
 30
0.0
 40
3.0647892983876761
 50
32.876552705780057
 51
153.93772544547909
  0
LINE
  8
DETAIL
  6
CONTINUOUS
 62
     5
 10
-80.096555312870919
 20
34.524237316738443
 30
0.0
 11
-79.595779468839396
 21
35.025013160870913
 31
0.0
  0
LINE
  8
DETAIL
  6
CONTINUOUS
 62
     5
 10
-82.130365699200524
 20
35.125493554006432
 30
0.0
 11
-80.127186048000226
 21
37.129054623532738
 31
0.0
  0
LINE
  8
DETAIL
  6
CONTINUOUS
 62
     5
 10
-53.294406345126959
 20
37.613822525324849
 30
0.0
 11
-51.915445446242423
 21
38.163872454714237
 31
0.0
  0
LINE
  8
DETAIL
  6
CONTINUOUS
 62
     5
 10
-35.962926382566373
 20
47.984820924415999
 30
0.0
 11
-36.672363981932897
 21
47.421756058791289
 31
0.0
  0
LINE
  8
DETAIL
  6
CONTINUOUS
 62
     5
 10
-35.345743474760638
 20
49.88823969736768
 30
0.0
 11
-35.10797532087895
 21
50.757034990231197
 31
0.0
  0
LINE
  8
DETAIL
  6
CONTINUOUS
 62
     5
 10
-33.229689462354138
 20
50.391962109293218
 30
0.0
 11
-32.516981346589091
 21
49.795882910749697
 31
0.0
  0
LINE
  8
DETAIL
  6
CONTINUOUS
 62
     5
 10
-31.20703847335972
 20
62.76288410554298
 30
0.0
 11
-26.449726995519999
 21
67.689224352898236
 31
0.0
  0
LINE
  8
DETAIL
  6
CONTINUOUS
 62
     5
 10
-25.770023689558229
 20
65.934491434610663
 30
0.0
 11
-29.41541550752299
 21
62.13109026637585
 31
0.0
  0
LINE
  8
DETAIL
  6
CONTINUOUS
 62
     5
 10
-23.105084738653431
 20
66.90444988876925
 30
0.0
 11
-22.474154977631091
 21
66.282354059280806
 31
0.0
  0
ARC
  8
DETAIL
  6
CONTINUOUS
 62
     5
 10
-17.15280148490092
 20
59.766115064967828
 30
0.0
 40
10.71328918820161
 50
65.359896675982597
 51
102.6401033233424
  0
LINE
  8
DETAIL
  6
CONTINUOUS
 62
     5
 10
-10.59293006617122
 20
65.033587000932584
 30
0.0
 11
-9.8272596766937568
 21
65.477946380302001
 31
0.0
  0
LINE
  8
DETAIL
  6
CONTINUOUS
 62
     5
 10
-37.955903088710329
 20
-78.966070586528531
 30
0.0
 11
-37.455127244679034
 21
-78.465351947297677
 31
0.0
  0
LINE
  8
DETAIL
  6
CONTINUOUS
 62
     5
 10
-37.395133604449477
 20
-75.875824261851449
 30
0.0
 11
-37.09041899812496
 21
-75.679072255384654
 31
0.0
  0
LINE
  8
DETAIL
  6
CONTINUOUS
 62
     5
 10
-36.02563797190146
 20
-75.679071657635632
 30
0.0
 11
-35.72092531957901
 21
-75.87589642840112
 31
0.0
  0
LINE
  8
DETAIL
  6
CONTINUOUS
 62
     5
 10
-35.731715360833959
 20
-78.208536475067831
 30
0.0
 11
-36.026920629467213
 21
-78.519488935651225
 31
0.0
  0
LINE
  8
DETAIL
  6
CONTINUOUS
 62
     5
 10
-37.089136585548893
 20
-78.519488827779696
 30
0.0
 11
-37.384341908066972
 21
-78.208536475067831
 31
0.0
  0
LINE
  8
DETAIL
  6
CONTINUOUS
 62
     5
 10
-35.660930024221898
 20
-78.465351947297677
 30
0.0
 11
-35.160154180090103
 21
-78.966070586528531
 31
0.0
  0
LINE
  8
DETAIL
  6
CONTINUOUS
 62
     5
 10
-35.660930024221898
 20
-72.308953091070634
 30
0.0
 11
-35.958222056279958
 21
-71.854056734744063
 31
0.0
  0
LINE
  8
DETAIL
  6
CONTINUOUS
 62
     5
 10
-37.157852277208121
 20
-71.854056734744063
 30
0.0
 11
-37.455127244679034
 21
-72.30896394570027
 31
0.0
  0
LINE
  8
DETAIL
  6
CONTINUOUS
 62
     5
 10
14.052570650532971
 20
-78.519488935651339
 30
0.0
 11
12.9903546944513
 21
-78.51948882777981
 31
0.0
  0
LINE
  8
DETAIL
  6
CONTINUOUS
 62
     5
 10
14.03759110767419
 20
-75.711598535816961
 30
0.0
 11
13.0053364939929
 21
-75.711603157052309
 31
0.0
  0
LINE
  8
DETAIL
  6
CONTINUOUS
 62
     5
 10
12.98907228187522
 20
-75.679072255384767
 30
0.0
 11
14.05385330809872
 21
-75.679071657635745
 31
0.0
  0
LINE
  8
DETAIL
  6
CONTINUOUS
 62
     5
 10
12.921639002792061
 20
-71.854056734744177
 30
0.0
 11
14.121269223720221
 21
-71.854056734744177
 31
0.0
  0
LINE
  8
DETAIL
  6
CONTINUOUS
 62
     5
 10
14.33654381342126
 20
-76.909270466147177
 30
0.0
 11
14.347775919166221
 21
-78.208536475067945
 31
0.0
  0
LINE
  8
DETAIL
  6
CONTINUOUS
 62
     5
 10
14.336337259959461
 20
-76.212320605492664
 30
0.0
 11
14.33654381342126
 21
-76.909270466147177
 31
0.0
  0
LINE
  8
DETAIL
  6
CONTINUOUS
 62
     5
 10
14.41856125577829
 20
-72.308953091070748
 30
0.0
 11
14.41856125577829
 21
-78.465351947297791
 31
0.0
  0
LINE
  8
DETAIL
  6
CONTINUOUS
 62
     5
 10
14.41856125577829
 20
-72.308953091070748
 30
0.0
 11
14.358565960421171
 21
-75.875896428401234
 31
0.0
  0
LINE
  8
DETAIL
  6
CONTINUOUS
 62
     5
 10
12.62436403532115
 20
-72.308963945700384
 30
0.0
 11
12.6843576755507
 21
-75.875824261851562
 31
0.0
  0
LINE
  8
DETAIL
  6
CONTINUOUS
 62
     5
 10
12.706588031139971
 20
-76.212320605492664
 30
0.0
 11
12.706353805854411
 21
-76.914978709754109
 31
0.0
  0
LINE
  8
DETAIL
  6
CONTINUOUS
 62
     5
 10
12.62436403532115
 20
-78.465351947297791
 30
0.0
 11
12.62436403532115
 21
-72.308963945700384
 31
0.0
  0
LINE
  8
DETAIL
  6
CONTINUOUS
 62
     5
 10
12.706353805854411
 20
-76.914978709754109
 30
0.0
 11
12.69514937193321
 21
-78.208536475067945
 31
0.0
  0
LINE
  8
DETAIL
  6
CONTINUOUS
 62
     5
 10
12.123588191289629
 20
-78.966070586528645
 30
0.0
 11
12.62436403532115
 21
-78.465351947297791
 31
0.0
  0
LINE
  8
DETAIL
  6
CONTINUOUS
 62
     5
 10
12.6843576755507
 20
-75.875824261851562
 30
0.0
 11
12.98907228187522
 21
-75.679072255384767
 31
0.0
  0
LINE
  8
DETAIL
  6
CONTINUOUS
 62
     5
 10
14.05385330809872
 20
-75.679071657635745
 30
0.0
 11
14.358565960421171
 21
-75.875896428401234
 31
0.0
  0
LINE
  8
DETAIL
  6
CONTINUOUS
 62
     5
 10
14.347775919166221
 20
-78.208536475067945
 30
0.0
 11
14.052570650532971
 21
-78.519488935651339
 31
0.0
  0
LINE
  8
DETAIL
  6
CONTINUOUS
 62
     5
 10
12.9903546944513
 20
-78.51948882777981
 30
0.0
 11
12.69514937193321
 21
-78.208536475067945
 31
0.0
  0
LINE
  8
DETAIL
  6
CONTINUOUS
 62
     5
 10
14.41856125577829
 20
-78.465351947297791
 30
0.0
 11
14.919337099910081
 21
-78.966070586528645
 31
0.0
  0
LINE
  8
DETAIL
  6
CONTINUOUS
 62
     5
 10
14.41856125577829
 20
-72.308953091070748
 30
0.0
 11
14.121269223720221
 21
-71.854056734744177
 31
0.0
  0
LINE
  8
DETAIL
  6
CONTINUOUS
 62
     5
 10
12.921639002792061
 20
-71.854056734744177
 30
0.0
 11
12.62436403532115
 21
-72.308963945700384
 31
0.0
  0
ARC
  8
DETAIL
  6
CONTINUOUS
 62
     5
 10
11.40642962189804
 20
-28.619905445330009
 30
0.0
 40
87.088758960310443
 50
185.60761283877801
 51
214.71962925230571
  0
ARC
  8
DETAIL
  6
CONTINUOUS
 62
     5
 10
11.54175944066742
 20
-28.492865844538301
 30
0.0
 40
87.415983761685226
 50
185.67020677092319
 51
214.47460004444829
  0
ARC
  8
DETAIL
  6
CONTINUOUS
 62
     5
 10
-3.5731269467098632
 20
-35.26097502174207
 30
0.0
 40
72.750315581038109
 50
199.63969622483279
 51
205.07718333200981
  0
ARC
  8
DETAIL
  6
CONTINUOUS
 62
     5
 10
15.399466104171781
 20
-27.814359493122542
 30
0.0
 40
93.122518032335307
 50
185.7409518216478
 51
197.13994952407671
  0
ARC
  8
DETAIL
  6
CONTINUOUS
 62
     5
 10
16.26330274396901
 20
-27.527513207996439
 30
0.0
 40
96.020480328708516
 50
185.73894442051429
 51
196.45673980975701
  0
ARC
  8
DETAIL
  6
CONTINUOUS
 62
     5
 10
12.18133394741767
 20
-27.432509229679908
 30
0.0
 40
91.932067536545276
 50
153.40062834071739
 51
182.1409629326584
  0
ARC
  8
DETAIL
  6
CONTINUOUS
 62
     5
 10
12.74202763338371
 20
-27.64551310989691
 30
0.0
 40
90.531777218466587
 50
152.78018252792191
 51
182.74443255555269
  0
ARC
  8
DETAIL
  6
CONTINUOUS
 62
     5
 10
7.347404211551293
 20
-26.35684672985872
 30
0.0
 40
83.178453440114097
 50
151.09110199652639
 51
183.56732591509959
  0
ARC
  8
DETAIL
  6
CONTINUOUS
 62
     5
 10
12.4213469051258
 20
-27.49543821121415
 30
0.0
 40
88.36410260844454
 50
152.16534948151329
 51
182.80125862083139
  0
ARC
  8
DETAIL
  6
CONTINUOUS
 62
     5
 10
7.1020074337975529
 20
-23.984821062442279
 30
0.0
 40
85.70600825109733
 50
119.65307184529679
 51
133.5196611734421
  0
ARC
  8
DETAIL
  6
CONTINUOUS
 62
     5
 10
4.1542847593550496
 20
-19.857624614123779
 30
0.0
 40
79.216190371360938
 50
45.499032648264517
 51
151.61338187955499
  0
ARC
  8
DETAIL
  6
CONTINUOUS
 62
     5
 10
3.8281990817795299
 20
-18.91105910019451
 30
0.0
 40
76.579611084692303
 50
34.208303455166792
 51
150.72059524566609
  0
ARC
  8
DETAIL
  6
CONTINUOUS
 62
     5
 10
5.7705843347330301
 20
-15.82049667029924
 30
0.0
 40
77.214691652543294
 50
43.970746137097713
 51
93.776105467006502
  0
ARC
  8
DETAIL
  6
CONTINUOUS
 62
     5
 10
-2.1750366285612022
 20
-17.758048268160788
 30
0.0
 40
84.852992960907372
 50
18.26483254817359
 51
28.447569920286881
  0
ARC
  8
DETAIL
  6
CONTINUOUS
 62
     5
 10
13.849370982227811
 20
-10.24629719609084
 30
0.0
 40
65.229664936515917
 50
10.17348499687003
 51
27.617303869547712
  0
ARC
  8
DETAIL
  6
CONTINUOUS
 62
     5
 10
9.6478203422354909
 20
-11.27290246520761
 30
0.0
 40
67.599458059352173
 50
343.89970609137919
 51
25.073163368744179
  0
ARC
  8
DETAIL
  6
CONTINUOUS
 62
     5
 10
-1.7680888145966951
 20
-9.879114430781101
 30
0.0
 40
81.035130144746859
 50
344.20548372517572
 51
0.0870748446537829
  0
ARC
  8
DETAIL
  6
CONTINUOUS
 62
     5
 10
15.91131730365214
 20
-10.836375196854529
 30
0.0
 40
65.306848517579965
 50
1.772128631810687
 51
10.48752638945701
  0
ARC
  8
DETAIL
  6
CONTINUOUS
 62
     5
 10
-96.855334754500745
 20
13.723593468806479
 30
0.0
 40
180.84971440384169
 50
345.36160730490019
 51
348.02221397903571
  0
ARC
  8
DETAIL
  6
CONTINUOUS
 62
     5
 10
12.40065464815598
 20
-11.14095228104429
 30
0.0
 40
61.841821513820541
 50
347.87722244114468
 51
18.30582648731037
  0
ARC
  8
DETAIL
  6
CONTINUOUS
 62
     5
 10
16.748481200047991
 20
-12.4871416156825
 30
0.0
 40
64.22958061102851
 50
325.90726879913871
 51
337.43921936623411
  0
ARC
  8
DETAIL
  6
CONTINUOUS
 62
     5
 10
8.7871584639237881
 20
-7.9907313128605892
 30
0.0
 40
71.374923868494065
 50
329.19393504510549
 51
335.90465209072818
  0
ARC
  8
DETAIL
  6
CONTINUOUS
 62
     5
 10
-24.58273051829087
 20
9.9301217416350482
 30
0.0
 40
107.35937185545821
 50
325.10120602470749
 51
334.00167638540711
  0
LINE
  8
DETAIL
  6
CONTINUOUS
 62
     5
 10
-60.955619794366733
 20
-78.724960292160176
 30
0.0
 11
-58.710776810559878
 21
-78.956769883403012
 31
0.0
  0
LINE
  8
DETAIL
  6
CONTINUOUS
 62
     5
 10
69.694232123196343
 20
-48.851243769900627
 30
0.0
 11
69.763034541495472
 21
-49.472202367654631
 31
0.0
  0
LINE
  8
DETAIL
  6
CONTINUOUS
 62
     5
 10
68.219240868455472
 20
-51.06716896490866
 30
0.0
 11
69.002118647825228
 21
-50.97174798741537
 31
0.0
  0
LINE
  8
DETAIL
  6
CONTINUOUS
 62
     5
 10
72.213651624255363
 20
-54.18328096374546
 30
0.0
 11
71.922104750851759
 21
-55.034133344417228
 31
0.0
  0
LINE
  8
DETAIL
  6
CONTINUOUS
 62
     5
 10
72.750852027087831
 20
-67.022788928867044
 30
0.0
 11
73.127037213050926
 21
-67.688767695511274
 31
0.0
  0
LINE
  8
DETAIL
  6
CONTINUOUS
 62
     5
 10
63.004351331769612
 20
-78.733549141257868
 30
0.0
 11
63.505127175800908
 21
-78.232830501926969
 31
0.0
  0
LINE
  8
DETAIL
  6
CONTINUOUS
 62
     5
 10
63.681374339689462
 20
-75.875896427299836
 30
0.0
 11
63.986086992011913
 21
-75.679071657736245
 31
0.0
  0
LINE
  8
DETAIL
  6
CONTINUOUS
 62
     5
 10
64.774683751878683
 20
-75.679071657635745
 30
0.0
 11
65.280360195842832
 21
-76.060244305968467
 31
0.0
  0
LINE
  8
DETAIL
  6
CONTINUOUS
 62
     5
 10
65.276725736529215
 20
-77.986448610216598
 30
0.0
 11
64.773401169933777
 21
-78.519489086991257
 31
0.0
  0
LINE
  8
DETAIL
  6
CONTINUOUS
 62
     5
 10
63.987369595390867
 20
-78.519489043923045
 30
0.0
 11
63.692164380943503
 21
-78.208536475067945
 31
0.0
  0
LINE
  8
DETAIL
  6
CONTINUOUS
 62
     5
 10
66.522070419046713
 20
-76.564944326253794
 30
0.0
 11
66.877224985824569
 21
-76.800134764321797
 31
0.0
  0
LINE
  8
DETAIL
  6
CONTINUOUS
 62
     5
 10
66.877224985824569
 20
-76.800134764321797
 30
0.0
 11
66.915718007977148
 21
-77.408053291255897
 31
0.0
  0
LINE
  8
DETAIL
  6
CONTINUOUS
 62
     5
 10
66.35854253750199
 20
-75.485754730778922
 30
0.0
 11
65.482160877481647
 21
-75.154636282581237
 31
0.0
  0
LINE
  8
DETAIL
  6
CONTINUOUS
 62
     5
 10
66.758961119945297
 20
-77.26173054966614
 30
0.0
 11
66.971423704945437
 21
-77.173727628246638
 31
0.0
  0
LINE
  8
DETAIL
  6
CONTINUOUS
 62
     5
 10
68.108119582060453
 20
-77.173727628246638
 30
0.0
 11
68.408585088480095
 21
-77.474193134766324
 31
0.0
  0
LINE
  8
DETAIL
  6
CONTINUOUS
 62
     5
 10
68.408585088480095
 20
-78.183982576513813
 30
0.0
 11
68.40429099095013
 21
-78.684701215844711
 31
0.0
  0
LINE
  8
DETAIL
  6
CONTINUOUS
 62
     5
 10
68.148962168482058
 20
-77.733816054663407
 30
0.0
 11
67.848496662062416
 21
-77.433350548244675
 31
0.0
  0
LINE
  8
DETAIL
  6
CONTINUOUS
 62
     5
 10
67.231046624942564
 20
-77.433350548244675
 30
0.0
 11
67.018593517085492
 21
-77.521362946806335
 31
0.0
  0
LINE
  8
DETAIL
  6
CONTINUOUS
 62
     5
 10
68.148962168482285
 20
-79.195397754516421
 30
0.0
 11
67.925837079767916
 21
-79.200420115420116
 31
0.0
  0
LINE
  8
DETAIL
  6
CONTINUOUS
 62
     5
 10
65.907232747038506
 20
-79.200596829819119
 30
0.0
 11
65.371455796878763
 21
-79.139406975737643
 31
0.0
  0
LINE
  8
DETAIL
  6
CONTINUOUS
 62
     5
 10
65.503974594239253
 20
-78.522008662719259
 30
0.0
 11
65.269487213929779
 21
-77.994114489837102
 31
0.0
  0
LINE
  8
DETAIL
  6
CONTINUOUS
 62
     5
 10
25.642044734597221
 20
-78.932442237981491
 30
0.0
 11
26.491580612050711
 21
-78.733549141257868
 31
0.0
  0
LINE
  8
DETAIL
  6
CONTINUOUS
 62
     5
 10
25.729543411711798
 20
-78.099339913632889
 30
0.0
 11
26.491580612050711
 21
-78.733549141257868
 31
0.0
  0
LINE
  8
DETAIL
  6
CONTINUOUS
 62
     5
 10
26.115947334295239
 20
-77.901743275805416
 30
0.0
 11
26.491580612050711
 21
-78.733549141257868
 31
0.0
  0
LINE
  8
DETAIL
  6
CONTINUOUS
 62
     5
 10
-18.521698840445652
 20
-79.949597606600037
 30
0.0
 11
-14.84731225861105
 21
-79.967915888347761
 31
0.0
  0
LINE
  8
DETAIL
  6
CONTINUOUS
 62
     5
 10
-18.521698840445652
 20
-79.949597606600037
 30
0.0
 11
-14.530765404455449
 21
-79.949597606600037
 31
0.0
  0
LINE
  8
DETAIL
  6
CONTINUOUS
 62
     5
 10
-5.5010311076457583
 20
-79.949597606600037
 30
0.0
 11
-1.510097671654876
 21
-79.949597606600037
 31
0.0
  0
LINE
  8
DETAIL
  6
CONTINUOUS
 62
     5
 10
-2.5078310306780618
 20
-82.955594668247613
 30
0.0
 11
-5.1280605032343374
 21
-83.079507078472943
 31
0.0
  0
LINE
  8
DETAIL
  6
CONTINUOUS
 62
     5
 10
-1.082275832164896
 20
-82.140375547953226
 30
0.0
 11
-1.510097671654876
 21
-79.949597606600037
 31
0.0
  0
LINE
  8
DETAIL
  6
CONTINUOUS
 62
     5
 10
-18.949520679834901
 20
-82.140375547953226
 30
0.0
 11
-18.521698840445652
 21
-79.949597606600037
 31
0.0
  0
LINE
  8
DETAIL
  6
CONTINUOUS
 62
     5
 10
-17.523965481423151
 20
-82.955594668247613
 30
0.0
 11
-14.90373600886619
 21
-83.079507078472943
 31
0.0
  0
LINE
  8
DETAIL
  6
CONTINUOUS
 62
     5
 10
-14.65966896354098
 20
-82.118304389658533
 30
0.0
 11
-14.530765404455449
 21
-79.949597606600037
 31
0.0
  0
LINE
  8
DETAIL
  6
CONTINUOUS
 62
     5
 10
-5.3721275484595026
 20
-82.118304389658533
 30
0.0
 11
-5.5010311076457583
 21
-79.949597606600037
 31
0.0
  0
LINE
  8
DETAIL
  6
CONTINUOUS
 62
     5
 10
-6.9268523068815284
 20
-83.009270699523313
 30
0.0
 11
-5.3721275484595026
 21
-82.118304389658533
 31
0.0
  0
LINE
  8
DETAIL
  6
CONTINUOUS
 62
     5
 10
-13.10494420511918
 20
-83.009270699523313
 30
0.0
 11
-14.65966896354098
 21
-82.118304389658533
 31
0.0
  0
LINE
  8
DETAIL
  6
CONTINUOUS
 62
     5
 10
109.67408590320041
 20
-89.14149447839975
 30
0.0
 11
109.67408590320041
 21
-65.103338663999807
 31
0.0
  0
LINE
  8
DETAIL
  6
CONTINUOUS
 62
     5
 10
109.67408590320041
 20
-89.14149447839975
 30
0.0
 11
109.67408590320041
 21
-65.103338663999807
 31
0.0
  0
LINE
  8
DETAIL
  6
CONTINUOUS
 62
     5
 10
108.25885863222879
 20
52.461086135936277
 30
0.0
 11
110.0410046538907
 21
52.461086135936277
 31
0.0
  0
LINE
  8
DETAIL
  6
CONTINUOUS
 62
     5
 10
110.0410046538907
 20
27.66609991206337
 30
0.0
 11
108.25885863222879
 21
27.66609991206337
 31
0.0
  0
LINE
  8
DETAIL
  6
CONTINUOUS
 62
     5
 10
109.676831191302
 20
12.51987282000005
 30
0.0
 11
107.67090625200009
 21
12.51987282000005
 31
0.0
  0
LINE
  8
DETAIL
  6
CONTINUOUS
 62
     5
 10
109.67408590320041
 20
89.141494478399864
 30
0.0
 11
109.67408590320041
 21
65.103338663999466
 31
0.0
  0
LINE
  8
DETAIL
  6
CONTINUOUS
 62
     5
 10
111.6772655543998
 20
14.52030718309857
 30
0.0
 11
111.6772655543998
 21
27.543720204100051
 31
0.0
  0
LINE
  8
DETAIL
  6
CONTINUOUS
 62
     5
 10
111.6772655543998
 20
52.583465843899603
 30
0.0
 11
111.6772655543998
 21
64.10312148250091
 31
0.0
  0
ARC
  8
DETAIL
  6
CONTINUOUS
 62
     5
 10
33.928855342200222
 20
40.063593024000063
 30
0.0
 40
78.750000037800049
 50
350.85215748020539
 51
354.84737180510558
  0
ARC
  8
DETAIL
  6
CONTINUOUS
 62
     5
 10
33.928855342200222
 20
40.063593024000063
 30
0.0
 40
78.750000037799992
 50
5.1526281948943877
 51
9.1478425197946187
  0
ARC
  8
DETAIL
  6
CONTINUOUS
 62
     5
 10
-475.11753563225187
 20
40.063593024000284
 30
0.0
 40
587.5207318107914
 50
359.3102668278126
 51
0.6897331721873899
  0
ARC
  8
DETAIL
  6
CONTINUOUS
 62
     5
 10
33.928855342200222
 20
40.063593024000063
 30
0.0
 40
77.115219693080434
 50
350.74864887259662
 51
9.2513511274033675
  0
ARC
  8
DETAIL
  6
CONTINUOUS
 62
     5
 10
33.928855342200222
 20
40.063593024000063
 30
0.0
 40
75.356799458007544
 50
350.5308085382955
 51
9.4691914617044883
  0
ARC
  8
DETAIL
  6
CONTINUOUS
 62
     5
 10
107.67090625200009
 20
10.516693168800201
 30
0.0
 40
2.003179651200008
 50
90.0
 51
180.0
  0
LINE
  8
DETAIL
  6
CONTINUOUS
 62
     5
 10
111.6772655543998
 20
64.10312148250091
 30
0.0
 11
109.67408590320041
 21
65.103338663999466
 31
0.0
  0
LINE
  8
DETAIL
  6
CONTINUOUS
 62
     5
 10
111.6772655543998
 20
14.52030718309857
 30
0.0
 11
109.676831191302
 21
12.51987282000005
 31
0.0
  0
LINE
  8
DETAIL
  6
CONTINUOUS
 62
     5
 10
108.25885863222879
 20
-52.461086135936633
 30
0.0
 11
110.0410046538907
 21
-52.461086135936633
 31
0.0
  0
LINE
  8
DETAIL
  6
CONTINUOUS
 62
     5
 10
110.0410046538907
 20
-27.666099912063601
 30
0.0
 11
108.25885863222879
 21
-27.666099912063601
 31
0.0
  0
LINE
  8
DETAIL
  6
CONTINUOUS
 62
     5
 10
109.676831191302
 20
-12.519872820000501
 30
0.0
 11
107.67090625200009
 21
-12.519872820000501
 31
0.0
  0
LINE
  8
DETAIL
  6
CONTINUOUS
 62
     5
 10
111.6772655543998
 20
-14.520307183099019
 30
0.0
 11
111.6772655543998
 21
-27.543720204100509
 31
0.0
  0
LINE
  8
DETAIL
  6
CONTINUOUS
 62
     5
 10
111.6772655543998
 20
-52.583465843899937
 30
0.0
 11
111.6772655543998
 21
-64.103121482501251
 31
0.0
  0
ARC
  8
DETAIL
  6
CONTINUOUS
 62
     5
 10
33.928855342200222
 20
-40.06359302400017
 30
0.0
 40
78.750000037800049
 50
5.1526281948943877
 51
9.1478425197946187
  0
ARC
  8
DETAIL
  6
CONTINUOUS
 62
     5
 10
33.928855342200222
 20
-40.06359302400017
 30
0.0
 40
78.750000037799992
 50
350.85215748020539
 51
354.84737180510558
  0
ARC
  8
DETAIL
  6
CONTINUOUS
 62
     5
 10
-475.11753563225187
 20
-40.063593023999829
 30
0.0
 40
587.5207318107914
 50
359.3102668278126
 51
0.6897331721873899
  0
ARC
  8
DETAIL
  6
CONTINUOUS
 62
     5
 10
33.928855342200222
 20
-40.06359302400017
 30
0.0
 40
77.115219693080434
 50
350.74864887259662
 51
9.2513511274033675
  0
ARC
  8
DETAIL
  6
CONTINUOUS
 62
     5
 10
33.928855342200222
 20
-40.06359302400017
 30
0.0
 40
75.356799458007544
 50
350.5308085382955
 51
9.4691914617044883
  0
ARC
  8
DETAIL
  6
CONTINUOUS
 62
     5
 10
107.67090625200009
 20
-10.516693168800661
 30
0.0
 40
2.003179651200008
 50
180.0
 51
270.0
  0
LINE
  8
DETAIL
  6
CONTINUOUS
 62
     5
 10
111.6772655543998
 20
-64.103121482501251
 30
0.0
 11
109.67408590320041
 21
-65.103338663999807
 31
0.0
  0
LINE
  8
DETAIL
  6
CONTINUOUS
 62
     5
 10
111.6772655543998
 20
-14.520307183099019
 30
0.0
 11
109.676831191302
 21
-12.519872820000501
 31
0.0
  0
ARC
  8
DETAIL
  6
CONTINUOUS
 62
     5
 10
72.61526235600013
 20
-33.052464244799921
 30
0.0
 40
1.99884741823773
 50
180.0
 51
270.0
  0
ARC
  8
DETAIL
  6
CONTINUOUS
 62
     5
 10
80.127186048000112
 20
-7.6837693381489771
 30
0.0
 40
2.0075118840622959
 50
180.0
 51
224.99999999999079
  0
LINE
  8
DETAIL
  6
CONTINUOUS
 62
     5
 10
66.273933543571729
 20
-35.040771850971851
 30
0.0
 11
61.693308451296623
 21
-34.840899303063452
 31
0.0
  0
LINE
  8
DETAIL
  6
CONTINUOUS
 62
     5
 10
68.103772330559877
 20
-35.051311663137767
 30
0.0
 11
67.083648965533939
 21
-35.04996379846898
 31
0.0
  0
LINE
  8
DETAIL
  6
CONTINUOUS
 62
     5
 10
79.622055324959319
 20
-35.051311663137767
 30
0.0
 11
72.61526235600013
 21
-35.051311663137767
 31
0.0
  0
LINE
  8
DETAIL
  6
CONTINUOUS
 62
     5
 10
70.612082704799832
 20
-37.130504040595497
 30
0.0
 11
80.127186048000112
 21
-37.129054623532738
 31
0.0
  0
LINE
  8
DETAIL
  6
CONTINUOUS
 62
     5
 10
61.693308451296623
 20
-17.24177162803608
 30
0.0
 11
66.273933543571729
 21
-17.041899080127681
 31
0.0
  0
LINE
  8
DETAIL
  6
CONTINUOUS
 62
     5
 10
80.122853815238159
 20
-11.346437348150181
 30
0.0
 11
79.537404960961794
 21
-9.9330387840886942
 31
0.0
  0
LINE
  8
DETAIL
  6
CONTINUOUS
 62
     5
 10
78.707660781511322
 20
-9.1032946046379948
 30
0.0
 11
79.537404960961794
 21
-9.9330387840886942
 31
0.0
  0
LINE
  8
DETAIL
  6
CONTINUOUS
 62
     5
 10
70.612082704799832
 20
-16.472513771550439
 30
0.0
 11
74.76447147417457
 21
-30.592877262399949
 31
0.0
  0
LINE
  8
DETAIL
  6
CONTINUOUS
 62
     5
 10
68.60457082083758
 20
-17.532062465081481
 30
0.0
 11
68.60457082083758
 21
-34.550614788854553
 31
0.0
  0
LINE
  8
DETAIL
  6
CONTINUOUS
 62
     5
 10
70.616414937662739
 20
-33.052464244799921
 30
0.0
 11
70.616414937662739
 21
-16.72592620683281
 31
0.0
  0
LINE
  8
DETAIL
  6
CONTINUOUS
 62
     5
 10
78.053459433759599
 20
7.6837693382494763
 30
0.0
 11
78.053459433759599
 21
-7.6837693381489771
 31
0.0
  0
LINE
  8
DETAIL
  6
CONTINUOUS
 62
     5
 10
78.119674164037633
 20
7.6837693382494763
 30
0.0
 11
78.119674164037633
 21
-7.6837693381489771
 31
0.0
  0
LINE
  8
DETAIL
  6
CONTINUOUS
 62
     5
 10
80.056944271884049
 20
-30.047694767999928
 30
0.0
 11
80.056944271884049
 21
-11.346437348150181
 31
0.0
  0
LINE
  8
DETAIL
  6
CONTINUOUS
 62
     5
 10
80.122853815238159
 20
-11.346437348150181
 30
0.0
 11
80.122853815238159
 21
-34.550614788854553
 31
0.0
  0
ARC
  8
DETAIL
  6
CONTINUOUS
 62
     5
 10
72.61526235600013
 20
-33.052464244799921
 30
0.0
 40
1.972548915870455
 50
180.0
 51
270.0
  0
ARC
  8
DETAIL
  6
CONTINUOUS
 62
     5
 10
80.127186048000112
 20
-10.51669316879952
 30
0.0
 40
2.0031796511999969
 50
0.0
 51
45.000000002091099
  0
ARC
  8
DETAIL
  6
CONTINUOUS
 62
     5
 10
82.130365699200411
 20
-6.8540251587983221
 30
0.0
 40
2.0031796511999969
 50
180.0
 51
225.0000000000276
  0
LINE
  8
DETAIL
  6
CONTINUOUS
 62
     5
 10
61.09046559448484
 20
-37.462685602074089
 30
0.0
 11
70.612082704799832
 21
-37.462683965276263
 31
0.0
  0
LINE
  8
DETAIL
  6
CONTINUOUS
 62
     5
 10
61.487608856004037
 20
-37.27367936087694
 30
0.0
 11
66.077505618019131
 21
-37.073368007351753
 31
0.0
  0
LINE
  8
DETAIL
  6
CONTINUOUS
 62
     5
 10
67.328179780903156
 20
-37.061880626207767
 30
0.0
 11
80.127186048000112
 21
-37.061422886837143
 31
0.0
  0
LINE
  8
DETAIL
  6
CONTINUOUS
 62
     5
 10
79.595779468839282
 20
-35.02501316087114
 30
0.0
 11
72.61526235600013
 21
-35.02501316087114
 31
0.0
  0
LINE
  8
DETAIL
  6
CONTINUOUS
 62
     5
 10
67.704266791492046
 20
-34.6517834779238
 30
0.0
 11
61.290795021297299
 21
-34.6517834779238
 31
0.0
  0
LINE
  8
DETAIL
  6
CONTINUOUS
 62
     5
 10
69.739829842128529
 20
-15.01951515113751
 30
0.0
 11
67.12230083983377
 21
-15.018327084216709
 31
0.0
  0
LINE
  8
DETAIL
  6
CONTINUOUS
 62
     5
 10
61.290795028208549
 20
-17.430887453276231
 30
0.0
 11
67.704266791492046
 21
-17.430887453276231
 31
0.0
  0
LINE
  8
DETAIL
  6
CONTINUOUS
 62
     5
 10
66.273933543571729
 20
-15.00897533897205
 30
0.0
 11
61.693308451296623
 21
-14.809102791063649
 31
0.0
  0
LINE
  8
DETAIL
  6
CONTINUOUS
 62
     5
 10
70.03878540921778
 20
-14.619986965923539
 30
0.0
 11
61.290795021297299
 21
-14.619986965923539
 31
0.0
  0
LINE
  8
DETAIL
  6
CONTINUOUS
 62
     5
 10
70.616996721229043
 20
-37.467097449007952
 30
0.0
 11
70.612082704799832
 21
-37.462683965276263
 31
0.0
  0
LINE
  8
DETAIL
  6
CONTINUOUS
 62
     5
 10
70.628021265810958
 20
-37.478603457519057
 30
0.0
 11
70.616996721229043
 21
-37.467097449007952
 31
0.0
  0
LINE
  8
DETAIL
  6
CONTINUOUS
 62
     5
 10
81.543647963325157
 20
-9.1002312534747034
 30
0.0
 11
80.713903783975184
 21
-8.2704870741240484
 31
0.0
  0
LINE
  8
DETAIL
  6
CONTINUOUS
 62
     5
 10
70.740801054102121
 20
-17.046564093813231
 30
0.0
 11
74.729852769833997
 21
-30.603059234264951
 31
0.0
  0
LINE
  8
DETAIL
  6
CONTINUOUS
 62
     5
 10
70.257487177987969
 20
-15.52029099526999
 30
0.0
 11
70.54565896476106
 21
-16.49315962906303
 31
0.0
  0
LINE
  8
DETAIL
  6
CONTINUOUS
 62
     5
 10
60.789915642624692
 20
-35.152458870809369
 30
0.0
 11
60.789917099135891
 21
-37.162278747052369
 31
0.0
  0
LINE
  8
DETAIL
  6
CONTINUOUS
 62
     5
 10
60.789915642624692
 20
-15.12066235880911
 30
0.0
 11
60.789915642624692
 21
-16.930212066800781
 31
0.0
  0
LINE
  8
DETAIL
  6
CONTINUOUS
 62
     5
 10
61.16364333596448
 20
-16.74333826432758
 30
0.0
 11
61.16364333596448
 21
-15.307536154872199
 31
0.0
  0
LINE
  8
DETAIL
  6
CONTINUOUS
 62
     5
 10
61.163643355996101
 20
-36.97542984981169
 30
0.0
 11
61.16364333596448
 21
-35.339332666871996
 31
0.0
  0
LINE
  8
DETAIL
  6
CONTINUOUS
 62
     5
 10
61.202238637266191
 20
-16.740995784003871
 30
0.0
 11
61.202238637266191
 21
-15.30987863519613
 31
0.0
  0
LINE
  8
DETAIL
  6
CONTINUOUS
 62
     5
 10
68.205042635524478
 20
-17.931663297308429
 30
0.0
 11
68.205042635524478
 21
-34.15100763389205
 31
0.0
  0
LINE
  8
DETAIL
  6
CONTINUOUS
 62
     5
 10
70.612082704799832
 20
-15.295400281374899
 30
0.0
 11
70.612082704799832
 21
-16.472513771550439
 31
0.0
  0
LINE
  8
DETAIL
  6
CONTINUOUS
 62
     5
 10
70.612082704799832
 20
-37.462683965276263
 30
0.0
 11
70.612082704799832
 21
-37.130504040595497
 31
0.0
  0
LINE
  8
DETAIL
  6
CONTINUOUS
 62
     5
 10
70.642713440030093
 20
-33.052464244799921
 30
0.0
 11
70.642713440030093
 21
-16.72213898506789
 31
0.0
  0
LINE
  8
DETAIL
  6
CONTINUOUS
 62
     5
 10
80.096555312870578
 20
-30.047694767999928
 30
0.0
 11
80.096555312870578
 21
-34.524237316738663
 31
0.0
  0
LINE
  8
DETAIL
  6
CONTINUOUS
 62
     5
 10
80.127186048000112
 20
-6.8540251587983221
 30
0.0
 11
80.127186048000112
 21
6.8540251587987768
 31
0.0
  0
LINE
  8
DETAIL
  6
CONTINUOUS
 62
     5
 10
75.248486597981355
 20
-37.32302425733269
 30
0.0
 11
75.265559589476652
 21
-37.12979518552811
 31
0.0
  0
LINE
  8
DETAIL
  6
CONTINUOUS
 62
     5
 10
79.271016313911559
 20
-37.188664947122113
 30
0.0
 11
79.275906771546033
 21
-37.129184297263919
 31
0.0
  0
LINE
  8
DETAIL
  6
CONTINUOUS
 62
     5
 10
77.307410798820456
 20
-37.214992007118781
 30
0.0
 11
77.314710233727965
 21
-37.12948304246288
 31
0.0
  0
LINE
  8
DETAIL
  6
CONTINUOUS
 62
     5
 10
82.130365699200411
 20
-35.125493554006432
 30
0.0
 11
82.130365699200411
 21
-10.51669316879952
 31
0.0
  0
LINE
  8
DETAIL
  6
CONTINUOUS
 62
     5
 10
67.328179780903156
 20
-37.061880626207767
 30
0.0
 11
66.077505618019131
 21
-37.073368007351753
 31
0.0
  0
LINE
  8
DETAIL
  6
CONTINUOUS
 62
     5
 10
61.487608856004037
 20
-37.27367936087694
 30
0.0
 11
61.163643355996101
 21
-36.97542984981169
 31
0.0
  0
LINE
  8
DETAIL
  6
CONTINUOUS
 62
     5
 10
61.16364333596448
 20
-35.339332666871996
 30
0.0
 11
61.693308451296623
 21
-34.840899303063452
 31
0.0
  0
LINE
  8
DETAIL
  6
CONTINUOUS
 62
     5
 10
66.273933543571729
 20
-35.040771850971851
 30
0.0
 11
67.083648965533939
 21
-35.04996379846898
 31
0.0
  0
LINE
  8
DETAIL
  6
CONTINUOUS
 62
     5
 10
68.103772330559877
 20
-35.051311663137767
 30
0.0
 11
68.60457082083758
 21
-34.550614788854553
 31
0.0
  0
LINE
  8
DETAIL
  6
CONTINUOUS
 62
     5
 10
68.205042635524478
 20
-34.15100763389205
 30
0.0
 11
67.704266791492046
 21
-34.6517834779238
 31
0.0
  0
LINE
  8
DETAIL
  6
CONTINUOUS
 62
     5
 10
61.290795021297299
 20
-34.6517834779238
 30
0.0
 11
60.789915642624692
 21
-35.152458870809369
 31
0.0
  0
LINE
  8
DETAIL
  6
CONTINUOUS
 62
     5
 10
60.789917099135891
 20
-37.162278747052369
 30
0.0
 11
61.09046559448484
 21
-37.462685602074089
 31
0.0
  0
LINE
  8
DETAIL
  6
CONTINUOUS
 62
     5
 10
68.205042635524478
 20
-17.931663297308429
 30
0.0
 11
67.704266791492046
 21
-17.430887453276231
 31
0.0
  0
LINE
  8
DETAIL
  6
CONTINUOUS
 62
     5
 10
68.60457082083758
 20
-17.532062465081481
 30
0.0
 11
67.919479320893061
 21
-16.917155444237778
 31
0.0
  0
LINE
  8
DETAIL
  6
CONTINUOUS
 62
     5
 10
67.919479320893061
 20
-16.917155444237778
 30
0.0
 11
66.273933543571729
 21
-17.041899080127681
 31
0.0
  0
LINE
  8
DETAIL
  6
CONTINUOUS
 62
     5
 10
61.693308451296623
 20
-17.24177162803608
 30
0.0
 11
61.202238637266191
 21
-16.740995784003871
 31
0.0
  0
LINE
  8
DETAIL
  6
CONTINUOUS
 62
     5
 10
61.290795028208549
 20
-17.430887453276231
 30
0.0
 11
60.789915642624692
 21
-16.930212066800781
 31
0.0
  0
LINE
  8
DETAIL
  6
CONTINUOUS
 62
     5
 10
60.789915642624692
 20
-15.12066235880911
 30
0.0
 11
61.290795021297299
 21
-14.619986965923539
 31
0.0
  0
LINE
  8
DETAIL
  6
CONTINUOUS
 62
     5
 10
61.16364333596448
 20
-15.307536154872199
 30
0.0
 11
61.693308451296623
 21
-14.809102791063649
 31
0.0
  0
LINE
  8
DETAIL
  6
CONTINUOUS
 62
     5
 10
66.273933543571729
 20
-15.00897533897205
 30
0.0
 11
67.12230083983377
 21
-15.018327084216709
 31
0.0
  0
LINE
  8
DETAIL
  6
CONTINUOUS
 62
     5
 10
69.739829842128529
 20
-15.01951515113751
 30
0.0
 11
70.257487177987969
 21
-15.52029099526999
 31
0.0
  0
LINE
  8
DETAIL
  6
CONTINUOUS
 62
     5
 10
70.03878540921778
 20
-14.619986965923539
 30
0.0
 11
70.612082704799832
 21
-15.295400281374899
 31
0.0
  0
ARC
  8
DETAIL
  6
CONTINUOUS
 62
     5
 10
77.303791785435124
 20
-28.939397193020799
 30
0.0
 40
3.0647892983876761
 50
212.8765527057638
 51
333.93772544546448
  0
LINE
  8
DETAIL
  6
CONTINUOUS
 62
     5
 10
80.096555312870578
 20
-34.524237316738663
 30
0.0
 11
79.595779468839282
 21
-35.02501316087114
 31
0.0
  0
LINE
  8
DETAIL
  6
CONTINUOUS
 62
     5
 10
82.130365699200411
 20
-35.125493554006432
 30
0.0
 11
80.127186048000112
 21
-37.129054623532738
 31
0.0
  0
ARC
  8
DETAIL
  6
CONTINUOUS
 62
     5
 10
72.61526235600013
 20
33.052464244799921
 30
0.0
 40
1.99884741823773
 50
90.0
 51
180.0
  0
ARC
  8
DETAIL
  6
CONTINUOUS
 62
     5
 10
80.127186048000112
 20
7.6837693381489771
 30
0.0
 40
2.0075118840622959
 50
135.00000000000921
 51
180.0
  0
LINE
  8
DETAIL
  6
CONTINUOUS
 62
     5
 10
66.273933543571729
 20
35.040771850971851
 30
0.0
 11
61.693308451296623
 21
34.840899303063452
 31
0.0
  0
LINE
  8
DETAIL
  6
CONTINUOUS
 62
     5
 10
68.103772330559877
 20
35.051311663137767
 30
0.0
 11
67.083648965533939
 21
35.04996379846898
 31
0.0
  0
LINE
  8
DETAIL
  6
CONTINUOUS
 62
     5
 10
79.622055324959319
 20
35.051311663137767
 30
0.0
 11
72.61526235600013
 21
35.051311663137767
 31
0.0
  0
LINE
  8
DETAIL
  6
CONTINUOUS
 62
     5
 10
70.612082704799832
 20
37.130504040595497
 30
0.0
 11
80.127186048000112
 21
37.129054623532738
 31
0.0
  0
LINE
  8
DETAIL
  6
CONTINUOUS
 62
     5
 10
61.693308451296623
 20
17.24177162803608
 30
0.0
 11
66.273933543571729
 21
17.041899080127681
 31
0.0
  0
LINE
  8
DETAIL
  6
CONTINUOUS
 62
     5
 10
80.122853815238159
 20
11.346437348150181
 30
0.0
 11
79.537404960961794
 21
9.9330387840886942
 31
0.0
  0
LINE
  8
DETAIL
  6
CONTINUOUS
 62
     5
 10
78.707660781511322
 20
9.1032946046379948
 30
0.0
 11
79.537404960961794
 21
9.9330387840886942
 31
0.0
  0
LINE
  8
DETAIL
  6
CONTINUOUS
 62
     5
 10
70.612082704799832
 20
16.472513771550439
 30
0.0
 11
74.76447147417457
 21
30.592877262399721
 31
0.0
  0
LINE
  8
DETAIL
  6
CONTINUOUS
 62
     5
 10
68.60457082083758
 20
17.53206246508125
 30
0.0
 11
68.60457082083758
 21
34.550614788854553
 31
0.0
  0
LINE
  8
DETAIL
  6
CONTINUOUS
 62
     5
 10
70.616414937662739
 20
33.052464244799921
 30
0.0
 11
70.616414937662739
 21
16.72592620683281
 31
0.0
  0
LINE
  8
DETAIL
  6
CONTINUOUS
 62
     5
 10
78.053459433759599
 20
-7.6837693382494763
 30
0.0
 11
78.053459433759599
 21
7.6837693381489771
 31
0.0
  0
LINE
  8
DETAIL
  6
CONTINUOUS
 62
     5
 10
78.119674164037633
 20
-7.6837693382494763
 30
0.0
 11
78.119674164037633
 21
7.6837693381489771
 31
0.0
  0
LINE
  8
DETAIL
  6
CONTINUOUS
 62
     5
 10
80.056944271884049
 20
30.047694767999928
 30
0.0
 11
80.056944271884049
 21
11.346437348150181
 31
0.0
  0
LINE
  8
DETAIL
  6
CONTINUOUS
 62
     5
 10
80.122853815238159
 20
11.346437348150181
 30
0.0
 11
80.122853815238159
 21
34.550614788854553
 31
0.0
  0
ARC
  8
DETAIL
  6
CONTINUOUS
 62
     5
 10
72.61526235600013
 20
33.052464244799921
 30
0.0
 40
1.972548915870455
 50
90.0
 51
180.0
  0
ARC
  8
DETAIL
  6
CONTINUOUS
 62
     5
 10
80.127186048000112
 20
10.51669316879952
 30
0.0
 40
2.0031796511999969
 50
314.9999999979089
 51
0.0
  0
ARC
  8
DETAIL
  6
CONTINUOUS
 62
     5
 10
82.130365699200411
 20
6.8540251587983221
 30
0.0
 40
2.0031796511999969
 50
134.9999999999724
 51
180.0
  0
LINE
  8
DETAIL
  6
CONTINUOUS
 62
     5
 10
61.09046559448484
 20
37.462685602074089
 30
0.0
 11
70.612082704799832
 21
37.462683965276028
 31
0.0
  0
LINE
  8
DETAIL
  6
CONTINUOUS
 62
     5
 10
61.487608856004037
 20
37.27367936087694
 30
0.0
 11
66.077505618019131
 21
37.073368007351753
 31
0.0
  0
LINE
  8
DETAIL
  6
CONTINUOUS
 62
     5
 10
67.328179780903156
 20
37.061880626207767
 30
0.0
 11
80.127186048000112
 21
37.061422886837143
 31
0.0
  0
LINE
  8
DETAIL
  6
CONTINUOUS
 62
     5
 10
79.595779468839282
 20
35.025013160870913
 30
0.0
 11
72.61526235600013
 21
35.025013160870913
 31
0.0
  0
LINE
  8
DETAIL
  6
CONTINUOUS
 62
     5
 10
67.704266791492046
 20
34.6517834779238
 30
0.0
 11
61.290795021297299
 21
34.6517834779238
 31
0.0
  0
LINE
  8
DETAIL
  6
CONTINUOUS
 62
     5
 10
69.739829842128529
 20
15.01951515113751
 30
0.0
 11
67.12230083983377
 21
15.018327084216709
 31
0.0
  0
LINE
  8
DETAIL
  6
CONTINUOUS
 62
     5
 10
61.290795028208549
 20
17.430887453276231
 30
0.0
 11
67.704266791492046
 21
17.430887453276231
 31
0.0
  0
LINE
  8
DETAIL
  6
CONTINUOUS
 62
     5
 10
66.273933543571729
 20
15.00897533897205
 30
0.0
 11
61.693308451296623
 21
14.809102791063649
 31
0.0
  0
LINE
  8
DETAIL
  6
CONTINUOUS
 62
     5
 10
70.03878540921778
 20
14.619986965923539
 30
0.0
 11
61.290795021297299
 21
14.619986965923539
 31
0.0
  0
LINE
  8
DETAIL
  6
CONTINUOUS
 62
     5
 10
70.616996721229043
 20
37.467097449007717
 30
0.0
 11
70.612082704799832
 21
37.462683965276028
 31
0.0
  0
LINE
  8
DETAIL
  6
CONTINUOUS
 62
     5
 10
70.628021265810958
 20
37.478603457519057
 30
0.0
 11
70.616996721229043
 21
37.467097449007717
 31
0.0
  0
LINE
  8
DETAIL
  6
CONTINUOUS
 62
     5
 10
81.543647963325157
 20
9.1002312534747034
 30
0.0
 11
80.713903783975184
 21
8.2704870741240484
 31
0.0
  0
LINE
  8
DETAIL
  6
CONTINUOUS
 62
     5
 10
70.740801054102121
 20
17.046564093813231
 30
0.0
 11
74.729852769833997
 21
30.603059234264951
 31
0.0
  0
LINE
  8
DETAIL
  6
CONTINUOUS
 62
     5
 10
70.257487177987969
 20
15.52029099526999
 30
0.0
 11
70.54565896476106
 21
16.49315962906303
 31
0.0
  0
LINE
  8
DETAIL
  6
CONTINUOUS
 62
     5
 10
60.789915642624692
 20
35.152458870809369
 30
0.0
 11
60.789917099135891
 21
37.162278747052369
 31
0.0
  0
LINE
  8
DETAIL
  6
CONTINUOUS
 62
     5
 10
60.789915642624692
 20
15.12066235880911
 30
0.0
 11
60.789915642624692
 21
16.930212066800781
 31
0.0
  0
LINE
  8
DETAIL
  6
CONTINUOUS
 62
     5
 10
61.16364333596448
 20
16.74333826432758
 30
0.0
 11
61.16364333596448
 21
15.307536154872199
 31
0.0
  0
LINE
  8
DETAIL
  6
CONTINUOUS
 62
     5
 10
61.163643355996101
 20
36.975429849811462
 30
0.0
 11
61.16364333596448
 21
35.339332666871996
 31
0.0
  0
LINE
  8
DETAIL
  6
CONTINUOUS
 62
     5
 10
61.202238637266191
 20
16.740995784003641
 30
0.0
 11
61.202238637266191
 21
15.30987863519613
 31
0.0
  0
LINE
  8
DETAIL
  6
CONTINUOUS
 62
     5
 10
68.205042635524478
 20
17.931663297308209
 30
0.0
 11
68.205042635524478
 21
34.151007633891822
 31
0.0
  0
LINE
  8
DETAIL
  6
CONTINUOUS
 62
     5
 10
70.612082704799832
 20
15.295400281374899
 30
0.0
 11
70.612082704799832
 21
16.472513771550439
 31
0.0
  0
LINE
  8
DETAIL
  6
CONTINUOUS
 62
     5
 10
70.612082704799832
 20
37.462683965276028
 30
0.0
 11
70.612082704799832
 21
37.130504040595497
 31
0.0
  0
LINE
  8
DETAIL
  6
CONTINUOUS
 62
     5
 10
70.642713440030093
 20
33.052464244799921
 30
0.0
 11
70.642713440030093
 21
16.72213898506789
 31
0.0
  0
LINE
  8
DETAIL
  6
CONTINUOUS
 62
     5
 10
80.096555312870578
 20
30.047694767999928
 30
0.0
 11
80.096555312870578
 21
34.524237316738443
 31
0.0
  0
LINE
  8
DETAIL
  6
CONTINUOUS
 62
     5
 10
82.130365699200411
 20
35.125493554006432
 30
0.0
 11
82.130365699200411
 21
10.51669316879952
 31
0.0
  0
LINE
  8
DETAIL
  6
CONTINUOUS
 62
     5
 10
67.328179780903156
 20
37.061880626207767
 30
0.0
 11
66.077505618019131
 21
37.073368007351753
 31
0.0
  0
LINE
  8
DETAIL
  6
CONTINUOUS
 62
     5
 10
61.487608856004037
 20
37.27367936087694
 30
0.0
 11
61.163643355996101
 21
36.975429849811462
 31
0.0
  0
LINE
  8
DETAIL
  6
CONTINUOUS
 62
     5
 10
61.16364333596448
 20
35.339332666871996
 30
0.0
 11
61.693308451296623
 21
34.840899303063452
 31
0.0
  0
LINE
  8
DETAIL
  6
CONTINUOUS
 62
     5
 10
66.273933543571729
 20
35.040771850971851
 30
0.0
 11
67.083648965533939
 21
35.04996379846898
 31
0.0
  0
LINE
  8
DETAIL
  6
CONTINUOUS
 62
     5
 10
68.103772330559877
 20
35.051311663137767
 30
0.0
 11
68.60457082083758
 21
34.550614788854553
 31
0.0
  0
LINE
  8
DETAIL
  6
CONTINUOUS
 62
     5
 10
68.205042635524478
 20
34.151007633891822
 30
0.0
 11
67.704266791492046
 21
34.6517834779238
 31
0.0
  0
LINE
  8
DETAIL
  6
CONTINUOUS
 62
     5
 10
61.290795021297299
 20
34.6517834779238
 30
0.0
 11
60.789915642624692
 21
35.152458870809369
 31
0.0
  0
LINE
  8
DETAIL
  6
CONTINUOUS
 62
     5
 10
60.789917099135891
 20
37.162278747052369
 30
0.0
 11
61.09046559448484
 21
37.462685602074089
 31
0.0
  0
LINE
  8
DETAIL
  6
CONTINUOUS
 62
     5
 10
68.205042635524478
 20
17.931663297308209
 30
0.0
 11
67.704266791492046
 21
17.430887453276231
 31
0.0
  0
LINE
  8
DETAIL
  6
CONTINUOUS
 62
     5
 10
68.60457082083758
 20
17.53206246508125
 30
0.0
 11
67.919479320893061
 21
16.917155444237778
 31
0.0
  0
LINE
  8
DETAIL
  6
CONTINUOUS
 62
     5
 10
67.919479320893061
 20
16.917155444237778
 30
0.0
 11
66.273933543571729
 21
17.041899080127681
 31
0.0
  0
LINE
  8
DETAIL
  6
CONTINUOUS
 62
     5
 10
61.693308451296623
 20
17.24177162803608
 30
0.0
 11
61.202238637266191
 21
16.740995784003641
 31
0.0
  0
LINE
  8
DETAIL
  6
CONTINUOUS
 62
     5
 10
61.290795028208549
 20
17.430887453276231
 30
0.0
 11
60.789915642624692
 21
16.930212066800781
 31
0.0
  0
LINE
  8
DETAIL
  6
CONTINUOUS
 62
     5
 10
60.789915642624692
 20
15.12066235880911
 30
0.0
 11
61.290795021297299
 21
14.619986965923539
 31
0.0
  0
LINE
  8
DETAIL
  6
CONTINUOUS
 62
     5
 10
61.16364333596448
 20
15.307536154872199
 30
0.0
 11
61.693308451296623
 21
14.809102791063649
 31
0.0
  0
LINE
  8
DETAIL
  6
CONTINUOUS
 62
     5
 10
66.273933543571729
 20
15.00897533897205
 30
0.0
 11
67.12230083983377
 21
15.018327084216709
 31
0.0
  0
LINE
  8
DETAIL
  6
CONTINUOUS
 62
     5
 10
69.739829842128529
 20
15.01951515113751
 30
0.0
 11
70.257487177987969
 21
15.52029099526999
 31
0.0
  0
LINE
  8
DETAIL
  6
CONTINUOUS
 62
     5
 10
70.03878540921778
 20
14.619986965923539
 30
0.0
 11
70.612082704799832
 21
15.295400281374899
 31
0.0
  0
ARC
  8
DETAIL
  6
CONTINUOUS
 62
     5
 10
77.303791785435124
 20
28.939397193020799
 30
0.0
 40
3.0647892983876761
 50
26.062274554520961
 51
147.1234472942362
  0
LINE
  8
DETAIL
  6
CONTINUOUS
 62
     5
 10
80.096555312870578
 20
34.524237316738443
 30
0.0
 11
79.595779468839282
 21
35.025013160870913
 31
0.0
  0
LINE
  8
DETAIL
  6
CONTINUOUS
 62
     5
 10
82.130365699200411
 20
35.125493554006432
 30
0.0
 11
80.127186048000112
 21
37.129054623532738
 31
0.0
  0
LINE
  8
OUTLINE
  6
CONTINUOUS
 62
     3
 10
52.357010389285051
 20
-149.583515269321
 30
0.0
 11
52.357010389285051
 21
-149.89429102720121
 31
0.0
  0
LINE
  8
OUTLINE
  6
CONTINUOUS
 62
     3
 10
-89.141494478400205
 20
-109.6740859031997
 30
0.0
 11
-65.103338664000262
 21
-109.6740859031997
 31
0.0
  0
LINE
  8
OUTLINE
  6
CONTINUOUS
 62
     3
 10
54.241783875316969
 20
-115.6580997706329
 30
0.0
 11
53.08426075679904
 21
-125.3990461651202
 31
0.0
  0
LINE
  8
OUTLINE
  6
CONTINUOUS
 62
     3
 10
53.08426075679904
 20
-125.39904616471961
 30
0.0
 11
52.881806922309579
 21
-148.5979577816706
 31
0.0
  0
LINE
  8
OUTLINE
  6
CONTINUOUS
 62
     3
 10
49.427531134013407
 20
-155.4467409331202
 30
0.0
 11
49.07790145439958
 21
-185.49443570112069
 31
0.0
  0
LINE
  8
OUTLINE
  6
CONTINUOUS
 62
     3
 10
-49.427531133913483
 20
-155.44674093312011
 30
0.0
 11
-49.077901454400603
 21
-185.49443570112041
 31
0.0
  0
LINE
  8
OUTLINE
  6
CONTINUOUS
 62
     3
 10
-53.084276519621312
 20
-125.3972399243698
 30
0.0
 11
-52.881806922209883
 21
-148.5979577816706
 31
0.0
  0
LINE
  8
OUTLINE
  6
CONTINUOUS
 62
     3
 10
-53.08427532161943
 20
-125.3972587255134
 30
0.0
 11
-54.715867556946357
 21
-111.67726555439999
 31
0.0
  0
LINE
  8
OUTLINE
  6
CONTINUOUS
 62
     3
 10
53.08426075679904
 20
-125.39904616451921
 30
0.0
 11
53.039504061204752
 21
-125.3957413085142
 31
0.0
  0
LINE
  8
OUTLINE
  6
CONTINUOUS
 62
     3
 10
53.039504061204752
 20
-125.3957413085142
 30
0.0
 11
52.905165692935043
 21
-125.3934803817402
 31
0.0
  0
LINE
  8
OUTLINE
  6
CONTINUOUS
 62
     3
 10
52.905165692935043
 20
-125.3934803817402
 30
0.0
 11
52.681297113977053
 21
-125.3920925183821
 31
0.0
  0
LINE
  8
OUTLINE
  6
CONTINUOUS
 62
     3
 10
-52.367235310227557
 20
-125.3899631077643
 30
0.0
 11
-52.681204025017109
 21
-125.3926631119862
 31
0.0
  0
LINE
  8
OUTLINE
  6
CONTINUOUS
 62
     3
 10
-52.681204025017109
 20
-125.3926631119862
 30
0.0
 11
-52.90536775396788
 21
-125.3959363862614
 31
0.0
  0
LINE
  8
OUTLINE
  6
CONTINUOUS
 62
     3
 10
-52.90536775396788
 20
-125.3959363862614
 30
0.0
 11
-53.039610633367488
 21
-125.3971718728517
 31
0.0
  0
LINE
  8
OUTLINE
  6
CONTINUOUS
 62
     3
 10
-53.039610633367488
 20
-125.3971718728517
 30
0.0
 11
-53.084275464145428
 21
-125.3972423939899
 31
0.0
  0
LINE
  8
OUTLINE
  6
CONTINUOUS
 62
     3
 10
49.427531134013407
 20
-155.4467409331202
 30
0.0
 11
52.881806922309579
 21
-148.5979577816706
 31
0.0
  0
LINE
  8
OUTLINE
  6
CONTINUOUS
 62
     3
 10
-49.427531133913483
 20
-155.44674093312011
 30
0.0
 11
-52.881806922209883
 21
-148.5979577816706
 31
0.0
  0
LINE
  8
OUTLINE
  6
CONTINUOUS
 62
     3
 10
-49.077901454400603
 20
-185.49443570112041
 30
0.0
 11
49.07790145439958
 21
-185.49443570112069
 31
0.0
  0
LINE
  8
OUTLINE
  6
CONTINUOUS
 62
     3
 10
-90.143084304000809
 20
-111.67726555439999
 30
0.0
 11
-101.66136729840051
 21
-111.67726555439999
 31
0.0
  0
LINE
  8
OUTLINE
  6
CONTINUOUS
 62
     3
 10
-109.6740859032008
 20
-89.14149447839975
 30
0.0
 11
-109.6740859032009
 21
-65.103338663999807
 31
0.0
  0
LINE
  8
OUTLINE
  6
CONTINUOUS
 62
     3
 10
-111.67726555440019
 20
-90.14171165999926
 30
0.0
 11
-111.67726555440019
 21
-101.66136729839999
 31
0.0
  0
ARC
  8
OUTLINE
  6
CONTINUOUS
 62
     3
 10
-101.66136729840051
 20
-101.6613672983999
 30
0.0
 40
10.015898256000041
 50
180.0
 51
270.0
  0
ARC
  8
OUTLINE
  6
CONTINUOUS
 62
     3
 10
-101.66136729840051
 20
-101.6613672983999
 30
0.0
 40
10.015898255999989
 50
180.0
 51
270.0
  0
LINE
  8
OUTLINE
  6
CONTINUOUS
 62
     3
 10
-101.66136729840051
 20
-111.67726555439999
 30
0.0
 11
-90.141711659999714
 21
-111.67726555439999
 31
0.0
  0
LINE
  8
OUTLINE
  6
CONTINUOUS
 62
     3
 10
-65.103338664000262
 20
-109.6740859031997
 30
0.0
 11
-89.141494478400205
 21
-109.6740859031997
 31
0.0
  0
LINE
  8
OUTLINE
  6
CONTINUOUS
 62
     3
 10
105.6677266007998
 20
10.516693168800201
 30
0.0
 11
105.6677266007998
 21
-10.516693168799749
 31
0.0
  0
LINE
  8
OUTLINE
  6
CONTINUOUS
 62
     3
 10
-105.66772660080019
 20
0.0
 30
0.0
 11
-105.66772660080019
 21
-10.51669316879952
 31
0.0
  0
LINE
  8
OUTLINE
  6
CONTINUOUS
 62
     3
 10
-109.6740859032008
 20
-89.14149447839975
 30
0.0
 11
-109.6740859032009
 21
-65.103338663999807
 31
0.0
  0
LINE
  8
OUTLINE
  6
CONTINUOUS
 62
     3
 10
-111.67726555440019
 20
-90.141711659899215
 30
0.0
 11
-111.67726555440019
 21
-101.66136729839999
 31
0.0
  0
LINE
  8
OUTLINE
  6
CONTINUOUS
 62
     3
 10
-101.66136729840051
 20
111.6772655543996
 30
0.0
 11
-90.14171165989967
 21
111.6772655543996
 31
0.0
  0
LINE
  8
OUTLINE
  6
CONTINUOUS
 62
     3
 10
-64.103121482401662
 20
111.6772655543996
 30
0.0
 11
-52.583465843900854
 21
111.6772655543996
 31
0.0
  0
LINE
  8
OUTLINE
  6
CONTINUOUS
 62
     3
 10
-27.543720204000461
 20
111.6772655543996
 30
0.0
 11
-14.52030718309925
 21
111.6772655543996
 31
0.0
  0
LINE
  8
OUTLINE
  6
CONTINUOUS
 62
     3
 10
-65.103338664000262
 20
109.67408590320019
 30
0.0
 11
-89.141494478400205
 21
109.67408590320019
 31
0.0
  0
LINE
  8
OUTLINE
  6
CONTINUOUS
 62
     3
 10
-10.51669316879997
 20
105.66772660080009
 30
0.0
 11
-0.0000000000002274
 21
105.66772660080009
 31
0.0
  0
LINE
  8
OUTLINE
  6
CONTINUOUS
 62
     3
 10
-109.6768311913021
 20
12.51987282000027
 30
0.0
 11
-107.67090625200061
 21
12.51987282000027
 31
0.0
  0
LINE
  8
OUTLINE
  6
CONTINUOUS
 62
     3
 10
-12.519872820000501
 20
107.67090625200029
 30
0.0
 11
-12.519872820000501
 21
109.6768311913015
 31
0.0
  0
LINE
  8
OUTLINE
  6
CONTINUOUS
 62
     3
 10
-65.103338664000262
 20
110.677048372901
 30
0.0
 11
-65.103338664000262
 21
109.67408590320019
 31
0.0
  0
LINE
  8
OUTLINE
  6
CONTINUOUS
 62
     3
 10
-105.66772660080019
 20
10.51669316880043
 30
0.0
 11
-105.66772660080019
 21
-10.51669316879952
 31
0.0
  0
LINE
  8
OUTLINE
  6
CONTINUOUS
 62
     3
 10
-109.6740859032008
 20
89.141494478400091
 30
0.0
 11
-109.6740859032008
 21
65.103338663999693
 31
0.0
  0
LINE
  8
OUTLINE
  6
CONTINUOUS
 62
     3
 10
-111.67726555440019
 20
14.52030718309879
 30
0.0
 11
-111.67726555440019
 21
27.543720204100278
 31
0.0
  0
LINE
  8
OUTLINE
  6
CONTINUOUS
 62
     3
 10
-111.67726555440019
 20
52.58346584389983
 30
0.0
 11
-111.67726555440019
 21
64.103121482501138
 31
0.0
  0
LINE
  8
OUTLINE
  6
CONTINUOUS
 62
     3
 10
-111.67726555440019
 20
90.141711659999146
 30
0.0
 11
-111.67726555440019
 21
101.6613672983999
 31
0.0
  0
ARC
  8
OUTLINE
  6
CONTINUOUS
 62
     3
 10
-10.51669316879997
 20
107.67090625200029
 30
0.0
 40
2.003179651200008
 50
180.0
 51
270.0
  0
ARC
  8
OUTLINE
  6
CONTINUOUS
 62
     3
 10
-40.063593024000618
 20
33.928855342199768
 30
0.0
 40
78.750000037800092
 50
95.152628194894376
 51
99.147842519795148
  0
ARC
  8
OUTLINE
  6
CONTINUOUS
 62
     3
 10
-40.063593024000618
 20
33.928855342199768
 30
0.0
 40
78.750000037800262
 50
80.852157480204866
 51
84.847371805105624
  0
ARC
  8
OUTLINE
  6
CONTINUOUS
 62
     3
 10
-33.92885534220045
 20
40.063593024000063
 30
0.0
 40
78.750000037800049
 50
185.15262819489439
 51
189.14784251979461
  0
ARC
  8
OUTLINE
  6
CONTINUOUS
 62
     3
 10
-33.92885534220045
 20
40.063593024000063
 30
0.0
 40
78.750000037799992
 50
170.85215748020539
 51
174.84737180510561
  0
ARC
  8
OUTLINE
  6
CONTINUOUS
 62
     3
 10
-40.063593023996297
 20
-475.1177037300472
 30
0.0
 40
587.52089989640638
 50
89.310267025168258
 51
90.68973297483177
  0
ARC
  8
OUTLINE
  6
CONTINUOUS
 62
     3
 10
475.11753563225187
 20
40.063593023999601
 30
0.0
 40
587.5207318107914
 50
179.3102668278126
 51
180.6897331721874
  0
ARC
  8
OUTLINE
  6
CONTINUOUS
 62
     3
 10
-101.66136729840051
 20
101.6613672983999
 30
0.0
 40
10.01589825600001
 50
90.0
 51
180.0
  0
ARC
  8
OUTLINE
  6
CONTINUOUS
 62
     3
 10
-107.67090625200061
 20
10.51669316880043
 30
0.0
 40
2.003179651200008
 50
0.0
 51
90.0
  0
LINE
  8
OUTLINE
  6
CONTINUOUS
 62
     3
 10
-49.067758928046828
 20
-185.59267343227381
 30
0.0
 11
49.088043980752218
 21
-185.5926734322741
 31
0.0
  0
LINE
  8
OUTLINE
  6
CONTINUOUS
 62
     3
 10
52.893488465346991
 20
-148.5198416561831
 30
0.0
 11
49.3502662403871
 21
-155.544978664274
 31
0.0
  0
LINE
  8
OUTLINE
  6
CONTINUOUS
 62
     3
 10
49.3502662403871
 20
-155.544978664274
 30
0.0
 11
49.088043980752218
 21
-185.5926734322741
 31
0.0
  0
LINE
  8
OUTLINE
  6
CONTINUOUS
 62
     3
 10
-53.029520356650323
 20
-125.49541581236009
 30
0.0
 11
-53.074132929177843
 21
-125.49548136140631
 31
0.0
  0
LINE
  8
OUTLINE
  6
CONTINUOUS
 62
     3
 10
-52.895434177380707
 20
-125.4941870112816
 30
0.0
 11
-53.029520356650323
 21
-125.49541581236009
 31
0.0
  0
LINE
  8
OUTLINE
  6
CONTINUOUS
 62
     3
 10
-52.67153189632711
 20
-125.4909245433596
 30
0.0
 11
-52.895434177380707
 21
-125.4941870112816
 31
0.0
  0
LINE
  8
OUTLINE
  6
CONTINUOUS
 62
     3
 10
-52.357926113320097
 20
-125.4882321878781
 30
0.0
 11
-52.67153189632711
 21
-125.4909245433596
 31
0.0
  0
LINE
  8
OUTLINE
  6
CONTINUOUS
 62
     3
 10
52.915579414256172
 20
-125.4917378562328
 30
0.0
 11
52.692044772456711
 21
-125.49035563903649
 31
0.0
  0
LINE
  8
OUTLINE
  6
CONTINUOUS
 62
     3
 10
53.04971487555099
 20
-125.493990602121
 30
0.0
 11
52.915579414256172
 21
-125.4917378562328
 31
0.0
  0
LINE
  8
OUTLINE
  6
CONTINUOUS
 62
     3
 10
53.094403283153042
 20
-125.49728389577299
 30
0.0
 11
53.04971487555099
 21
-125.493990602121
 31
0.0
  0
LINE
  8
OUTLINE
  6
CONTINUOUS
 62
     3
 10
-53.074132787153872
 20
-125.49549763183219
 30
0.0
 11
-54.717402049326779
 21
-111.67726555439999
 31
0.0
  0
LINE
  8
OUTLINE
  6
CONTINUOUS
 62
     3
 10
-49.329981187681483
 20
-155.54497866427349
 30
0.0
 11
-49.067758928046828
 21
-185.59267343227381
 31
0.0
  0
LINE
  8
OUTLINE
  6
CONTINUOUS
 62
     3
 10
-53.074133982651013
 20
-125.4954788730561
 30
0.0
 11
-52.873203412641601
 21
-148.51984165618299
 31
0.0
  0
LINE
  8
OUTLINE
  6
CONTINUOUS
 62
     3
 10
-52.873203412641601
 20
-148.51984165618299
 30
0.0
 11
-49.329981187681483
 21
-155.54497866427349
 31
0.0
  0
LINE
  8
OUTLINE
  6
CONTINUOUS
 62
     3
 10
54.736638775762003
 20
-111.67726555440019
 30
0.0
 11
53.094403283153042
 21
-125.4972838962741
 31
0.0
  0
LINE
  8
OUTLINE
  6
CONTINUOUS
 62
     3
 10
53.094463726799397
 20
-125.4903577400092
 30
0.0
 11
52.965294102202961
 21
-140.29173065821951
 31
0.0
  0
LINE
  8
OUTLINE
  6
CONTINUOUS
 62
     3
 10
52.965294102202961
 20
-140.29173065821951
 30
0.0
 11
52.893488465346991
 21
-148.5198416561831
 31
0.0
  0
LINE
  8
OUTLINE
  6
CONTINUOUS
 62
     3
 10
-90.14171165989967
 20
111.6772655543996
 30
0.0
 11
-89.141494478400205
 21
109.67408590320019
 31
0.0
  0
LINE
  8
OUTLINE
  6
CONTINUOUS
 62
     3
 10
-111.67726555440019
 20
90.141711659999146
 30
0.0
 11
-109.6740859032008
 21
89.141494478400091
 31
0.0
  0
LINE
  8
OUTLINE
  6
CONTINUOUS
 62
     3
 10
-111.67726555440019
 20
64.103121482501138
 30
0.0
 11
-109.6740859032008
 21
65.103338663999693
 31
0.0
  0
LINE
  8
OUTLINE
  6
CONTINUOUS
 62
     3
 10
-111.67726555440019
 20
14.52030718309879
 30
0.0
 11
-109.6768311913021
 21
12.51987282000027
 31
0.0
  0
LINE
  8
OUTLINE
  6
CONTINUOUS
 62
     3
 10
-109.6768311913021
 20
-12.51987282000027
 30
0.0
 11
-107.67090625200061
 21
-12.51987282000027
 31
0.0
  0
LINE
  8
OUTLINE
  6
CONTINUOUS
 62
     3
 10
-111.67726555440019
 20
-14.52030718309879
 30
0.0
 11
-111.67726555440019
 21
-27.543720204100509
 31
0.0
  0
LINE
  8
OUTLINE
  6
CONTINUOUS
 62
     3
 10
-111.67726555440019
 20
-52.583465843899937
 30
0.0
 11
-111.67726555440029
 21
-64.103121482501251
 31
0.0
  0
ARC
  8
OUTLINE
  6
CONTINUOUS
 62
     3
 10
-33.92885534220045
 20
-40.063593024000063
 30
0.0
 40
78.750000037800049
 50
170.85215748020539
 51
174.84737180510561
  0
ARC
  8
OUTLINE
  6
CONTINUOUS
 62
     3
 10
-33.92885534220045
 20
-40.063593024000063
 30
0.0
 40
78.750000037799992
 50
185.15262819489439
 51
189.14784251979461
  0
ARC
  8
OUTLINE
  6
CONTINUOUS
 62
     3
 10
475.11753563225187
 20
-40.06359302400017
 30
0.0
 40
587.5207318107914
 50
179.3102668278126
 51
180.6897331721874
  0
ARC
  8
OUTLINE
  6
CONTINUOUS
 62
     3
 10
-107.67090625200061
 20
-10.51669316880043
 30
0.0
 40
2.003179651200008
 50
270.0
 51
0.0
  0
LINE
  8
OUTLINE
  6
CONTINUOUS
 62
     3
 10
-111.67726555440029
 20
-64.103121482501251
 30
0.0
 11
-109.6740859032009
 21
-65.103338663999807
 31
0.0
  0
LINE
  8
OUTLINE
  6
CONTINUOUS
 62
     3
 10
-111.67726555440019
 20
-14.52030718309879
 30
0.0
 11
-109.6768311913021
 21
-12.51987282000027
 31
0.0
  0
LINE
  8
OUTLINE
  6
CONTINUOUS
 62
     3
 10
-90.14171165989967
 20
-111.6772655543996
 30
0.0
 11
-89.141494478400205
 21
-109.67408590320019
 31
0.0
  0
LINE
  8
OUTLINE
  6
CONTINUOUS
 62
     3
 10
-111.67726555440019
 20
-90.14171165999926
 30
0.0
 11
-109.6740859032008
 21
-89.141494478400205
 31
0.0
  0
LINE
  8
OUTLINE
  6
CONTINUOUS
 62
     3
 10
-12.519872820000501
 20
109.6768311913015
 30
0.0
 11
-14.52030718309925
 21
111.6772655543996
 31
0.0
  0
LINE
  8
OUTLINE
  6
CONTINUOUS
 62
     3
 10
-65.103338664000262
 20
110.677048372901
 30
0.0
 11
-64.103121482401662
 21
111.6772655543996
 31
0.0
  0
LINE
  8
OUTLINE
  6
CONTINUOUS
 62
     3
 10
64.103121482401548
 20
111.6772655543996
 30
0.0
 11
52.58346584390074
 21
111.6772655543996
 31
0.0
  0
LINE
  8
OUTLINE
  6
CONTINUOUS
 62
     3
 10
27.54372020400001
 20
111.6772655543996
 30
0.0
 11
14.520307183099019
 21
111.6772655543996
 31
0.0
  0
LINE
  8
OUTLINE
  6
CONTINUOUS
 62
     3
 10
10.516693168799749
 20
105.66772660080009
 30
0.0
 11
-0.0000000000002274
 21
105.66772660080009
 31
0.0
  0
LINE
  8
OUTLINE
  6
CONTINUOUS
 62
     3
 10
12.51987282000027
 20
107.67090625200029
 30
0.0
 11
12.51987282000027
 21
109.6768311913015
 31
0.0
  0
LINE
  8
OUTLINE
  6
CONTINUOUS
 62
     3
 10
65.103338664000148
 20
110.677048372901
 30
0.0
 11
65.103338664000148
 21
109.67408590320019
 31
0.0
  0
ARC
  8
OUTLINE
  6
CONTINUOUS
 62
     3
 10
10.516693168799749
 20
107.67090625200029
 30
0.0
 40
2.003179651200008
 50
270.0
 51
0.0
  0
ARC
  8
OUTLINE
  6
CONTINUOUS
 62
     3
 10
40.063593024000511
 20
33.928855342199768
 30
0.0
 40
78.750000037800092
 50
80.852157480204866
 51
84.847371805105624
  0
ARC
  8
OUTLINE
  6
CONTINUOUS
 62
     3
 10
40.063593024000511
 20
33.928855342199768
 30
0.0
 40
78.750000037800262
 50
95.152628194894376
 51
99.147842519795148
  0
ARC
  8
OUTLINE
  6
CONTINUOUS
 62
     3
 10
40.063593023995509
 20
-475.1177037300472
 30
0.0
 40
587.52089989640638
 50
89.31026702514221
 51
90.689732974857804
  0
LINE
  8
OUTLINE
  6
CONTINUOUS
 62
     3
 10
12.51987282000027
 20
109.6768311913015
 30
0.0
 11
14.520307183099019
 21
111.6772655543996
 31
0.0
  0
LINE
  8
OUTLINE
  6
CONTINUOUS
 62
     3
 10
65.103338664000148
 20
110.677048372901
 30
0.0
 11
64.103121482401548
 21
111.6772655543996
 31
0.0
  0
LINE
  8
OUTLINE
  6
CONTINUOUS
 62
     3
 10
-64.103121482402798
 20
-111.6772655543989
 30
0.0
 11
-52.58346584390199
 21
-111.6772655543989
 31
0.0
  0
LINE
  8
OUTLINE
  6
CONTINUOUS
 62
     3
 10
-27.543720204001598
 20
-111.6772655543991
 30
0.0
 11
-14.52030718310016
 21
-111.6772655543994
 31
0.0
  0
LINE
  8
OUTLINE
  6
CONTINUOUS
 62
     3
 10
-10.51669316880111
 20
-105.6677266007998
 30
0.0
 11
-0.0000000000011369
 21
-105.6677266007998
 31
0.0
  0
LINE
  8
OUTLINE
  6
CONTINUOUS
 62
     3
 10
-12.51987282000141
 20
-107.67090625200009
 30
0.0
 11
-12.51987282000141
 21
-109.6768311913013
 31
0.0
  0
LINE
  8
OUTLINE
  6
CONTINUOUS
 62
     3
 10
-65.103338664001171
 20
-110.6770483729001
 30
0.0
 11
-65.103338664001171
 21
-109.6740859031993
 31
0.0
  0
ARC
  8
OUTLINE
  6
CONTINUOUS
 62
     3
 10
-10.51669316880111
 20
-107.67090625200009
 30
0.0
 40
2.003179651200008
 50
90.0
 51
180.0
  0
ARC
  8
OUTLINE
  6
CONTINUOUS
 62
     3
 10
-40.063593024001079
 20
-33.928855342199313
 30
0.0
 40
78.750000037800092
 50
260.85215748020488
 51
264.84737180510558
  0
ARC
  8
OUTLINE
  6
CONTINUOUS
 62
     3
 10
-40.063593024001079
 20
-33.928855342199313
 30
0.0
 40
78.750000037800262
 50
275.15262819489442
 51
279.14784251979512
  0
ARC
  8
OUTLINE
  6
CONTINUOUS
 62
     3
 10
-40.063593023991189
 20
475.11770373004771
 30
0.0
 40
587.52089989640638
 50
269.3102670251422
 51
270.68973297483183
  0
LINE
  8
OUTLINE
  6
CONTINUOUS
 62
     3
 10
-12.51987282000141
 20
-109.6768311913013
 30
0.0
 11
-14.52030718310016
 21
-111.6772655543994
 31
0.0
  0
LINE
  8
OUTLINE
  6
CONTINUOUS
 62
     3
 10
-65.103338664001171
 20
-110.6770483729001
 30
0.0
 11
-64.103121482402798
 21
-111.6772655543989
 31
0.0
  0
LINE
  8
OUTLINE
  6
CONTINUOUS
 62
     3
 10
64.103121482400638
 20
-111.67726555440019
 30
0.0
 11
52.58346584389983
 21
-111.6772655543999
 31
0.0
  0
LINE
  8
OUTLINE
  6
CONTINUOUS
 62
     3
 10
27.543720203999101
 20
-111.6772655543997
 30
0.0
 11
14.520307183098341
 21
-111.6772655543997
 31
0.0
  0
LINE
  8
OUTLINE
  6
CONTINUOUS
 62
     3
 10
10.51669316879884
 20
-105.66772660080019
 30
0.0
 11
-0.0000000000011369
 21
-105.6677266007998
 31
0.0
  0
LINE
  8
OUTLINE
  6
CONTINUOUS
 62
     3
 10
12.51987281999914
 20
-107.67090625200061
 30
0.0
 11
12.51987281999914
 21
-109.6768311913016
 31
0.0
  0
LINE
  8
OUTLINE
  6
CONTINUOUS
 62
     3
 10
65.103338663999239
 20
-110.6770483729016
 30
0.0
 11
65.103338663999239
 21
-109.6740859032008
 31
0.0
  0
ARC
  8
OUTLINE
  6
CONTINUOUS
 62
     3
 10
10.51669316879884
 20
-107.67090625200061
 30
0.0
 40
2.003179651200008
 50
0.0
 51
90.0
  0
ARC
  8
OUTLINE
  6
CONTINUOUS
 62
     3
 10
40.063593024000511
 20
-33.928855342200222
 30
0.0
 40
78.750000037800092
 50
275.15262819489442
 51
279.14784251979512
  0
ARC
  8
OUTLINE
  6
CONTINUOUS
 62
     3
 10
40.063593024000511
 20
-33.928855342200222
 30
0.0
 40
78.750000037800262
 50
260.85215748020488
 51
264.84737180510558
  0
ARC
  8
OUTLINE
  6
CONTINUOUS
 62
     3
 10
40.063593024000738
 20
475.11770373004668
 30
0.0
 40
587.52089989640638
 50
269.3102670251422
 51
270.6897329748578
  0
LINE
  8
OUTLINE
  6
CONTINUOUS
 62
     3
 10
12.51987281999914
 20
-109.6768311913016
 30
0.0
 11
14.520307183098341
 21
-111.6772655543997
 31
0.0
  0
LINE
  8
OUTLINE
  6
CONTINUOUS
 62
     3
 10
65.103338663999239
 20
-110.6770483729016
 30
0.0
 11
64.103121482400638
 21
-111.67726555440019
 31
0.0
  0
LINE
  8
OUTLINE
  6
CONTINUOUS
 62
     3
 10
89.141494478399864
 20
-109.6740859031999
 30
0.0
 11
65.103338664000148
 21
-109.6740859031999
 31
0.0
  0
LINE
  8
OUTLINE
  6
CONTINUOUS
 62
     3
 10
90.143084304000695
 20
-111.67726555440019
 30
0.0
 11
101.66136729840041
 21
-111.67726555440019
 31
0.0
  0
LINE
  8
OUTLINE
  6
CONTINUOUS
 62
     3
 10
109.67408590320041
 20
-89.14149447839975
 30
0.0
 11
109.67408590320041
 21
-65.103338663999807
 31
0.0
  0
LINE
  8
OUTLINE
  6
CONTINUOUS
 62
     3
 10
111.6772655543998
 20
-90.14171165999926
 30
0.0
 11
111.6772655543998
 21
-101.66136729839999
 31
0.0
  0
ARC
  8
OUTLINE
  6
CONTINUOUS
 62
     3
 10
101.66136729840041
 20
-101.66136729839999
 30
0.0
 40
10.015898256000041
 50
270.0
 51
0.0
  0
ARC
  8
OUTLINE
  6
CONTINUOUS
 62
     3
 10
101.66136729840041
 20
-101.66136729839999
 30
0.0
 40
10.015898255999989
 50
270.0
 51
0.0
  0
LINE
  8
OUTLINE
  6
CONTINUOUS
 62
     3
 10
101.66136729840041
 20
-111.67726555440019
 30
0.0
 11
90.141711659999601
 21
-111.67726555440019
 31
0.0
  0
LINE
  8
OUTLINE
  6
CONTINUOUS
 62
     3
 10
65.103338664000148
 20
-109.6740859031999
 30
0.0
 11
89.141494478399864
 21
-109.6740859031999
 31
0.0
  0
LINE
  8
OUTLINE
  6
CONTINUOUS
 62
     3
 10
109.67408590320041
 20
-89.14149447839975
 30
0.0
 11
109.67408590320041
 21
-65.103338663999807
 31
0.0
  0
LINE
  8
OUTLINE
  6
CONTINUOUS
 62
     3
 10
111.6772655543998
 20
-90.141711659899215
 30
0.0
 11
111.6772655543998
 21
-101.66136729839999
 31
0.0
  0
LINE
  8
OUTLINE
  6
CONTINUOUS
 62
     3
 10
101.66136729840041
 20
111.6772655543994
 30
0.0
 11
90.141711659899556
 21
111.6772655543996
 31
0.0
  0
LINE
  8
OUTLINE
  6
CONTINUOUS
 62
     3
 10
65.103338664000148
 20
109.67408590320019
 30
0.0
 11
89.141494478399864
 21
109.67408590320019
 31
0.0
  0
LINE
  8
OUTLINE
  6
CONTINUOUS
 62
     3
 10
109.67408590320041
 20
89.141494478399864
 30
0.0
 11
109.67408590320041
 21
65.103338663999466
 31
0.0
  0
LINE
  8
OUTLINE
  6
CONTINUOUS
 62
     3
 10
111.6772655543998
 20
90.141711659998919
 30
0.0
 11
111.6772655543998
 21
101.6613672983997
 31
0.0
  0
ARC
  8
OUTLINE
  6
CONTINUOUS
 62
     3
 10
101.66136729840041
 20
101.6613672983997
 30
0.0
 40
10.01589825600001
 50
0.0
 51
90.0
  0
LINE
  8
OUTLINE
  6
CONTINUOUS
 62
     3
 10
90.141711659899556
 20
111.6772655543996
 30
0.0
 11
89.141494478399864
 21
109.67408590320019
 31
0.0
  0
LINE
  8
OUTLINE
  6
CONTINUOUS
 62
     3
 10
111.6772655543998
 20
90.141711659998919
 30
0.0
 11
109.67408590320041
 21
89.141494478399864
 31
0.0
  0
LINE
  8
OUTLINE
  6
CONTINUOUS
 62
     3
 10
90.141711659899556
 20
-111.6772655543997
 30
0.0
 11
89.141494478399864
 21
-109.67408590320029
 31
0.0
  0
LINE
  8
OUTLINE
  6
CONTINUOUS
 62
     3
 10
111.6772655543998
 20
-90.14171165999926
 30
0.0
 11
109.67408590320041
 21
-89.141494478400205
 31
0.0
  0
LINE
  8
OUTLINE
  6
CONTINUOUS
 62
     3
 10
109.67408590320041
 20
-89.14149447839975
 30
0.0
 11
109.67408590320041
 21
-65.103338663999807
 31
0.0
  0
LINE
  8
OUTLINE
  6
CONTINUOUS
 62
     3
 10
109.67408590320041
 20
-89.14149447839975
 30
0.0
 11
109.67408590320041
 21
-65.103338663999807
 31
0.0
  0
LINE
  8
OUTLINE
  6
CONTINUOUS
 62
     3
 10
109.676831191302
 20
12.51987282000005
 30
0.0
 11
107.67090625200009
 21
12.51987282000005
 31
0.0
  0
LINE
  8
OUTLINE
  6
CONTINUOUS
 62
     3
 10
109.67408590320041
 20
89.141494478399864
 30
0.0
 11
109.67408590320041
 21
65.103338663999466
 31
0.0
  0
LINE
  8
OUTLINE
  6
CONTINUOUS
 62
     3
 10
111.6772655543998
 20
14.52030718309857
 30
0.0
 11
111.6772655543998
 21
27.543720204100051
 31
0.0
  0
LINE
  8
OUTLINE
  6
CONTINUOUS
 62
     3
 10
111.6772655543998
 20
52.583465843899603
 30
0.0
 11
111.6772655543998
 21
64.10312148250091
 31
0.0
  0
ARC
  8
OUTLINE
  6
CONTINUOUS
 62
     3
 10
33.928855342200222
 20
40.063593024000063
 30
0.0
 40
78.750000037800049
 50
350.85215748020539
 51
354.84737180510558
  0
ARC
  8
OUTLINE
  6
CONTINUOUS
 62
     3
 10
33.928855342200222
 20
40.063593024000063
 30
0.0
 40
78.750000037799992
 50
5.1526281948943877
 51
9.1478425197946187
  0
ARC
  8
OUTLINE
  6
CONTINUOUS
 62
     3
 10
-475.11753563225187
 20
40.063593024000284
 30
0.0
 40
587.5207318107914
 50
359.3102668278126
 51
0.6897331721873899
  0
ARC
  8
OUTLINE
  6
CONTINUOUS
 62
     3
 10
107.67090625200009
 20
10.516693168800201
 30
0.0
 40
2.003179651200008
 50
90.0
 51
180.0
  0
LINE
  8
OUTLINE
  6
CONTINUOUS
 62
     3
 10
111.6772655543998
 20
64.10312148250091
 30
0.0
 11
109.67408590320041
 21
65.103338663999466
 31
0.0
  0
LINE
  8
OUTLINE
  6
CONTINUOUS
 62
     3
 10
111.6772655543998
 20
14.52030718309857
 30
0.0
 11
109.676831191302
 21
12.51987282000005
 31
0.0
  0
LINE
  8
OUTLINE
  6
CONTINUOUS
 62
     3
 10
109.676831191302
 20
-12.519872820000501
 30
0.0
 11
107.67090625200009
 21
-12.519872820000501
 31
0.0
  0
LINE
  8
OUTLINE
  6
CONTINUOUS
 62
     3
 10
111.6772655543998
 20
-14.520307183099019
 30
0.0
 11
111.6772655543998
 21
-27.543720204100509
 31
0.0
  0
LINE
  8
OUTLINE
  6
CONTINUOUS
 62
     3
 10
111.6772655543998
 20
-52.583465843899937
 30
0.0
 11
111.6772655543998
 21
-64.103121482501251
 31
0.0
  0
ARC
  8
OUTLINE
  6
CONTINUOUS
 62
     3
 10
33.928855342200222
 20
-40.06359302400017
 30
0.0
 40
78.750000037800049
 50
5.1526281948943877
 51
9.1478425197946187
  0
ARC
  8
OUTLINE
  6
CONTINUOUS
 62
     3
 10
33.928855342200222
 20
-40.06359302400017
 30
0.0
 40
78.750000037799992
 50
350.85215748020539
 51
354.84737180510558
  0
ARC
  8
OUTLINE
  6
CONTINUOUS
 62
     3
 10
-475.11753563225187
 20
-40.063593023999722
 30
0.0
 40
587.5207318107914
 50
359.3102668278126
 51
0.6897331721873899
  0
ARC
  8
OUTLINE
  6
CONTINUOUS
 62
     3
 10
107.67090625200009
 20
-10.516693168800661
 30
0.0
 40
2.003179651200008
 50
180.0
 51
270.0
  0
LINE
  8
OUTLINE
  6
CONTINUOUS
 62
     3
 10
111.6772655543998
 20
-64.103121482501251
 30
0.0
 11
109.67408590320041
 21
-65.103338663999807
 31
0.0
  0
LINE
  8
OUTLINE
  6
CONTINUOUS
 62
     3
 10
111.6772655543998
 20
-14.520307183099019
 30
0.0
 11
109.676831191302
 21
-12.519872820000501
 31
0.0
  0
CIRCLE
  8
FIX
  6
CONTINUOUS
 62
    11
 10
22.03497616320055
 20
-96.152623257599885
 30
0.0
 40
5.0
  0
LINE
  8
SIZE
  6
CONTINUOUS
 62
    30
 10
0.0
 20
-235.54213046912039
 30
0.0
 11
0.0
 21
-331.04386584196209
 31
0.0
  0
LINE
  8
SIZE
  6
CONTINUOUS
 62
    30
 10
22.03497616320055
 20
-131.31955065505841
 30
0.0
 11
22.03497616320033
 21
-331.04386584196209
 31
0.0
  0
LINE
  8
SIZE
  6
CONTINUOUS
 62
    30
 10
-12.0
 20
-311.04386584196209
 30
0.0
 11
-24.0
 21
-311.04386584196209
 31
0.0
  0
LINE
  8
SIZE
  6
CONTINUOUS
 62
    30
 10
34.034976163200326
 20
-311.04386584196209
 30
0.0
 11
193.07203474803009
 21
-311.04386584196209
 31
0.0
  0
LINE
  8
SIZE
  6
CONTINUOUS
 62
    30
 10
0.0
 20
-311.04386584196209
 30
0.0
 11
22.03497616320033
 21
-311.04386584196209
 31
0.0
  0
CIRCLE
  8
SIZE
  6
CONTINUOUS
 62
    30
 10
0.0
 20
-311.04386584196209
 30
0.0
 40
6.0
  0
LINE
  8
SIZE
  6
CONTINUOUS
 62
    30
 10
0.0
 20
-311.04386584196209
 30
0.0
 11
-12.0
 21
-311.04386584196209
 31
0.0
  0
CIRCLE
  8
SIZE
  6
CONTINUOUS
 62
    30
 10
22.03497616320033
 20
-311.04386584196209
 30
0.0
 40
6.0
  0
LINE
  8
SIZE
  6
CONTINUOUS
 62
    30
 10
22.03497616320033
 20
-311.04386584196209
 30
0.0
 11
34.034976163200326
 21
-311.04386584196209
 31
0.0
  0
TEXT
  8
SIZE
  6
CONTINUOUS
 62
    30
 10
74.814891890887296
 20
-286.04386584196209
 30
0.0
 40
64.0
  1
22
 41
0.9
 72
     1
 11
121.4434633194587
 21
-286.04386584196209
 31
0.0
  0
POINT
  8
DEFPOINTS
  6
CONTINUOUS
 62
    30
 10
0.0
 20
-215.54213046912039
 30
0.0
  0
POINT
  8
DEFPOINTS
  6
CONTINUOUS
 62
    30
 10
22.03497616320055
 20
-111.31955065505841
 30
0.0
  0
POINT
  8
DEFPOINTS
  6
CONTINUOUS
 62
    30
 10
22.03497616320033
 20
-311.04386584196209
 30
0.0
  0
LINE
  8
SIZE
  6
CONTINUOUS
 62
    30
 10
176.37648969774179
 20
0.0
 30
0.0
 11
321.14602744922189
 21
0.0
 31
0.0
  0
LINE
  8
SIZE
  6
CONTINUOUS
 62
    30
 10
57.201903560658138
 20
-96.152623257599885
 30
0.0
 11
321.14602744922189
 21
-96.152623257599998
 31
0.0
  0
LINE
  8
SIZE
  6
CONTINUOUS
 62
    30
 10
301.14602744922189
 20
-84.152623257599998
 30
0.0
 11
301.14602744922189
 21
-12.0
 31
0.0
  0
LINE
  8
SIZE
  6
CONTINUOUS
 62
    30
 10
301.14602744922189
 20
0.0
 30
0.0
 11
301.14602744922189
 21
267.77304098495188
 31
0.0
  0
CIRCLE
  8
SIZE
  6
CONTINUOUS
 62
    30
 10
301.14602744922189
 20
-96.152623257599998
 30
0.0
 40
6.0
  0
LINE
  8
SIZE
  6
CONTINUOUS
 62
    30
 10
301.14602744922189
 20
-96.152623257599998
 30
0.0
 11
301.14602744922189
 21
-84.152623257599998
 31
0.0
  0
CIRCLE
  8
SIZE
  6
CONTINUOUS
 62
    30
 10
301.14602744922189
 20
0.0
 30
0.0
 40
6.0
  0
LINE
  8
SIZE
  6
CONTINUOUS
 62
    30
 10
301.14602744922189
 20
0.0
 30
0.0
 11
301.14602744922189
 21
-12.0
 31
0.0
  0
TEXT
  8
SIZE
  6
CONTINUOUS
 62
    30
 10
276.14602744922189
 20
152.25875527066631
 30
0.0
 40
64.0
  1
96
 50
90.0
 41
0.9
 72
     1
 11
276.14602744922189
 21
197.51589812780909
 31
0.0
  0
POINT
  8
DEFPOINTS
  6
CONTINUOUS
 62
    30
 10
156.37648969774179
 20
0.0
 30
0.0
  0
POINT
  8
DEFPOINTS
  6
CONTINUOUS
 62
    30
 10
37.201903560657911
 20
-96.152623257599885
 30
0.0
  0
POINT
  8
DEFPOINTS
  6
CONTINUOUS
 62
    30
 10
301.14602744922189
 20
-96.152623257599998
 30
0.0
  0
ENDSEC
  0
EOF
