  0
SECTION
  2
HEADER
  9
$ACADVER
  1
AC1009
  9
$DWGCODEPAGE
  3
dos932
  9
$INSBASE
 10
0.0
 20
0.0
 30
0.0
  9
$EXTMIN
 10
-513.0065751064194
 20
-858.12376807225337
 30
-0.0015258207003583
  9
$EXTMAX
 10
1251.2466548956529
 20
532.88269838421002
 30
0.0000000349246037
  9
$LIMMIN
 10
-2970.0
 20
-2100.0
  9
$LIMMAX
 10
2970.0
 20
2100.0
  9
$ORTHOMODE
 70
     1
  9
$REGENMODE
 70
     1
  9
$FILLMODE
 70
     1
  9
$QTEXTMODE
 70
     0
  9
$MIRRTEXT
 70
     0
  9
$LTSCALE
 40
20.0
  9
$ATTMODE
 70
     1
  9
$TEXTSIZE
 40
64.0
  9
$TRACEWID
 40
0.05
  9
$TEXTSTYLE
  7
STANDARD
  9
$CLAYER
  8
SIZE
  9
$CELTYPE
  6
CONTINUOUS
  9
$CECOLOR
 62
     7
  9
$DIMSCALE
 40
1.0
  9
$DIMASZ
 40
12.0
  9
$DIMEXO
 40
20.0
  9
$DIMDLI
 40
200.0
  9
$DIMRND
 40
0.0
  9
$DIMDLE
 40
0.0
  9
$DIMEXE
 40
20.0
  9
$DIMTP
 40
0.0
  9
$DIMTM
 40
0.0
  9
$DIMTXT
 40
64.0
  9
$DIMCEN
 40
0.09
  9
$DIMTSZ
 40
0.0
  9
$DIMTOL
 70
     0
  9
$DIMLIM
 70
     0
  9
$DIMTIH
 70
     0
  9
$DIMTOH
 70
     0
  9
$DIMSE1
 70
     0
  9
$DIMSE2
 70
     0
  9
$DIMTAD
 70
     1
  9
$DIMZIN
 70
     8
  9
$DIMBLK
  1

  9
$DIMASO
 70
     1
  9
$DIMSHO
 70
     0
  9
$DIMPOST
  1

  9
$DIMAPOST
  1

  9
$DIMALT
 70
     0
  9
$DIMALTD
 70
     2
  9
$DIMALTF
 40
25.399999999999999
  9
$DIMLFAC
 40
1.0
  9
$DIMTOFL
 70
     1
  9
$DIMTVP
 40
0.0
  9
$DIMTIX
 70
     1
  9
$DIMSOXD
 70
     0
  9
$DIMSAH
 70
     0
  9
$DIMBLK1
  1

  9
$DIMBLK2
  1

  9
$DIMSTYLE
  2
STANDARD
  9
$DIMCLRD
 70
     7
  9
$DIMCLRE
 70
     7
  9
$DIMCLRT
 70
     7
  9
$DIMTFAC
 40
1.0
  9
$DIMGAP
 40
25.0
  9
$LUNITS
 70
     2
  9
$LUPREC
 70
     4
  9
$SKETCHINC
 40
0.1
  9
$FILLETRAD
 40
3.0
  9
$AUNITS
 70
     1
  9
$AUPREC
 70
     3
  9
$MENU
  1
ACAD
  9
$ELEVATION
 40
0.0
  9
$PELEVATION
 40
0.0
  9
$THICKNESS
 40
0.0
  9
$LIMCHECK
 70
     0
  9
$CHAMFERA
 40
0.0
  9
$CHAMFERB
 40
0.0
  9
$SKPOLY
 70
     0
  9
$TDCREATE
 40
2453019.62301037
  9
$TDUPDATE
 40
2459025.49074007
  9
$TDINDWG
 40
1.7130020949
  9
$TDUSRTIMER
 40
1.7130020949
  9
$USRTIMER
 70
     1
  9
$ANGBASE
 50
0.0
  9
$ANGDIR
 70
     0
  9
$PDMODE
 70
     3
  9
$PDSIZE
 40
-2.0
  9
$PLINEWID
 40
0.0
  9
$SPLFRAME
 70
     0
  9
$SPLINETYPE
 70
     6
  9
$SPLINESEGS
 70
     8
  9
$SURFTAB1
 70
     6
  9
$SURFTAB2
 70
     6
  9
$SURFTYPE
 70
     6
  9
$SURFU
 70
     6
  9
$SURFV
 70
     6
  9
$UCSNAME
  2

  9
$UCSORG
 10
0.0
 20
0.0
 30
0.0
  9
$UCSXDIR
 10
1.0
 20
0.0
 30
0.0
  9
$UCSYDIR
 10
0.0
 20
1.0
 30
0.0
  9
$PUCSNAME
  2

  9
$PUCSORG
 10
0.0
 20
0.0
 30
0.0
  9
$PUCSXDIR
 10
1.0
 20
0.0
 30
0.0
  9
$PUCSYDIR
 10
0.0
 20
1.0
 30
0.0
  9
$USERI1
 70
     0
  9
$USERI2
 70
     0
  9
$USERI3
 70
     0
  9
$USERI4
 70
     0
  9
$USERI5
 70
     0
  9
$USERR1
 40
20.0
  9
$USERR2
 40
0.0
  9
$USERR3
 40
0.0
  9
$USERR4
 40
0.0
  9
$USERR5
 40
0.0
  9
$WORLDVIEW
 70
     1
  9
$SHADEDGE
 70
     3
  9
$SHADEDIF
 70
    70
  9
$TILEMODE
 70
     1
  9
$MAXACTVP
 70
    48
  9
$PINSBASE
 10
0.0
 20
0.0
 30
0.0
  9
$PLIMCHECK
 70
     0
  9
$PEXTMIN
 10
-100000000000000000000.0
 20
-100000000000000000000.0
 30
-100000000000000000000.0
  9
$PEXTMAX
 10
100000000000000000000.0
 20
100000000000000000000.0
 30
100000000000000000000.0
  9
$PLIMMIN
 10
0.0
 20
0.0
  9
$PLIMMAX
 10
12.0
 20
9.0
  9
$UNITMODE
 70
     0
  9
$VISRETAIN
 70
     0
  9
$PLINEGEN
 70
     0
  9
$PSLTSCALE
 70
     0
  9
$TREEDEPTH
 70
  3020
  9
$ATTDIA
 70
     0
  9
$ATTREQ
 70
     1
  9
$BLIPMODE
 70
     1
  9
$COORDS
 70
     1
  9
$DRAGMODE
 70
     2
  9
$OSMODE
 70
     0
  9
$HANDLING
 70
     0
  9
$HANDSEED
  5
EF74
  0
ENDSEC
  0
SECTION
  2
TABLES
  0
TABLE
  2
LTYPE
 70
     3
  0
LTYPE
  2
CONTINUOUS
 70
     0
  3
実線
 72
    65
 73
     0
 40
0.0
  0
LTYPE
  2
DASHDOT
 70
     0
  3
____ _ ____ _ ____ _ ____ _ ____ _ ____ _ ____
 72
    65
 73
     4
 40
5.5
 49
4.0
 49
-0.6
 49
0.3
 49
-0.6
  0
LTYPE
  2
CENTER
 70
     0
  3
Center ____ _ ____ _ ____ _ ____ _ ____ _ ____
 72
    65
 73
     4
 40
1.0
 49
0.5
 49
-0.25
 49
0.0
 49
-0.25
  0
ENDTAB
  0
TABLE
  2
LAYER
 70
    12
  0
LAYER
  2
0
 70
     0
 62
     7
  6
CONTINUOUS
  0
LAYER
  2
BASIS
 70
     0
 62
     6
  6
DASHDOT
  0
LAYER
  2
OUTLINE
 70
     0
 62
     3
  6
CONTINUOUS
  0
LAYER
  2
DETAIL
 70
     0
 62
     5
  6
CONTINUOUS
  0
LAYER
  2
SIZE
 70
     0
 62
    30
  6
CONTINUOUS
  0
LAYER
  2
ARRANGE
 70
     0
 62
     1
  6
CONTINUOUS
  0
LAYER
  2
DEFPOINTS
 70
     0
 62
     7
  6
CONTINUOUS
  0
LAYER
  2
ETC
 70
     0
 62
    61
  6
CONTINUOUS
  0
LAYER
  2
FIX
 70
     0
 62
    11
  6
CONTINUOUS
  0
LAYER
  2
NOTE
 70
     0
 62
     4
  6
CONTINUOUS
  0
LAYER
  2
SERVICESPACE
 70
    64
 62
     2
  6
DASHDOT
  0
LAYER
  2
SYMBOLLINE
 70
    64
 62
    15
  6
CONTINUOUS
  0
ENDTAB
  0
TABLE
  2
STYLE
 70
     1
  0
STYLE
  2
STANDARD
 70
     0
 40
64.0
 41
0.9
 50
0.0
 71
     0
 42
64.0
  3
SIMPLEX.shx
  4
BIGFONT.shx
  0
ENDTAB
  0
TABLE
  2
APPID
 70
    19
  0
APPID
  2
ACAD
 70
     0
  0
APPID
  2
AUTOCAD_POSTSCRIPT_FIGURE
 70
     0
  0
APPID
  2
ACAD_EXEMPT_FROM_CAD_STANDARDS
 70
     0
  0
APPID
  2
ACAD_PSEXT
 70
     0
  0
APPID
  2
ACAUTHENVIRON
 70
     0
  0
APPID
  2
GENIUS_GENOENT_13
 70
     0
  0
APPID
  2
GENIUS_GENCFG_13
 70
     0
  0
APPID
  2
GENIUS_GENCFG0_13
 70
     0
  0
APPID
  2
GENIUS_GENCFG1_13
 70
     0
  0
APPID
  2
GENIUS_GENCFG2_13
 70
     0
  0
APPID
  2
GENIUS_GENCFG3_13
 70
     0
  0
APPID
  2
GENIUS_GENCFG4_13
 70
     0
  0
APPID
  2
GENIUS_GEVCFG0_13
 70
     0
  0
APPID
  2
CONTENTBLOCKICON
 70
     0
  0
APPID
  2
CONTENTBLOCKDESCRIPTION
 70
     0
  0
APPID
  2
ACAD_NAV_VCDISPLAY
 70
     0
  0
APPID
  2
ACAD_MLEADERVER
 70
     0
  0
APPID
  2
ACDBDYNAMICBLOCKTRUENAME
 70
     0
  0
APPID
  2
ACDBDYNAMICBLOCKGUID
 70
     0
  0
ENDTAB
  0
TABLE
  2
DIMSTYLE
 70
     1
  0
DIMSTYLE
  2
STANDARD
 70
     0
  3

  4

  5
_ORIGIN
  6

  7

 40
1.0
 41
12.0
 42
20.0
 43
200.0
 44
20.0
 45
0.0
 46
0.0
 47
0.0
 48
0.0
140
64.0
141
0.09
142
0.0
143
25.399999999999999
144
1.0
145
0.0
146
1.0
147
25.0
 71
     0
 72
     0
 73
     0
 74
     0
 75
     0
 76
     0
 77
     1
 78
     8
170
     0
171
     2
172
     1
173
     0
174
     1
175
     0
176
     7
177
     7
178
     7
  0
ENDTAB
  0
TABLE
  2
VIEW
 70
     1
  0
VIEW
  2
ALL
 70
     0
 40
4282.6198079999986
 10
0.0
 20
41.309904000000003
 41
5940.0
 11
0.0
 21
0.0
 31
1.0
 12
0.0
 22
0.0
 32
0.0
 42
50.0
 43
0.0
 44
0.0
 50
0.0
 71
     0
  0
ENDTAB
  0
TABLE
  2
UCS
 70
     0
  0
ENDTAB
  0
TABLE
  2
VPORT
 70
     1
  0
VPORT
  2
*ACTIVE
 70
     0
 10
0.0
 20
0.0
 11
1.0
 21
1.0
 12
369.12003989461692
 22
-162.62053484402171
 13
0.0
 23
0.0
 14
1.0
 24
1.0
 15
0.0
 25
0.0
 16
0.0
 26
0.0
 36
1.0
 17
0.0
 27
0.0
 37
0.0
 40
1400.2286087755119
 41
1.747787610619469
 42
50.0
 43
0.0
 44
0.0
 50
0.0
 51
0.0
 71
     0
 72
  1000
 73
     1
 74
     3
 75
     0
 76
     0
 77
     0
 78
     0
  0
ENDTAB
  0
ENDSEC
  0
SECTION
  2
BLOCKS
  0
BLOCK
  8
0
  2
_ORIGIN
 70
     0
 10
0.0
 20
0.0
 30
0.0
  3
_ORIGIN
  1
_ORIGIN
  0
CIRCLE
  8
0
  6
CONTINUOUS
 62
     7
 10
0.0
 20
0.0
 30
0.0
 40
0.5
  0
LINE
  8
0
  6
CONTINUOUS
 62
     7
 10
0.0
 20
0.0
 30
0.0
 11
-1.0
 21
0.0
 31
0.0
  0
ENDBLK
  8
0
  0
ENDSEC
  0
SECTION
  2
ENTITIES
  0
TEXT
  8
ETC
  6
CONTINUOUS
 62
    61
 10
605.17626597784511
 20
468.5630474676409
 30
0.0
 40
64.0
  1
VD-10ZVC6_1
 41
0.9
  0
TEXT
  8
ETC
  6
CONTINUOUS
 62
    61
 10
602.96785497784504
 20
367.92200146764071
 30
0.0
 40
64.0
  1
換気扇
 41
0.9
  0
POINT
  8
ARRANGE
  6
CONTINUOUS
 62
     1
 10
0.0
 20
0.0
 30
0.0
  0
CIRCLE
  8
ARRANGE
  6
CONTINUOUS
 62
     1
 10
0.0
 20
0.0
 30
0.0
 40
40.0
  0
TEXT
  8
NOTE
  6
CONTINUOUS
 62
     4
 10
-44.726985934042197
 20
-287.11926013663259
 30
0.0
 40
64.0
  1
EA
 41
0.9
  0
TEXT
  8
NOTE
  6
CONTINUOUS
 62
     4
 10
348.96606389379491
 20
-445.82130685288422
 30
0.0
 40
64.0
  1
EL
 41
0.9
  0
LINE
  8
NOTE
  6
CONTINUOUS
 62
     4
 10
472.10912165482159
 20
-479.69125120116053
 30
0.0
 11
303.58463012840281
 21
-479.69125120111801
 31
0.0
  0
LINE
  8
NOTE
  6
CONTINUOUS
 62
     4
 10
68.99172499999986
 20
-46.494419999999991
 30
0.0
 11
303.58463012840281
 21
-479.69125120111801
 31
0.0
  0
LINE
  8
NOTE
  6
CONTINUOUS
 62
     4
 10
68.99172499999986
 20
-46.494419999999991
 30
0.0
 11
97.065099044112685
 21
-73.13836918745028
 31
0.0
  0
LINE
  8
NOTE
  6
CONTINUOUS
 62
     4
 10
76.294287394578532
 20
-85.752469703845691
 30
0.0
 11
68.99172499999986
 21
-46.494419999999991
 31
0.0
  0
ARC
  8
DETAIL
  6
CONTINUOUS
 62
     5
 10
85.0
 20
-85.0
 30
0.0
 40
2.0
 50
270.0
 51
0.0
  0
LINE
  8
DETAIL
  6
CONTINUOUS
 62
     5
 10
65.109654999999748
 20
-87.0
 30
0.0
 11
85.0
 21
-87.0
 31
0.0
  0
ARC
  8
DETAIL
  6
CONTINUOUS
 62
     5
 10
-85.0
 20
-85.0
 30
0.0
 40
2.0
 50
180.0
 51
270.0
  0
ARC
  8
DETAIL
  6
CONTINUOUS
 62
     5
 10
-72.0
 20
72.0
 30
0.0
 40
15.0
 50
90.0
 51
180.0
  0
ARC
  8
DETAIL
  6
CONTINUOUS
 62
     5
 10
72.0
 20
72.0
 30
0.0
 40
15.0
 50
0.0
 51
90.0
  0
LINE
  8
DETAIL
  6
CONTINUOUS
 62
     5
 10
-85.0
 20
-87.0
 30
0.0
 11
-65.109656000000086
 21
-87.0
 31
0.0
  0
LINE
  8
DETAIL
  6
CONTINUOUS
 62
     5
 10
-72.0
 20
87.0
 30
0.0
 11
72.0
 21
87.0
 31
0.0
  0
LINE
  8
DETAIL
  6
CONTINUOUS
 62
     5
 10
87.0
 20
-85.0
 30
0.0
 11
87.0
 21
72.0
 31
0.0
  0
LINE
  8
DETAIL
  6
CONTINUOUS
 62
     5
 10
-87.0
 20
-85.0
 30
0.0
 11
-87.0
 21
72.0
 31
0.0
  0
ARC
  8
OUTLINE
  6
CONTINUOUS
 62
     3
 10
-67.643026000000191
 20
-129.54495900000009
 30
0.0
 40
14.970775
 50
0.9999999999887361
 51
17.156652000002701
  0
LINE
  8
OUTLINE
  6
CONTINUOUS
 62
     3
 10
-53.338424000000032
 20
-125.1288009999998
 30
0.0
 11
-53.378188000000137
 21
-125.0
 31
0.0
  0
LINE
  8
OUTLINE
  6
CONTINUOUS
 62
     3
 10
53.338422999999693
 20
-125.1288009999998
 30
0.0
 11
53.378186999999798
 21
-125.0
 31
0.0
  0
ARC
  8
OUTLINE
  6
CONTINUOUS
 62
     3
 10
67.643025999999736
 20
-129.54495900000009
 30
0.0
 40
14.970775
 50
162.84334799999729
 51
178.99999999999829
  0
LINE
  8
OUTLINE
  6
CONTINUOUS
 62
     3
 10
0.0
 20
125.0
 30
0.0
 11
124.0
 21
125.0
 31
0.0
  0
LINE
  8
OUTLINE
  6
CONTINUOUS
 62
     3
 10
125.0
 20
124.0
 30
0.0
 11
125.0
 21
0.0
 31
0.0
  0
ARC
  8
OUTLINE
  6
CONTINUOUS
 62
     3
 10
124.0
 20
124.0
 30
0.0
 40
1.0
 50
0.0
 51
90.0
  0
LINE
  8
OUTLINE
  6
CONTINUOUS
 62
     3
 10
125.0
 20
-124.0
 30
0.0
 11
125.0
 21
0.0
 31
0.0
  0
ARC
  8
OUTLINE
  6
CONTINUOUS
 62
     3
 10
124.0
 20
-124.0
 30
0.0
 40
1.0
 50
270.0
 51
0.0
  0
LINE
  8
OUTLINE
  6
CONTINUOUS
 62
     3
 10
-125.0
 20
-124.0
 30
0.0
 11
-125.0
 21
0.0
 31
0.0
  0
ARC
  8
OUTLINE
  6
CONTINUOUS
 62
     3
 10
-124.0
 20
-124.0
 30
0.0
 40
1.0
 50
180.0
 51
270.0
  0
LINE
  8
OUTLINE
  6
CONTINUOUS
 62
     3
 10
0.0
 20
125.0
 30
0.0
 11
-124.0
 21
125.0
 31
0.0
  0
LINE
  8
OUTLINE
  6
CONTINUOUS
 62
     3
 10
-125.0
 20
124.0
 30
0.0
 11
-125.0
 21
0.0
 31
0.0
  0
ARC
  8
OUTLINE
  6
CONTINUOUS
 62
     3
 10
-124.0
 20
124.0
 30
0.0
 40
1.0
 50
90.0
 51
180.0
  0
ARC
  8
OUTLINE
  6
CONTINUOUS
 62
     3
 10
-48.310035999999847
 20
-195.52579900000001
 30
0.0
 40
0.499026
 50
180.50000000000449
 51
270.0
  0
LINE
  8
OUTLINE
  6
CONTINUOUS
 62
     3
 10
48.310035999999847
 20
-196.02482499999999
 30
0.0
 11
-48.310035999999847
 21
-196.02482499999999
 31
0.0
  0
ARC
  8
OUTLINE
  6
CONTINUOUS
 62
     3
 10
48.310035999999847
 20
-195.52579900000001
 30
0.0
 40
0.499026
 50
270.0
 51
359.49999999999551
  0
LINE
  8
OUTLINE
  6
CONTINUOUS
 62
     3
 10
48.809041999999863
 20
-195.53015400000001
 30
0.0
 11
49.168418000000202
 21
-154.34983099999999
 31
0.0
  0
ARC
  8
OUTLINE
  6
CONTINUOUS
 62
     3
 10
51.164444999999887
 20
-154.36725000000001
 30
0.0
 40
1.996103
 50
160.00000000000159
 51
179.49999999999551
  0
LINE
  8
OUTLINE
  6
CONTINUOUS
 62
     3
 10
49.288720999999903
 20
-153.68454199999999
 30
0.0
 11
52.283464999999978
 21
-145.45655099999999
 31
0.0
  0
ARC
  8
OUTLINE
  6
CONTINUOUS
 62
     3
 10
50.407741999999871
 20
-144.77384299999991
 30
0.0
 40
1.996103
 50
340.00000000000159
 51
358.99999999999818
  0
LINE
  8
OUTLINE
  6
CONTINUOUS
 62
     3
 10
52.403541000000132
 20
-144.80868000000009
 30
0.0
 11
52.674530999999661
 21
-129.283682
 31
0.0
  0
LINE
  8
OUTLINE
  6
CONTINUOUS
 62
     3
 10
-52.403542000000023
 20
-144.80868000000009
 30
0.0
 11
-52.674531999999999
 21
-129.283682
 31
0.0
  0
ARC
  8
OUTLINE
  6
CONTINUOUS
 62
     3
 10
-50.40774300000021
 20
-144.77384299999991
 30
0.0
 40
1.996103
 50
180.99999999998869
 51
199.99999999999841
  0
LINE
  8
OUTLINE
  6
CONTINUOUS
 62
     3
 10
-49.288722000000227
 20
-153.68454199999999
 30
0.0
 11
-52.283465999999862
 21
-145.45655099999999
 31
0.0
  0
ARC
  8
OUTLINE
  6
CONTINUOUS
 62
     3
 10
-51.164446000000233
 20
-154.36725000000001
 30
0.0
 40
1.996103
 50
0.5000000000044884
 51
19.999999999998419
  0
LINE
  8
OUTLINE
  6
CONTINUOUS
 62
     3
 10
-48.809043000000202
 20
-195.53015400000001
 30
0.0
 11
-49.168418000000202
 21
-154.34983099999999
 31
0.0
  0
LINE
  8
OUTLINE
  6
CONTINUOUS
 62
     3
 10
53.378823999999902
 20
-125.0
 30
0.0
 11
124.0
 21
-125.0
 31
0.0
  0
LINE
  8
OUTLINE
  6
CONTINUOUS
 62
     3
 10
-53.378188000000137
 20
-125.0
 30
0.0
 11
-124.0
 21
-125.0
 31
0.0
  0
LINE
  8
BASIS
  6
DASHDOT
 62
     6
 10
-140.68038700000031
 20
0.0
 30
0.0
 11
131.94946399999981
 21
0.0
 31
0.0
  0
LINE
  8
BASIS
  6
DASHDOT
 62
     6
 10
0.0
 20
-208.1727470000001
 30
0.0
 11
0.0
 21
136.680791
 31
0.0
  0
LINE
  8
DETAIL
  6
CONTINUOUS
 62
     5
 10
85.948840000000018
 20
-101.88847100000019
 30
0.0
 11
86.782960999999887
 21
-85.906116999999995
 31
0.0
  0
LINE
  8
DETAIL
  6
CONTINUOUS
 62
     5
 10
-86.894404000000122
 20
-85.641274999999951
 30
0.0
 11
-86.04647900000009
 21
-101.88847100000019
 31
0.0
  0
LINE
  8
DETAIL
  6
CONTINUOUS
 62
     5
 10
-81.881379000000379
 20
-106.152501
 30
0.0
 11
-81.539792999999918
 21
-106.165418
 31
0.0
  0
LINE
  8
DETAIL
  6
CONTINUOUS
 62
     5
 10
65.645738999999594
 20
-85.263543000000027
 30
0.0
 11
-65.646005000000059
 21
-85.262685000000147
 31
0.0
  0
LINE
  8
DETAIL
  6
CONTINUOUS
 62
     5
 10
-82.219740999999885
 20
-106.11391999999999
 30
0.0
 11
-81.881379000000379
 21
-106.152501
 31
0.0
  0
LINE
  8
DETAIL
  6
CONTINUOUS
 62
     5
 10
-53.338424000000032
 20
-125.1288010000001
 30
0.0
 11
-65.646005000000059
 21
-85.262685000000147
 31
0.0
  0
LINE
  8
DETAIL
  6
CONTINUOUS
 62
     5
 10
-82.555946999999833
 20
-106.049483
 30
0.0
 11
-82.219740999999885
 21
-106.11391999999999
 31
0.0
  0
LINE
  8
DETAIL
  6
CONTINUOUS
 62
     5
 10
-48.809043000000202
 20
-195.53015400000001
 30
0.0
 11
-49.168418000000202
 21
-154.34983000000011
 31
0.0
  0
LINE
  8
DETAIL
  6
CONTINUOUS
 62
     5
 10
-82.886790999999903
 20
-105.9597659999999
 30
0.0
 11
-82.555946999999833
 21
-106.049483
 31
0.0
  0
ARC
  8
DETAIL
  6
CONTINUOUS
 62
     5
 10
-51.164446000000233
 20
-154.3672490000001
 30
0.0
 40
1.996103
 50
0.5000000000044884
 51
19.999999999998419
  0
LINE
  8
DETAIL
  6
CONTINUOUS
 62
     5
 10
-83.210054000000127
 20
-105.844965
 30
0.0
 11
-82.886790999999903
 21
-105.9597659999999
 31
0.0
  0
LINE
  8
DETAIL
  6
CONTINUOUS
 62
     5
 10
-49.288722000000227
 20
-153.68454200000019
 30
0.0
 11
-52.283465999999862
 21
-145.45655000000011
 31
0.0
  0
LINE
  8
DETAIL
  6
CONTINUOUS
 62
     5
 10
-83.523838000000069
 20
-105.7060180000001
 30
0.0
 11
-83.210054000000127
 21
-105.844965
 31
0.0
  0
ARC
  8
DETAIL
  6
CONTINUOUS
 62
     5
 10
-50.40774300000021
 20
-144.7738430000002
 30
0.0
 40
1.996103
 50
180.99999999998869
 51
199.99999999999841
  0
LINE
  8
DETAIL
  6
CONTINUOUS
 62
     5
 10
-61.319328000000503
 20
-54.258055000000013
 30
0.0
 11
61.221688999999969
 21
-54.258055000000013
 31
0.0
  0
LINE
  8
DETAIL
  6
CONTINUOUS
 62
     5
 10
-83.826038000000153
 20
-105.54354499999999
 30
0.0
 11
-83.523838000000069
 21
-105.7060180000001
 31
0.0
  0
LINE
  8
DETAIL
  6
CONTINUOUS
 62
     5
 10
-52.403542000000023
 20
-144.80868000000009
 30
0.0
 11
-52.674531999999999
 21
-129.283682
 31
0.0
  0
LINE
  8
DETAIL
  6
CONTINUOUS
 62
     5
 10
-84.115058999999746
 20
-105.3586990000001
 30
0.0
 11
-83.826038000000153
 21
-105.54354499999999
 31
0.0
  0
LINE
  8
DETAIL
  6
CONTINUOUS
 62
     5
 10
-52.895293000000493
 20
-127.159126
 30
0.0
 11
52.863583999999719
 21
-127.159126
 31
0.0
  0
LINE
  8
DETAIL
  6
CONTINUOUS
 62
     5
 10
-84.389071000000058
 20
-105.152388
 30
0.0
 11
-84.115058999999746
 21
-105.3586990000001
 31
0.0
  0
ARC
  8
DETAIL
  6
CONTINUOUS
 62
     5
 10
67.643025999999736
 20
-129.54495800000001
 30
0.0
 40
14.970775
 50
162.84334799999729
 51
178.99999999999829
  0
LINE
  8
DETAIL
  6
CONTINUOUS
 62
     5
 10
-84.646666999999979
 20
-104.9259630000001
 30
0.0
 11
-84.389071000000058
 21
-105.152388
 31
0.0
  0
LINE
  8
DETAIL
  6
CONTINUOUS
 62
     5
 10
52.403541000000132
 20
-144.80868000000009
 30
0.0
 11
52.674530999999661
 21
-129.283682
 31
0.0
  0
LINE
  8
DETAIL
  6
CONTINUOUS
 62
     5
 10
-84.886231000000407
 20
-104.680564
 30
0.0
 11
-84.646666999999979
 21
-104.9259630000001
 31
0.0
  0
ARC
  8
DETAIL
  6
CONTINUOUS
 62
     5
 10
50.407741999999871
 20
-144.7738430000002
 30
0.0
 40
1.996103
 50
340.00000000000159
 51
358.99999999999818
  0
LINE
  8
DETAIL
  6
CONTINUOUS
 62
     5
 10
-85.10655399999996
 20
-104.4177360000001
 30
0.0
 11
-84.886231000000407
 21
-104.680564
 31
0.0
  0
LINE
  8
DETAIL
  6
CONTINUOUS
 62
     5
 10
-49.201147000000219
 20
-154.00685000000021
 30
0.0
 11
49.201146999999757
 21
-154.00685000000021
 31
0.0
  0
LINE
  8
DETAIL
  6
CONTINUOUS
 62
     5
 10
-85.306220000000394
 20
-104.13881600000011
 30
0.0
 11
-85.10655399999996
 21
-104.4177360000001
 31
0.0
  0
LINE
  8
DETAIL
  6
CONTINUOUS
 62
     5
 10
49.288720999999903
 20
-153.68454200000019
 30
0.0
 11
52.283464999999978
 21
-145.45655000000011
 31
0.0
  0
LINE
  8
DETAIL
  6
CONTINUOUS
 62
     5
 10
-85.484226999999919
 20
-103.8455730000001
 30
0.0
 11
-85.306220000000394
 21
-104.13881600000011
 31
0.0
  0
ARC
  8
DETAIL
  6
CONTINUOUS
 62
     5
 10
51.164444999999887
 20
-154.3672490000001
 30
0.0
 40
1.996103
 50
160.00000000000159
 51
179.49999999999551
  0
LINE
  8
DETAIL
  6
CONTINUOUS
 62
     5
 10
-85.639349000000038
 20
-103.539534
 30
0.0
 11
-85.484226999999919
 21
-103.8455730000001
 31
0.0
  0
LINE
  8
DETAIL
  6
CONTINUOUS
 62
     5
 10
48.809041999999863
 20
-195.53015400000001
 30
0.0
 11
49.168418000000202
 21
-154.34983000000011
 31
0.0
  0
LINE
  8
DETAIL
  6
CONTINUOUS
 62
     5
 10
-85.770855000000211
 20
-103.2227640000001
 30
0.0
 11
-85.639349000000038
 21
-103.539534
 31
0.0
  0
ARC
  8
DETAIL
  6
CONTINUOUS
 62
     5
 10
48.310035999999847
 20
-195.52579900000001
 30
0.0
 40
0.499026
 50
270.0
 51
359.49999999999551
  0
LINE
  8
DETAIL
  6
CONTINUOUS
 62
     5
 10
-85.877712999999858
 20
-102.8970960000001
 30
0.0
 11
-85.770855000000211
 21
-103.2227640000001
 31
0.0
  0
LINE
  8
DETAIL
  6
CONTINUOUS
 62
     5
 10
-84.049938000000111
 20
-74.326378000000204
 30
0.0
 11
-87.0
 21
-77.257218000000194
 31
0.0
  0
LINE
  8
DETAIL
  6
CONTINUOUS
 62
     5
 10
48.310035999999847
 20
-196.02482500000011
 30
0.0
 11
-48.310035999999847
 21
-196.02482500000011
 31
0.0
  0
LINE
  8
DETAIL
  6
CONTINUOUS
 62
     5
 10
-85.959601000000475
 20
-102.5647450000001
 30
0.0
 11
-85.877712999999858
 21
-102.8970960000001
 31
0.0
  0
LINE
  8
DETAIL
  6
CONTINUOUS
 62
     5
 10
52.36947599999985
 20
-145.1426620000002
 30
0.0
 11
-52.369477000000188
 21
-145.1426620000002
 31
0.0
  0
LINE
  8
DETAIL
  6
CONTINUOUS
 62
     5
 10
-86.015773000000081
 20
-102.22889000000011
 30
0.0
 11
-85.959601000000475
 21
-102.5647450000001
 31
0.0
  0
LINE
  8
DETAIL
  6
CONTINUOUS
 62
     5
 10
53.338422999999693
 20
-125.1288010000001
 30
0.0
 11
65.645738999999594
 21
-85.263543000000027
 31
0.0
  0
LINE
  8
DETAIL
  6
CONTINUOUS
 62
     5
 10
-86.04647900000009
 20
-101.88847100000019
 30
0.0
 11
-86.015773000000081
 21
-102.22889000000011
 31
0.0
  0
ARC
  8
DETAIL
  6
CONTINUOUS
 62
     5
 10
-67.643026000000191
 20
-129.54495800000001
 30
0.0
 40
14.970775
 50
0.9999999999887361
 51
16.978606999990419
  0
ARC
  8
DETAIL
  6
CONTINUOUS
 62
     5
 10
-48.310035999999847
 20
-195.52579900000001
 30
0.0
 40
0.499026
 50
180.50000000000449
 51
270.0
  0
LINE
  8
DETAIL
  6
CONTINUOUS
 62
     5
 10
-81.539792999999918
 20
-106.165418
 30
0.0
 11
-59.192853000000468
 21
-106.165418
 31
0.0
  0
LINE
  8
DETAIL
  6
CONTINUOUS
 62
     5
 10
-84.336140000000341
 20
-82.507000000000062
 30
0.0
 11
-84.345854000000145
 21
-82.310461000000032
 31
0.0
  0
LINE
  8
DETAIL
  6
CONTINUOUS
 62
     5
 10
-84.307213000000047
 20
-82.701647000000094
 30
0.0
 11
-84.336140000000341
 21
-82.507000000000062
 31
0.0
  0
LINE
  8
DETAIL
  6
CONTINUOUS
 62
     5
 10
-84.259351000000152
 20
-82.892528000000084
 30
0.0
 11
-84.307213000000047
 21
-82.701647000000094
 31
0.0
  0
LINE
  8
DETAIL
  6
CONTINUOUS
 62
     5
 10
-84.193014999999832
 20
-83.077805000000126
 30
0.0
 11
-84.259351000000152
 21
-82.892528000000084
 31
0.0
  0
LINE
  8
DETAIL
  6
CONTINUOUS
 62
     5
 10
-84.108844000000317
 20
-83.255696000000171
 30
0.0
 11
-84.193014999999832
 21
-83.077805000000126
 31
0.0
  0
LINE
  8
DETAIL
  6
CONTINUOUS
 62
     5
 10
-84.007647000000361
 20
-83.424486999999999
 30
0.0
 11
-84.108844000000317
 21
-83.255696000000171
 31
0.0
  0
LINE
  8
DETAIL
  6
CONTINUOUS
 62
     5
 10
-83.890400000000227
 20
-83.582553000000189
 30
0.0
 11
-84.007647000000361
 21
-83.424486999999999
 31
0.0
  0
LINE
  8
DETAIL
  6
CONTINUOUS
 62
     5
 10
-83.758230000000367
 20
-83.72837299999992
 30
0.0
 11
-83.890400000000227
 21
-83.582553000000189
 31
0.0
  0
LINE
  8
DETAIL
  6
CONTINUOUS
 62
     5
 10
-83.612410000000182
 20
-83.860543000000007
 30
0.0
 11
-83.758230000000367
 21
-83.72837299999992
 31
0.0
  0
LINE
  8
DETAIL
  6
CONTINUOUS
 62
     5
 10
-83.454344000000219
 20
-83.977791000000025
 30
0.0
 11
-83.612410000000182
 21
-83.860543000000007
 31
0.0
  0
LINE
  8
DETAIL
  6
CONTINUOUS
 62
     5
 10
-83.285553000000164
 20
-84.078988000000209
 30
0.0
 11
-83.454344000000219
 21
-83.977791000000025
 31
0.0
  0
LINE
  8
DETAIL
  6
CONTINUOUS
 62
     5
 10
-83.10766300000023
 20
-84.163160000000062
 30
0.0
 11
-83.285553000000164
 21
-84.078988000000209
 31
0.0
  0
LINE
  8
DETAIL
  6
CONTINUOUS
 62
     5
 10
-82.922386000000188
 20
-84.229495999999926
 30
0.0
 11
-83.10766300000023
 21
-84.163160000000062
 31
0.0
  0
LINE
  8
DETAIL
  6
CONTINUOUS
 62
     5
 10
-82.731505000000197
 20
-84.277358000000049
 30
0.0
 11
-82.922386000000188
 21
-84.229495999999926
 31
0.0
  0
LINE
  8
DETAIL
  6
CONTINUOUS
 62
     5
 10
-82.536858999999822
 20
-84.306285000000116
 30
0.0
 11
-82.731505000000197
 21
-84.277358000000049
 31
0.0
  0
LINE
  8
DETAIL
  6
CONTINUOUS
 62
     5
 10
-84.127191000000039
 20
-74.41254600000002
 30
0.0
 11
-84.049938000000111
 21
-74.326378000000204
 31
0.0
  0
LINE
  8
DETAIL
  6
CONTINUOUS
 62
     5
 10
-82.340320000000247
 20
-84.31599899999992
 30
0.0
 11
-82.536858999999822
 21
-84.306285000000116
 31
0.0
  0
LINE
  8
DETAIL
  6
CONTINUOUS
 62
     5
 10
-84.192258999999922
 20
-74.504267000000027
 30
0.0
 11
-84.127191000000039
 21
-74.41254600000002
 31
0.0
  0
LINE
  8
DETAIL
  6
CONTINUOUS
 62
     5
 10
-87.32942600000024
 20
-78.98756400000002
 30
0.0
 11
-87.329580000000078
 21
-78.98756400000002
 31
0.0
  0
LINE
  8
DETAIL
  6
CONTINUOUS
 62
     5
 10
-84.246644000000288
 20
-74.602701000000025
 30
0.0
 11
-84.192258999999922
 21
-74.504267000000027
 31
0.0
  0
LINE
  8
DETAIL
  6
CONTINUOUS
 62
     5
 10
-82.329045000000406
 20
-84.312291000000187
 30
0.0
 11
-82.340320000000247
 21
-84.31599899999992
 31
0.0
  0
LINE
  8
DETAIL
  6
CONTINUOUS
 62
     5
 10
-84.289662000000135
 20
-74.706609000000071
 30
0.0
 11
-84.246644000000288
 21
-74.602701000000025
 31
0.0
  0
LINE
  8
DETAIL
  6
CONTINUOUS
 62
     5
 10
-82.302982000000156
 20
-84.308622000000014
 30
0.0
 11
-82.329045000000406
 21
-84.312291000000187
 31
0.0
  0
LINE
  8
DETAIL
  6
CONTINUOUS
 62
     5
 10
-84.32077100000015
 20
-74.814685000000054
 30
0.0
 11
-84.289662000000135
 21
-74.706609000000071
 31
0.0
  0
LINE
  8
DETAIL
  6
CONTINUOUS
 62
     5
 10
-82.262010000000373
 20
-84.304985000000215
 30
0.0
 11
-82.302982000000156
 21
-84.308622000000014
 31
0.0
  0
LINE
  8
DETAIL
  6
CONTINUOUS
 62
     5
 10
-84.33958100000018
 20
-74.925568999999996
 30
0.0
 11
-84.32077100000015
 21
-74.814685000000054
 31
0.0
  0
LINE
  8
DETAIL
  6
CONTINUOUS
 62
     5
 10
-82.206490000000031
 20
-84.301406000000043
 30
0.0
 11
-82.262010000000373
 21
-84.304985000000215
 31
0.0
  0
LINE
  8
DETAIL
  6
CONTINUOUS
 62
     5
 10
-84.345854000000145
 20
-75.037865000000011
 30
0.0
 11
-84.33958100000018
 21
-74.925568999999996
 31
0.0
  0
LINE
  8
DETAIL
  6
CONTINUOUS
 62
     5
 10
-82.136589000000185
 20
-84.297904999999901
 30
0.0
 11
-82.206490000000031
 21
-84.301406000000043
 31
0.0
  0
LINE
  8
DETAIL
  6
CONTINUOUS
 62
     5
 10
-79.453381000000263
 20
-73.986038000000008
 30
0.0
 11
-79.443101000000297
 21
-74.00894900000003
 31
0.0
  0
LINE
  8
DETAIL
  6
CONTINUOUS
 62
     5
 10
-79.459987000000183
 20
-73.971641000000091
 30
0.0
 11
-79.453381000000263
 21
-73.986038000000008
 31
0.0
  0
LINE
  8
DETAIL
  6
CONTINUOUS
 62
     5
 10
-79.461938000000373
 20
-73.966188000000102
 30
0.0
 11
-79.459987000000183
 21
-73.971641000000091
 31
0.0
  0
LINE
  8
DETAIL
  6
CONTINUOUS
 62
     5
 10
-79.461936000000151
 20
-73.966186000000107
 30
0.0
 11
-79.948338000000149
 21
-73.966977000000043
 31
0.0
  0
LINE
  8
DETAIL
  6
CONTINUOUS
 62
     5
 10
-79.948338000000149
 20
-73.966977000000043
 30
0.0
 11
-80.895288000000164
 21
-73.97165700000005
 31
0.0
  0
LINE
  8
DETAIL
  6
CONTINUOUS
 62
     5
 10
-80.895288000000164
 20
-73.97165700000005
 30
0.0
 11
-81.612170000000333
 21
-73.978487000000086
 31
0.0
  0
LINE
  8
DETAIL
  6
CONTINUOUS
 62
     5
 10
-81.612170000000333
 20
-73.978487000000086
 30
0.0
 11
-82.130587999999989
 21
-73.985859000000119
 31
0.0
  0
LINE
  8
DETAIL
  6
CONTINUOUS
 62
     5
 10
-82.130587999999989
 20
-73.985859000000119
 30
0.0
 11
-82.491821999999956
 21
-73.992784999999913
 31
0.0
  0
LINE
  8
DETAIL
  6
CONTINUOUS
 62
     5
 10
-82.491821999999956
 20
-73.992784999999913
 30
0.0
 11
-82.734879000000092
 21
-73.998707000000195
 31
0.0
  0
LINE
  8
DETAIL
  6
CONTINUOUS
 62
     5
 10
-82.734879000000092
 20
-73.998707000000195
 30
0.0
 11
-82.891255000000001
 21
-74.003326000000015
 31
0.0
  0
LINE
  8
DETAIL
  6
CONTINUOUS
 62
     5
 10
-82.891255000000001
 20
-74.003326000000015
 30
0.0
 11
-83.026114000000234
 21
-74.0080710000002
 31
0.0
  0
LINE
  8
DETAIL
  6
CONTINUOUS
 62
     5
 10
-83.026114000000234
 20
-74.0080710000002
 30
0.0
 11
-83.104546000000028
 21
-74.011298000000124
 31
0.0
  0
LINE
  8
DETAIL
  6
CONTINUOUS
 62
     5
 10
-83.104546000000028
 20
-74.011298000000124
 30
0.0
 11
-83.174445999999989
 21
-74.014588000000003
 31
0.0
  0
LINE
  8
DETAIL
  6
CONTINUOUS
 62
     5
 10
-83.174445999999989
 20
-74.014588000000003
 30
0.0
 11
-83.236668999999893
 21
-74.017972999999984
 31
0.0
  0
LINE
  8
DETAIL
  6
CONTINUOUS
 62
     5
 10
-84.006463000000167
 20
-74.285674000000199
 30
0.0
 11
-84.049073000000135
 21
-74.325524000000087
 31
0.0
  0
LINE
  8
DETAIL
  6
CONTINUOUS
 62
     5
 10
-83.949265000000196
 20
-74.238824999999906
 30
0.0
 11
-84.006463000000167
 21
-74.285674000000199
 31
0.0
  0
LINE
  8
DETAIL
  6
CONTINUOUS
 62
     5
 10
-83.891233999999713
 20
-74.197887000000037
 30
0.0
 11
-83.949265000000196
 21
-74.238824999999906
 31
0.0
  0
LINE
  8
DETAIL
  6
CONTINUOUS
 62
     5
 10
-83.833478000000468
 20
-74.162810000000036
 30
0.0
 11
-83.891233999999713
 21
-74.197887000000037
 31
0.0
  0
LINE
  8
DETAIL
  6
CONTINUOUS
 62
     5
 10
-83.777122999999847
 20
-74.133393999999953
 30
0.0
 11
-83.833478000000468
 21
-74.162810000000036
 31
0.0
  0
LINE
  8
DETAIL
  6
CONTINUOUS
 62
     5
 10
-83.722971000000143
 20
-74.10916700000007
 30
0.0
 11
-83.777122999999847
 21
-74.133393999999953
 31
0.0
  0
LINE
  8
DETAIL
  6
CONTINUOUS
 62
     5
 10
-83.671901000000162
 20
-74.089647000000014
 30
0.0
 11
-83.722971000000143
 21
-74.10916700000007
 31
0.0
  0
LINE
  8
DETAIL
  6
CONTINUOUS
 62
     5
 10
-83.62422400000014
 20
-74.074137999999948
 30
0.0
 11
-83.671901000000162
 21
-74.089647000000014
 31
0.0
  0
LINE
  8
DETAIL
  6
CONTINUOUS
 62
     5
 10
-83.580112999999983
 20
-74.061974000000191
 30
0.0
 11
-83.62422400000014
 21
-74.074137999999948
 31
0.0
  0
LINE
  8
DETAIL
  6
CONTINUOUS
 62
     5
 10
-83.539961000000403
 20
-74.052615999999944
 30
0.0
 11
-83.580112999999983
 21
-74.061974000000191
 31
0.0
  0
LINE
  8
DETAIL
  6
CONTINUOUS
 62
     5
 10
-83.504273999999896
 20
-74.045573000000104
 30
0.0
 11
-83.539961000000403
 21
-74.052615999999944
 31
0.0
  0
LINE
  8
DETAIL
  6
CONTINUOUS
 62
     5
 10
-83.472241999999824
 20
-74.04019100000005
 30
0.0
 11
-83.504273999999896
 21
-74.045573000000104
 31
0.0
  0
LINE
  8
DETAIL
  6
CONTINUOUS
 62
     5
 10
-83.443578000000343
 20
-74.036051000000043
 30
0.0
 11
-83.472241999999824
 21
-74.04019100000005
 31
0.0
  0
LINE
  8
DETAIL
  6
CONTINUOUS
 62
     5
 10
-83.417183000000023
 20
-74.032735000000002
 30
0.0
 11
-83.443578000000343
 21
-74.036051000000043
 31
0.0
  0
LINE
  8
DETAIL
  6
CONTINUOUS
 62
     5
 10
-83.39219600000024
 20
-74.029972000000043
 30
0.0
 11
-83.417183000000023
 21
-74.032735000000002
 31
0.0
  0
LINE
  8
DETAIL
  6
CONTINUOUS
 62
     5
 10
-83.367898000000423
 20
-74.027581000000055
 30
0.0
 11
-83.39219600000024
 21
-74.029972000000043
 31
0.0
  0
LINE
  8
DETAIL
  6
CONTINUOUS
 62
     5
 10
-83.343397999999979
 20
-74.025417000000061
 30
0.0
 11
-83.367898000000423
 21
-74.027581000000055
 31
0.0
  0
LINE
  8
DETAIL
  6
CONTINUOUS
 62
     5
 10
-83.318409999999858
 20
-74.023421000000099
 30
0.0
 11
-83.343397999999979
 21
-74.025417000000061
 31
0.0
  0
LINE
  8
DETAIL
  6
CONTINUOUS
 62
     5
 10
-83.2924280000002
 20
-74.021531000000095
 30
0.0
 11
-83.318409999999858
 21
-74.023421000000099
 31
0.0
  0
LINE
  8
DETAIL
  6
CONTINUOUS
 62
     5
 10
-83.265272000000095
 20
-74.019724000000224
 30
0.0
 11
-83.2924280000002
 21
-74.021531000000095
 31
0.0
  0
LINE
  8
DETAIL
  6
CONTINUOUS
 62
     5
 10
-83.236668999999893
 20
-74.017972999999984
 30
0.0
 11
-83.265272000000095
 21
-74.019724000000224
 31
0.0
  0
LINE
  8
DETAIL
  6
CONTINUOUS
 62
     5
 10
-84.345855999999912
 20
-75.037867000000006
 30
0.0
 11
-84.345854000000145
 21
-82.310461000000032
 31
0.0
  0
LINE
  8
DETAIL
  6
CONTINUOUS
 62
     5
 10
-79.461938000000373
 20
-73.966188000000102
 30
0.0
 11
-62.829359000000302
 21
-54.943590000000093
 31
0.0
  0
LINE
  8
DETAIL
  6
CONTINUOUS
 62
     5
 10
79.866600999999719
 20
-84.26557600000001
 30
0.0
 11
-82.136589000000185
 21
-84.264517999999953
 31
0.0
  0
ARC
  8
DETAIL
  6
CONTINUOUS
 62
     5
 10
-61.319328000000503
 20
-56.263898000000147
 30
0.0
 40
2.005843
 50
90.0
 51
138.83488299999351
  0
ARC
  8
DETAIL
  6
CONTINUOUS
 62
     5
 10
61.221688999999969
 20
-56.263898000000147
 30
0.0
 40
2.005843
 50
41.165117000006511
 51
90.0
  0
ARC
  8
DETAIL
  6
CONTINUOUS
 62
     5
 10
69.15276700000004
 20
-46.635852000000114
 30
0.0
 40
10.530676
 50
232.8047610000051
 51
233.01266100000191
  0
ARC
  8
DETAIL
  6
CONTINUOUS
 62
     5
 10
69.15276700000004
 20
-46.635852000000114
 30
0.0
 40
10.530676
 50
228.1621170000146
 51
228.22040399999489
  0
LINE
  8
DETAIL
  6
CONTINUOUS
 62
     5
 10
83.951375999999982
 20
-74.325462000000016
 30
0.0
 11
87.0
 21
-77.354220000000169
 31
0.0
  0
LINE
  8
DETAIL
  6
CONTINUOUS
 62
     5
 10
84.24821699999984
 20
-75.037867000000006
 30
0.0
 11
84.24821699999984
 21
-82.310463000000027
 31
0.0
  0
LINE
  8
DETAIL
  6
CONTINUOUS
 62
     5
 10
83.080581999999595
 20
-74.01477900000009
 30
0.0
 11
83.012936999999965
 21
-74.011565000000019
 31
0.0
  0
LINE
  8
DETAIL
  6
CONTINUOUS
 62
     5
 10
83.012936999999965
 20
-74.011565000000019
 30
0.0
 11
82.936709000000064
 21
-74.008391000000074
 31
0.0
  0
LINE
  8
DETAIL
  6
CONTINUOUS
 62
     5
 10
82.936709000000064
 20
-74.008391000000074
 30
0.0
 11
82.850914999999986
 21
-74.00523800000019
 31
0.0
  0
LINE
  8
DETAIL
  6
CONTINUOUS
 62
     5
 10
82.850914999999986
 20
-74.00523800000019
 30
0.0
 11
82.702467999999953
 21
-74.000539000000117
 31
0.0
  0
LINE
  8
DETAIL
  6
CONTINUOUS
 62
     5
 10
82.702467999999953
 20
-74.000539000000117
 30
0.0
 11
82.528025999999954
 21
-73.995887000000039
 31
0.0
  0
LINE
  8
DETAIL
  6
CONTINUOUS
 62
     5
 10
82.528025999999954
 20
-73.995887000000039
 30
0.0
 11
82.250716000000011
 21
-73.989810999999918
 31
0.0
  0
LINE
  8
DETAIL
  6
CONTINUOUS
 62
     5
 10
82.250716000000011
 20
-73.989810999999918
 30
0.0
 11
81.824812999999722
 21
-73.982597000000169
 31
0.0
  0
LINE
  8
DETAIL
  6
CONTINUOUS
 62
     5
 10
81.824812999999722
 20
-73.982597000000169
 30
0.0
 11
81.190643999999793
 21
-73.974991999999929
 31
0.0
  0
LINE
  8
DETAIL
  6
CONTINUOUS
 62
     5
 10
81.190643999999793
 20
-73.974991999999929
 30
0.0
 11
80.290340999999898
 21
-73.96860700000002
 31
0.0
  0
LINE
  8
DETAIL
  6
CONTINUOUS
 62
     5
 10
80.290340999999898
 20
-73.96860700000002
 30
0.0
 11
79.364297000000079
 21
-73.966186000000107
 31
0.0
  0
LINE
  8
DETAIL
  6
CONTINUOUS
 62
     5
 10
79.362354999999752
 20
-73.97161200000005
 30
0.0
 11
79.364298999999846
 21
-73.966188000000102
 31
0.0
  0
LINE
  8
DETAIL
  6
CONTINUOUS
 62
     5
 10
79.355776999999762
 20
-73.985959000000094
 30
0.0
 11
79.362354999999752
 21
-73.97161200000005
 31
0.0
  0
LINE
  8
DETAIL
  6
CONTINUOUS
 62
     5
 10
79.345523999999841
 20
-74.008816000000024
 30
0.0
 11
79.355776999999762
 21
-73.985959000000094
 31
0.0
  0
LINE
  8
DETAIL
  6
CONTINUOUS
 62
     5
 10
84.223132000000078
 20
-74.814685000000054
 30
0.0
 11
84.241942000000108
 21
-74.925568999999996
 31
0.0
  0
LINE
  8
DETAIL
  6
CONTINUOUS
 62
     5
 10
84.192022999999608
 20
-74.706609000000071
 30
0.0
 11
84.223132000000078
 21
-74.814685000000054
 31
0.0
  0
LINE
  8
DETAIL
  6
CONTINUOUS
 62
     5
 10
84.149004999999761
 20
-74.602701000000025
 30
0.0
 11
84.192022999999608
 21
-74.706609000000071
 31
0.0
  0
LINE
  8
DETAIL
  6
CONTINUOUS
 62
     5
 10
84.09461999999985
 20
-74.504267000000027
 30
0.0
 11
84.149004999999761
 21
-74.602701000000025
 31
0.0
  0
LINE
  8
DETAIL
  6
CONTINUOUS
 62
     5
 10
84.029551999999967
 20
-74.41254600000002
 30
0.0
 11
84.09461999999985
 21
-74.504267000000027
 31
0.0
  0
LINE
  8
DETAIL
  6
CONTINUOUS
 62
     5
 10
83.952298999999584
 20
-74.326378000000204
 30
0.0
 11
84.029551999999967
 21
-74.41254600000002
 31
0.0
  0
LINE
  8
DETAIL
  6
CONTINUOUS
 62
     5
 10
83.140714000000116
 20
-74.018073000000186
 30
0.0
 11
83.080581999999595
 21
-74.01477900000009
 31
0.0
  0
LINE
  8
DETAIL
  6
CONTINUOUS
 62
     5
 10
83.168346999999812
 20
-74.019770000000108
 30
0.0
 11
83.140714000000116
 21
-74.018073000000186
 31
0.0
  0
LINE
  8
DETAIL
  6
CONTINUOUS
 62
     5
 10
83.194563000000016
 20
-74.02151600000002
 30
0.0
 11
83.168346999999812
 21
-74.019770000000108
 31
0.0
  0
LINE
  8
DETAIL
  6
CONTINUOUS
 62
     5
 10
83.219662999999855
 20
-74.023337000000083
 30
0.0
 11
83.194563000000016
 21
-74.02151600000002
 31
0.0
  0
LINE
  8
DETAIL
  6
CONTINUOUS
 62
     5
 10
83.243840000000091
 20
-74.025257000000011
 30
0.0
 11
83.219662999999855
 21
-74.023337000000083
 31
0.0
  0
LINE
  8
DETAIL
  6
CONTINUOUS
 62
     5
 10
83.267559999999776
 20
-74.027331000000004
 30
0.0
 11
83.243840000000091
 21
-74.025257000000011
 31
0.0
  0
LINE
  8
DETAIL
  6
CONTINUOUS
 62
     5
 10
83.291191000000254
 20
-74.029624000000013
 30
0.0
 11
83.267559999999776
 21
-74.027331000000004
 31
0.0
  0
LINE
  8
DETAIL
  6
CONTINUOUS
 62
     5
 10
83.315241000000242
 20
-74.032234000000017
 30
0.0
 11
83.291191000000254
 21
-74.029624000000013
 31
0.0
  0
LINE
  8
DETAIL
  6
CONTINUOUS
 62
     5
 10
83.340185000000019
 20
-74.035290000000032
 30
0.0
 11
83.315241000000242
 21
-74.032234000000017
 31
0.0
  0
LINE
  8
DETAIL
  6
CONTINUOUS
 62
     5
 10
83.366705999999795
 20
-74.038990000000013
 30
0.0
 11
83.340185000000019
 21
-74.035290000000032
 31
0.0
  0
LINE
  8
DETAIL
  6
CONTINUOUS
 62
     5
 10
83.395319999999629
 20
-74.043575000000146
 30
0.0
 11
83.366705999999795
 21
-74.038990000000013
 31
0.0
  0
LINE
  8
DETAIL
  6
CONTINUOUS
 62
     5
 10
83.427204999999958
 20
-74.0494920000001
 30
0.0
 11
83.395319999999629
 21
-74.043575000000146
 31
0.0
  0
LINE
  8
DETAIL
  6
CONTINUOUS
 62
     5
 10
83.463404999999966
 20
-74.057333000000199
 30
0.0
 11
83.427204999999958
 21
-74.0494920000001
 31
0.0
  0
LINE
  8
DETAIL
  6
CONTINUOUS
 62
     5
 10
83.504578000000038
 20
-74.067816000000221
 30
0.0
 11
83.463404999999966
 21
-74.057333000000199
 31
0.0
  0
LINE
  8
DETAIL
  6
CONTINUOUS
 62
     5
 10
83.551931999999852
 20
-74.082068000000163
 30
0.0
 11
83.504578000000038
 21
-74.067816000000221
 31
0.0
  0
LINE
  8
DETAIL
  6
CONTINUOUS
 62
     5
 10
83.604154999999992
 20
-74.100695000000087
 30
0.0
 11
83.551931999999852
 21
-74.082068000000163
 31
0.0
  0
LINE
  8
DETAIL
  6
CONTINUOUS
 62
     5
 10
83.660542999999961
 20
-74.12448900000004
 30
0.0
 11
83.604154999999992
 21
-74.100695000000087
 31
0.0
  0
LINE
  8
DETAIL
  6
CONTINUOUS
 62
     5
 10
83.71970999999985
 20
-74.153929000000062
 30
0.0
 11
83.660542999999961
 21
-74.12448900000004
 31
0.0
  0
LINE
  8
DETAIL
  6
CONTINUOUS
 62
     5
 10
83.780267999999978
 20
-74.189319000000069
 30
0.0
 11
83.71970999999985
 21
-74.153929000000062
 31
0.0
  0
LINE
  8
DETAIL
  6
CONTINUOUS
 62
     5
 10
83.841018000000076
 20
-74.230876999999964
 30
0.0
 11
83.780267999999978
 21
-74.189319000000069
 31
0.0
  0
LINE
  8
DETAIL
  6
CONTINUOUS
 62
     5
 10
83.900639999999839
 20
-74.278532000000041
 30
0.0
 11
83.841018000000076
 21
-74.230876999999964
 31
0.0
  0
LINE
  8
DETAIL
  6
CONTINUOUS
 62
     5
 10
83.951372999999876
 20
-74.325464000000011
 30
0.0
 11
83.900639999999839
 21
-74.278532000000041
 31
0.0
  0
LINE
  8
DETAIL
  6
CONTINUOUS
 62
     5
 10
62.731718999999877
 20
-54.943590000000093
 30
0.0
 11
79.364298999999846
 21
-73.966188000000102
 31
0.0
  0
LINE
  8
DETAIL
  6
CONTINUOUS
 62
     5
 10
59.192853000000007
 20
-106.165418
 30
0.0
 11
81.442152999999962
 21
-106.165418
 31
0.0
  0
LINE
  8
DETAIL
  6
CONTINUOUS
 62
     5
 10
85.918134000000009
 20
-102.22889000000011
 30
0.0
 11
85.948840000000018
 21
-101.88847100000019
 31
0.0
  0
LINE
  8
DETAIL
  6
CONTINUOUS
 62
     5
 10
85.861961999999949
 20
-102.5647450000001
 30
0.0
 11
85.918134000000009
 21
-102.22889000000011
 31
0.0
  0
LINE
  8
DETAIL
  6
CONTINUOUS
 62
     5
 10
85.780072999999902
 20
-102.8970960000001
 30
0.0
 11
85.861961999999949
 21
-102.5647450000001
 31
0.0
  0
LINE
  8
DETAIL
  6
CONTINUOUS
 62
     5
 10
85.673216000000139
 20
-103.2227640000001
 30
0.0
 11
85.780072999999902
 21
-102.8970960000001
 31
0.0
  0
LINE
  8
DETAIL
  6
CONTINUOUS
 62
     5
 10
85.541709999999966
 20
-103.539534
 30
0.0
 11
85.673216000000139
 21
-103.2227640000001
 31
0.0
  0
LINE
  8
DETAIL
  6
CONTINUOUS
 62
     5
 10
85.386587999999847
 20
-103.8455730000001
 30
0.0
 11
85.541709999999966
 21
-103.539534
 31
0.0
  0
LINE
  8
DETAIL
  6
CONTINUOUS
 62
     5
 10
85.208579999999984
 20
-104.13881600000011
 30
0.0
 11
85.386587999999847
 21
-103.8455730000001
 31
0.0
  0
LINE
  8
DETAIL
  6
CONTINUOUS
 62
     5
 10
85.008914999999888
 20
-104.4177360000001
 30
0.0
 11
85.208579999999984
 21
-104.13881600000011
 31
0.0
  0
LINE
  8
DETAIL
  6
CONTINUOUS
 62
     5
 10
84.78859199999988
 20
-104.680564
 30
0.0
 11
85.008914999999888
 21
-104.4177360000001
 31
0.0
  0
LINE
  8
DETAIL
  6
CONTINUOUS
 62
     5
 10
84.549027000000024
 20
-104.9259630000001
 30
0.0
 11
84.78859199999988
 21
-104.680564
 31
0.0
  0
LINE
  8
DETAIL
  6
CONTINUOUS
 62
     5
 10
84.291431999999986
 20
-105.152388
 30
0.0
 11
84.549027000000024
 21
-104.9259630000001
 31
0.0
  0
LINE
  8
DETAIL
  6
CONTINUOUS
 62
     5
 10
84.017418999999791
 20
-105.3586990000001
 30
0.0
 11
84.291431999999986
 21
-105.152388
 31
0.0
  0
LINE
  8
DETAIL
  6
CONTINUOUS
 62
     5
 10
83.728398999999627
 20
-105.54354499999999
 30
0.0
 11
84.017418999999791
 21
-105.3586990000001
 31
0.0
  0
LINE
  8
DETAIL
  6
CONTINUOUS
 62
     5
 10
83.426198999999542
 20
-105.7060180000001
 30
0.0
 11
83.728398999999627
 21
-105.54354499999999
 31
0.0
  0
LINE
  8
DETAIL
  6
CONTINUOUS
 62
     5
 10
83.112414999999601
 20
-105.844965
 30
0.0
 11
83.426198999999542
 21
-105.7060180000001
 31
0.0
  0
LINE
  8
DETAIL
  6
CONTINUOUS
 62
     5
 10
82.789151999999831
 20
-105.9597659999999
 30
0.0
 11
83.112414999999601
 21
-105.844965
 31
0.0
  0
LINE
  8
DETAIL
  6
CONTINUOUS
 62
     5
 10
82.458308000000216
 20
-106.049483
 30
0.0
 11
82.789151999999831
 21
-105.9597659999999
 31
0.0
  0
LINE
  8
DETAIL
  6
CONTINUOUS
 62
     5
 10
82.12210099999993
 20
-106.11391999999999
 30
0.0
 11
82.458308000000216
 21
-106.049483
 31
0.0
  0
LINE
  8
DETAIL
  6
CONTINUOUS
 62
     5
 10
81.783739999999852
 20
-106.152501
 30
0.0
 11
82.12210099999993
 21
-106.11391999999999
 31
0.0
  0
LINE
  8
DETAIL
  6
CONTINUOUS
 62
     5
 10
81.442152999999962
 20
-106.165418
 30
0.0
 11
81.783739999999852
 21
-106.152501
 31
0.0
  0
LINE
  8
DETAIL
  6
CONTINUOUS
 62
     5
 10
84.238500999999815
 20
-82.507000000000062
 30
0.0
 11
84.248214999999618
 21
-82.310461000000032
 31
0.0
  0
LINE
  8
DETAIL
  6
CONTINUOUS
 62
     5
 10
84.20957399999952
 20
-82.701647000000094
 30
0.0
 11
84.238500999999815
 21
-82.507000000000062
 31
0.0
  0
LINE
  8
DETAIL
  6
CONTINUOUS
 62
     5
 10
84.16171200000008
 20
-82.892528000000084
 30
0.0
 11
84.20957399999952
 21
-82.701647000000094
 31
0.0
  0
LINE
  8
DETAIL
  6
CONTINUOUS
 62
     5
 10
84.095376000000215
 20
-83.07780600000001
 30
0.0
 11
84.16171200000008
 21
-82.892528000000084
 31
0.0
  0
LINE
  8
DETAIL
  6
CONTINUOUS
 62
     5
 10
84.011203999999907
 20
-83.255697000000055
 30
0.0
 11
84.095376000000215
 21
-83.07780600000001
 31
0.0
  0
LINE
  8
DETAIL
  6
CONTINUOUS
 62
     5
 10
83.91000699999995
 20
-83.424486999999999
 30
0.0
 11
84.011203999999907
 21
-83.255697000000055
 31
0.0
  0
LINE
  8
DETAIL
  6
CONTINUOUS
 62
     5
 10
83.792758999999933
 20
-83.582554000000073
 30
0.0
 11
83.91000699999995
 21
-83.424486999999999
 31
0.0
  0
LINE
  8
DETAIL
  6
CONTINUOUS
 62
     5
 10
83.660589000000073
 20
-83.728374000000031
 30
0.0
 11
83.792758999999933
 21
-83.582554000000073
 31
0.0
  0
LINE
  8
DETAIL
  6
CONTINUOUS
 62
     5
 10
83.514768999999887
 20
-83.860544000000118
 30
0.0
 11
83.660589000000073
 21
-83.728374000000031
 31
0.0
  0
LINE
  8
DETAIL
  6
CONTINUOUS
 62
     5
 10
83.356702999999925
 20
-83.977792000000136
 30
0.0
 11
83.514768999999887
 21
-83.860544000000118
 31
0.0
  0
LINE
  8
DETAIL
  6
CONTINUOUS
 62
     5
 10
83.187912999999753
 20
-84.078989000000092
 30
0.0
 11
83.356702999999925
 21
-83.977792000000136
 31
0.0
  0
LINE
  8
DETAIL
  6
CONTINUOUS
 62
     5
 10
83.010022999999819
 20
-84.163160000000062
 30
0.0
 11
83.187912999999753
 21
-84.078989000000092
 31
0.0
  0
LINE
  8
DETAIL
  6
CONTINUOUS
 62
     5
 10
82.824745999999777
 20
-84.229495999999926
 30
0.0
 11
83.010022999999819
 21
-84.163160000000062
 31
0.0
  0
LINE
  8
DETAIL
  6
CONTINUOUS
 62
     5
 10
82.633864999999787
 20
-84.277358000000049
 30
0.0
 11
82.824745999999777
 21
-84.229495999999926
 31
0.0
  0
LINE
  8
DETAIL
  6
CONTINUOUS
 62
     5
 10
82.439218999999866
 20
-84.306285000000116
 30
0.0
 11
82.633864999999787
 21
-84.277358000000049
 31
0.0
  0
LINE
  8
DETAIL
  6
CONTINUOUS
 62
     5
 10
82.24268099999972
 20
-84.31599899999992
 30
0.0
 11
82.439218999999866
 21
-84.306285000000116
 31
0.0
  0
LINE
  8
DETAIL
  6
CONTINUOUS
 62
     5
 10
81.489230999999563
 20
-84.282150000000001
 30
0.0
 11
81.186375999999655
 21
-84.276956000000155
 31
0.0
  0
LINE
  8
DETAIL
  6
CONTINUOUS
 62
     5
 10
81.186375999999655
 20
-84.276956000000155
 30
0.0
 11
80.661339999999655
 21
-84.270686000000069
 31
0.0
  0
LINE
  8
DETAIL
  6
CONTINUOUS
 62
     5
 10
80.661339999999655
 20
-84.270686000000069
 30
0.0
 11
79.866600999999719
 21
-84.26557600000001
 31
0.0
  0
LINE
  8
DETAIL
  6
CONTINUOUS
 62
     5
 10
81.747188999999707
 20
-84.28803599999992
 30
0.0
 11
81.489230999999563
 21
-84.282150000000001
 31
0.0
  0
LINE
  8
DETAIL
  6
CONTINUOUS
 62
     5
 10
81.857657999999901
 20
-84.291202999999996
 30
0.0
 11
81.747188999999707
 21
-84.28803599999992
 31
0.0
  0
LINE
  8
DETAIL
  6
CONTINUOUS
 62
     5
 10
81.955098999999791
 20
-84.294498000000203
 30
0.0
 11
81.857657999999901
 21
-84.291202999999996
 31
0.0
  0
LINE
  8
DETAIL
  6
CONTINUOUS
 62
     5
 10
82.038931999999932
 20
-84.297904000000017
 30
0.0
 11
81.955098999999791
 21
-84.294498000000203
 31
0.0
  0
LINE
  8
DETAIL
  6
CONTINUOUS
 62
     5
 10
82.108838999999989
 20
-84.301406000000043
 30
0.0
 11
82.038931999999932
 21
-84.297904000000017
 31
0.0
  0
LINE
  8
DETAIL
  6
CONTINUOUS
 62
     5
 10
82.16436399999975
 20
-84.304984000000104
 30
0.0
 11
82.108838999999989
 21
-84.301406000000043
 31
0.0
  0
LINE
  8
DETAIL
  6
CONTINUOUS
 62
     5
 10
82.205339000000095
 20
-84.308622000000014
 30
0.0
 11
82.16436399999975
 21
-84.304984000000104
 31
0.0
  0
LINE
  8
DETAIL
  6
CONTINUOUS
 62
     5
 10
82.231404000000111
 20
-84.312290000000075
 30
0.0
 11
82.205339000000095
 21
-84.308622000000014
 31
0.0
  0
LINE
  8
DETAIL
  6
CONTINUOUS
 62
     5
 10
82.24268099999972
 20
-84.31599899999992
 30
0.0
 11
82.231404000000111
 21
-84.312290000000075
 31
0.0
  0
CIRCLE
  8
DETAIL
  6
CONTINUOUS
 62
     5
 10
9.9805160000000797
 20
4.9902589999999236
 30
0.0
 40
31.438627
  0
CIRCLE
  8
DETAIL
  6
CONTINUOUS
 62
     5
 10
68.99172499999986
 20
-46.494419999999991
 30
0.0
 40
10.49874
  0
ARC
  8
DETAIL
  6
CONTINUOUS
 62
     5
 10
-101.50012000000019
 20
-101.50012000000019
 30
0.0
 40
10.0
 50
180.0
 51
270.0
  0
LINE
  8
DETAIL
  6
CONTINUOUS
 62
     5
 10
-62.501127000000452
 20
-98.512000000000171
 30
0.0
 11
-62.501127000000452
 21
-102.0120000000002
 31
0.0
  0
ARC
  8
DETAIL
  6
CONTINUOUS
 62
     5
 10
-98.511999999999716
 20
-65.008000000000038
 30
0.0
 40
2.4912740000000002
 50
270.0
 51
90.0
  0
ARC
  8
DETAIL
  6
CONTINUOUS
 62
     5
 10
-102.0119999999997
 20
-65.008000000000038
 30
0.0
 40
2.4912740000000002
 50
90.0
 51
270.0
  0
LINE
  8
DETAIL
  6
CONTINUOUS
 62
     5
 10
-98.511999999999716
 20
-67.499272999999903
 30
0.0
 11
-102.0119999999997
 21
-67.499272999999903
 31
0.0
  0
ARC
  8
DETAIL
  6
CONTINUOUS
 62
     5
 10
-64.992400000000089
 20
-98.512000000000171
 30
0.0
 40
2.4912740000000002
 50
0.0
 51
180.0
  0
ARC
  8
DETAIL
  6
CONTINUOUS
 62
     5
 10
-64.992400000000089
 20
-102.0120000000002
 30
0.0
 40
2.4912740000000002
 50
180.0
 51
0.0
  0
LINE
  8
DETAIL
  6
CONTINUOUS
 62
     5
 10
-57.545908999999938
 20
-111.50012000000019
 30
0.0
 11
-101.50012000000019
 21
-111.50012000000019
 31
0.0
  0
LINE
  8
DETAIL
  6
CONTINUOUS
 62
     5
 10
-111.50012000000019
 20
-101.50012000000019
 30
0.0
 11
-111.50012000000019
 21
0.0
 31
0.0
  0
ARC
  8
DETAIL
  6
CONTINUOUS
 62
     5
 10
101.5001199999997
 20
-101.50012000000019
 30
0.0
 40
10.0
 50
270.0
 51
0.0
  0
LINE
  8
DETAIL
  6
CONTINUOUS
 62
     5
 10
62.501126000000113
 20
-98.512000000000171
 30
0.0
 11
62.501126000000113
 21
-102.0120000000002
 31
0.0
  0
ARC
  8
DETAIL
  6
CONTINUOUS
 62
     5
 10
64.992400000000089
 20
-98.512000000000171
 30
0.0
 40
2.4912740000000002
 50
0.0
 51
180.0
  0
ARC
  8
DETAIL
  6
CONTINUOUS
 62
     5
 10
64.992400000000089
 20
-102.0120000000002
 30
0.0
 40
2.4912740000000002
 50
180.0
 51
0.0
  0
LINE
  8
DETAIL
  6
CONTINUOUS
 62
     5
 10
57.545908000000047
 20
-111.50012000000019
 30
0.0
 11
101.5001199999997
 21
-111.50012000000019
 31
0.0
  0
ARC
  8
DETAIL
  6
CONTINUOUS
 62
     5
 10
98.511999999999716
 20
-65.008000000000038
 30
0.0
 40
2.4912740000000002
 50
90.0
 51
270.0
  0
ARC
  8
DETAIL
  6
CONTINUOUS
 62
     5
 10
102.0119999999997
 20
-65.008000000000038
 30
0.0
 40
2.4912740000000002
 50
270.0
 51
90.0
  0
LINE
  8
DETAIL
  6
CONTINUOUS
 62
     5
 10
98.511999999999716
 20
-67.499272999999903
 30
0.0
 11
102.0119999999997
 21
-67.499272999999903
 31
0.0
  0
LINE
  8
DETAIL
  6
CONTINUOUS
 62
     5
 10
111.5001199999997
 20
-101.50012000000019
 30
0.0
 11
111.5001199999997
 21
0.0
 31
0.0
  0
ARC
  8
DETAIL
  6
CONTINUOUS
 62
     5
 10
101.5001199999997
 20
101.5001199999999
 30
0.0
 40
10.0
 50
0.0
 51
90.0
  0
LINE
  8
DETAIL
  6
CONTINUOUS
 62
     5
 10
62.501126000000113
 20
98.511999999999944
 30
0.0
 11
62.501126000000113
 21
102.0119999999999
 31
0.0
  0
ARC
  8
DETAIL
  6
CONTINUOUS
 62
     5
 10
64.992400000000089
 20
98.511999999999944
 30
0.0
 40
2.4912740000000002
 50
180.0
 51
0.0
  0
ARC
  8
DETAIL
  6
CONTINUOUS
 62
     5
 10
64.992400000000089
 20
102.0119999999999
 30
0.0
 40
2.4912740000000002
 50
0.0
 51
180.0
  0
ARC
  8
DETAIL
  6
CONTINUOUS
 62
     5
 10
98.511999999999716
 20
65.007999999999811
 30
0.0
 40
2.4912740000000002
 50
90.0
 51
270.0
  0
ARC
  8
DETAIL
  6
CONTINUOUS
 62
     5
 10
102.0119999999997
 20
65.007999999999811
 30
0.0
 40
2.4912740000000002
 50
270.0
 51
90.0
  0
LINE
  8
DETAIL
  6
CONTINUOUS
 62
     5
 10
98.511999999999716
 20
67.499273999999787
 30
0.0
 11
102.0119999999997
 21
67.499273999999787
 31
0.0
  0
LINE
  8
DETAIL
  6
CONTINUOUS
 62
     5
 10
111.5001199999997
 20
101.5001199999999
 30
0.0
 11
111.5001199999997
 21
0.0
 31
0.0
  0
ARC
  8
DETAIL
  6
CONTINUOUS
 62
     5
 10
-101.50012000000019
 20
101.5001199999999
 30
0.0
 40
10.0
 50
90.0
 51
180.0
  0
LINE
  8
DETAIL
  6
CONTINUOUS
 62
     5
 10
-62.501127000000452
 20
98.511999999999944
 30
0.0
 11
-62.501127000000452
 21
102.0119999999999
 31
0.0
  0
ARC
  8
DETAIL
  6
CONTINUOUS
 62
     5
 10
-64.992400000000089
 20
98.511999999999944
 30
0.0
 40
2.4912740000000002
 50
180.0
 51
0.0
  0
ARC
  8
DETAIL
  6
CONTINUOUS
 62
     5
 10
-64.992400000000089
 20
102.0119999999999
 30
0.0
 40
2.4912740000000002
 50
0.0
 51
180.0
  0
ARC
  8
DETAIL
  6
CONTINUOUS
 62
     5
 10
-98.511999999999716
 20
65.007999999999811
 30
0.0
 40
2.4912740000000002
 50
270.0
 51
90.0
  0
ARC
  8
DETAIL
  6
CONTINUOUS
 62
     5
 10
-102.0119999999997
 20
65.007999999999811
 30
0.0
 40
2.4912740000000002
 50
90.0
 51
270.0
  0
LINE
  8
DETAIL
  6
CONTINUOUS
 62
     5
 10
-98.511999999999716
 20
67.499273999999787
 30
0.0
 11
-102.0119999999997
 21
67.499273999999787
 31
0.0
  0
LINE
  8
DETAIL
  6
CONTINUOUS
 62
     5
 10
-111.50012000000019
 20
101.5001199999999
 30
0.0
 11
-111.50012000000019
 21
0.0
 31
0.0
  0
LINE
  8
DETAIL
  6
CONTINUOUS
 62
     5
 10
0.0
 20
111.5001199999999
 30
0.0
 11
101.5001199999997
 21
111.5001199999999
 31
0.0
  0
LINE
  8
DETAIL
  6
CONTINUOUS
 62
     5
 10
0.0
 20
111.5001199999999
 30
0.0
 11
-101.50012000000019
 21
111.5001199999999
 31
0.0
  0
ARC
  8
DETAIL
  6
CONTINUOUS
 62
     5
 10
-124.0
 20
124.0
 30
0.0
 40
1.0
 50
90.0
 51
180.0
  0
LINE
  8
DETAIL
  6
CONTINUOUS
 62
     5
 10
0.0
 20
125.0
 30
0.0
 11
-124.0
 21
125.0
 31
0.0
  0
LINE
  8
DETAIL
  6
CONTINUOUS
 62
     5
 10
-125.0
 20
124.0
 30
0.0
 11
-125.0
 21
0.0
 31
0.0
  0
ARC
  8
DETAIL
  6
CONTINUOUS
 62
     5
 10
124.0
 20
124.0
 30
0.0
 40
1.0
 50
0.0
 51
90.0
  0
LINE
  8
DETAIL
  6
CONTINUOUS
 62
     5
 10
0.0
 20
125.0
 30
0.0
 11
124.0
 21
125.0
 31
0.0
  0
LINE
  8
DETAIL
  6
CONTINUOUS
 62
     5
 10
125.0
 20
124.0
 30
0.0
 11
125.0
 21
0.0
 31
0.0
  0
ARC
  8
DETAIL
  6
CONTINUOUS
 62
     5
 10
124.0
 20
-124.0
 30
0.0
 40
1.0
 50
270.0
 51
0.0
  0
LINE
  8
DETAIL
  6
CONTINUOUS
 62
     5
 10
125.0
 20
-124.0
 30
0.0
 11
125.0
 21
0.0
 31
0.0
  0
ARC
  8
DETAIL
  6
CONTINUOUS
 62
     5
 10
-124.0
 20
-124.0
 30
0.0
 40
1.0
 50
180.0
 51
270.0
  0
LINE
  8
DETAIL
  6
CONTINUOUS
 62
     5
 10
-125.0
 20
-124.0
 30
0.0
 11
-125.0
 21
0.0
 31
0.0
  0
LINE
  8
DETAIL
  6
CONTINUOUS
 62
     5
 10
53.378186999999798
 20
-125.0
 30
0.0
 11
124.0
 21
-125.0
 31
0.0
  0
LINE
  8
DETAIL
  6
CONTINUOUS
 62
     5
 10
-53.378188000000137
 20
-125.0
 30
0.0
 11
-124.0
 21
-125.0
 31
0.0
  0
LINE
  8
NOTE
  6
CENTER
 62
     4
 10
-65.00019999999995
 20
-90.01200300000005
 30
0.0
 11
-65.00019999999995
 21
-110.5119960000002
 31
0.0
  0
LINE
  8
NOTE
  6
CENTER
 62
     4
 10
-73.507991999999831
 20
-98.50018
 30
0.0
 11
-56.508009000000129
 21
-98.50018
 31
0.0
  0
LINE
  8
NOTE
  6
CENTER
 62
     4
 10
73.507990999999947
 20
-98.50018
 30
0.0
 11
56.508007999999791
 21
-98.50018
 31
0.0
  0
LINE
  8
NOTE
  6
CENTER
 62
     4
 10
65.00019999999995
 20
-90.01200300000005
 30
0.0
 11
65.00019999999995
 21
-110.5119960000002
 31
0.0
  0
LINE
  8
DETAIL
  6
CONTINUOUS
 62
     5
 10
67.483672999999726
 20
-102.0120000000002
 30
0.0
 11
67.483672999999726
 21
-98.512000000000171
 31
0.0
  0
LINE
  8
NOTE
  6
CENTER
 62
     4
 10
68.99172499999986
 20
-30.995679999999989
 30
0.0
 11
68.99172499999986
 21
-61.993159999999989
 31
0.0
  0
LINE
  8
NOTE
  6
CENTER
 62
     4
 10
84.490464999999858
 20
-46.494419999999991
 30
0.0
 11
53.492984999999862
 21
-46.494419999999991
 31
0.0
  0
LINE
  8
NOTE
  6
CENTER
 62
     4
 10
73.507990999999947
 20
98.50018
 30
0.0
 11
56.508007999999791
 21
98.50018
 31
0.0
  0
LINE
  8
NOTE
  6
CENTER
 62
     4
 10
65.00019999999995
 20
90.012003999999934
 30
0.0
 11
65.00019999999995
 21
110.51199699999979
 31
0.0
  0
LINE
  8
NOTE
  6
CENTER
 62
     4
 10
98.50018
 20
57.008008999999902
 30
0.0
 11
98.50018
 21
73.007991999999831
 31
0.0
  0
LINE
  8
NOTE
  6
CENTER
 62
     4
 10
110.0119959999997
 20
65.00019999999995
 30
0.0
 11
90.512002999999822
 21
65.00019999999995
 31
0.0
  0
LINE
  8
NOTE
  6
CENTER
 62
     4
 10
-110.01199700000009
 20
65.00019999999995
 30
0.0
 11
-90.512004000000161
 21
65.00019999999995
 31
0.0
  0
LINE
  8
NOTE
  6
CENTER
 62
     4
 10
-98.50018
 20
57.008008999999902
 30
0.0
 11
-98.50018
 21
73.007991999999831
 31
0.0
  0
LINE
  8
NOTE
  6
CENTER
 62
     4
 10
-98.50018
 20
-57.008008000000018
 30
0.0
 11
-98.50018
 21
-73.007990999999947
 31
0.0
  0
LINE
  8
NOTE
  6
CENTER
 62
     4
 10
-110.01199700000009
 20
-65.00019999999995
 30
0.0
 11
-90.512004000000161
 21
-65.00019999999995
 31
0.0
  0
LINE
  8
NOTE
  6
CENTER
 62
     4
 10
-65.00019999999995
 20
90.012003999999934
 30
0.0
 11
-65.00019999999995
 21
110.51199699999979
 31
0.0
  0
LINE
  8
NOTE
  6
CENTER
 62
     4
 10
-73.507991999999831
 20
98.50018
 30
0.0
 11
-56.508009000000129
 21
98.50018
 31
0.0
  0
LINE
  8
NOTE
  6
CENTER
 62
     4
 10
98.50018
 20
-57.008008000000018
 30
0.0
 11
98.50018
 21
-73.007990999999947
 31
0.0
  0
LINE
  8
NOTE
  6
CENTER
 62
     4
 10
110.0119959999997
 20
-65.00019999999995
 30
0.0
 11
90.512002999999822
 21
-65.00019999999995
 31
0.0
  0
LINE
  8
DETAIL
  6
CONTINUOUS
 62
     5
 10
67.483672999999726
 20
102.0119999999999
 30
0.0
 11
67.483672999999726
 21
98.511999999999944
 31
0.0
  0
LINE
  8
DETAIL
  6
CONTINUOUS
 62
     5
 10
-67.483674000000065
 20
102.0119999999999
 30
0.0
 11
-67.483674000000065
 21
98.511999999999944
 31
0.0
  0
LINE
  8
DETAIL
  6
CONTINUOUS
 62
     5
 10
-67.483674000000065
 20
-102.0120000000002
 30
0.0
 11
-67.483674000000065
 21
-98.512000000000171
 31
0.0
  0
LINE
  8
DETAIL
  6
CONTINUOUS
 62
     5
 10
-98.511999999999716
 20
62.501126999999997
 30
0.0
 11
-102.0119999999997
 21
62.501126999999997
 31
0.0
  0
LINE
  8
DETAIL
  6
CONTINUOUS
 62
     5
 10
98.511999999999716
 20
62.501126999999997
 30
0.0
 11
102.0119999999997
 21
62.501126999999997
 31
0.0
  0
LINE
  8
DETAIL
  6
CONTINUOUS
 62
     5
 10
-98.511999999999716
 20
-62.501126000000113
 30
0.0
 11
-102.0119999999997
 21
-62.501126000000113
 31
0.0
  0
LINE
  8
DETAIL
  6
CONTINUOUS
 62
     5
 10
98.511999999999716
 20
-62.501126000000113
 30
0.0
 11
102.0119999999997
 21
-62.501126000000113
 31
0.0
  0
CIRCLE
  8
FIX
  6
CONTINUOUS
 62
    11
 10
-64.992400000000089
 20
98.511999999999944
 30
0.0
 40
10.0
  0
CIRCLE
  8
FIX
  6
CONTINUOUS
 62
    11
 10
64.992400000000089
 20
98.511999999999944
 30
0.0
 40
10.0
  0
CIRCLE
  8
FIX
  6
CONTINUOUS
 62
    11
 10
98.50018
 20
65.00800049999998
 30
0.0
 40
10.0
  0
CIRCLE
  8
FIX
  6
CONTINUOUS
 62
    11
 10
98.511999999999716
 20
-65.008000000000038
 30
0.0
 40
10.0
  0
CIRCLE
  8
FIX
  6
CONTINUOUS
 62
    11
 10
64.992400000000089
 20
-98.512000000000171
 30
0.0
 40
10.0
  0
CIRCLE
  8
FIX
  6
CONTINUOUS
 62
    11
 10
-64.992400000000089
 20
-98.512000000000171
 30
0.0
 40
10.0
  0
CIRCLE
  8
FIX
  6
CONTINUOUS
 62
    11
 10
-98.50018
 20
-65.007999500000096
 30
0.0
 40
10.0
  0
CIRCLE
  8
FIX
  6
CONTINUOUS
 62
    11
 10
-98.50018
 20
65.00019999999995
 30
0.0
 40
10.0
  0
LINE
  8
SIZE
  6
CONTINUOUS
 62
    30
 10
-92.0
 20
87.0
 30
0.0
 11
-446.80145968089352
 21
87.0
 31
0.0
  0
LINE
  8
SIZE
  6
CONTINUOUS
 62
    30
 10
-105.0
 20
-87.0
 30
0.0
 11
-446.80145968089352
 21
-87.0
 31
0.0
  0
LINE
  8
SIZE
  6
CONTINUOUS
 62
    30
 10
-426.80145968089352
 20
99.0
 30
0.0
 11
-426.80145968089352
 21
111.0
 31
0.0
  0
LINE
  8
SIZE
  6
CONTINUOUS
 62
    30
 10
-426.80145968089352
 20
-99.0
 30
0.0
 11
-426.80145968089352
 21
-111.0
 31
0.0
  0
LINE
  8
SIZE
  6
CONTINUOUS
 62
    30
 10
-426.80145968089352
 20
87.0
 30
0.0
 11
-426.80145968089352
 21
-87.0
 31
0.0
  0
CIRCLE
  8
SIZE
  6
CONTINUOUS
 62
    30
 10
-426.80145968089352
 20
87.0
 30
0.0
 40
6.0
  0
LINE
  8
SIZE
  6
CONTINUOUS
 62
    30
 10
-426.80145968089352
 20
87.0
 30
0.0
 11
-426.80145968089352
 21
99.0
 31
0.0
  0
CIRCLE
  8
SIZE
  6
CONTINUOUS
 62
    30
 10
-426.80145968089352
 20
-87.0
 30
0.0
 40
6.0
  0
LINE
  8
SIZE
  6
CONTINUOUS
 62
    30
 10
-426.80145968089352
 20
-87.0
 30
0.0
 11
-426.80145968089352
 21
-99.0
 31
0.0
  0
TEXT
  8
SIZE
  6
CONTINUOUS
 62
    30
 10
-448.58330212025987
 20
-106.4228571428571
 30
0.0
 40
64.0
  1
□174
 50
90.000000000000014
 41
0.9
 72
     1
 11
-448.58330212025999
 21
0.0
 31
0.0
  0
POINT
  8
DEFPOINTS
  6
CONTINUOUS
 62
    30
 10
72.0
 20
87.0
 30
0.0
  0
POINT
  8
DEFPOINTS
  6
CONTINUOUS
 62
    30
 10
85.0
 20
-87.0
 30
0.0
  0
POINT
  8
DEFPOINTS
  6
CONTINUOUS
 62
    30
 10
-426.80145968089352
 20
-87.0
 30
0.0
 50
180.0
  0
POINT
  8
DEFPOINTS
  6
CONTINUOUS
 62
    30
 10
124.0
 20
-125.0
 30
0.0
  0
POINT
  8
DEFPOINTS
  6
CONTINUOUS
 62
    30
 10
124.0
 20
125.0
 30
0.0
  0
LINE
  8
SIZE
  6
CONTINUOUS
 62
    30
 10
-105.0
 20
-87.0
 30
0.0
 11
-446.80145968089352
 21
-87.0
 31
0.0
  0
LINE
  8
SIZE
  6
CONTINUOUS
 62
    30
 10
-68.310035999999855
 20
-196.02482499999999
 30
0.0
 11
-446.80145968089352
 21
-196.02482500000019
 31
0.0
  0
LINE
  8
SIZE
  6
CONTINUOUS
 62
    30
 10
-426.80145968089352
 20
-99.0
 30
0.0
 11
-426.80145968089352
 21
-184.02482500000019
 31
0.0
  0
LINE
  8
SIZE
  6
CONTINUOUS
 62
    30
 10
-426.80145968089352
 20
-196.02482500000019
 30
0.0
 11
-426.80145968089317
 21
-392.42482500000023
 31
0.0
  0
CIRCLE
  8
SIZE
  6
CONTINUOUS
 62
    30
 10
-426.80145968089352
 20
-87.0
 30
0.0
 40
6.0
  0
LINE
  8
SIZE
  6
CONTINUOUS
 62
    30
 10
-426.80145968089352
 20
-87.0
 30
0.0
 11
-426.80145968089352
 21
-99.0
 31
0.0
  0
CIRCLE
  8
SIZE
  6
CONTINUOUS
 62
    30
 10
-426.80145968089352
 20
-196.02482500000019
 30
0.0
 40
6.0
  0
LINE
  8
SIZE
  6
CONTINUOUS
 62
    30
 10
-426.80145968089352
 20
-196.02482500000019
 30
0.0
 11
-426.80145968089352
 21
-184.02482500000019
 31
0.0
  0
TEXT
  8
SIZE
  6
CONTINUOUS
 62
    30
 10
-448.58330212025999
 20
-367.424825
 30
0.0
 40
64.0
  1
109
 50
90.000000000000014
 41
0.9
 72
     1
 11
-448.58330212025999
 21
-300.22482500000001
 31
0.0
  0
POINT
  8
DEFPOINTS
  6
CONTINUOUS
 62
    30
 10
85.0
 20
-87.0
 30
0.0
  0
POINT
  8
DEFPOINTS
  6
CONTINUOUS
 62
    30
 10
48.310035999999847
 20
-196.02482499999999
 30
0.0
  0
POINT
  8
DEFPOINTS
  6
CONTINUOUS
 62
    30
 10
-426.80145968089352
 20
-196.02482500000019
 30
0.0
 50
180.0
  0
LINE
  8
SIZE
  6
CONTINUOUS
 62
    30
 10
68.310035999999855
 20
-196.02482500000011
 30
0.0
 11
384.62452476712002
 21
-196.02482500000019
 31
0.0
  0
LINE
  8
SIZE
  6
CONTINUOUS
 62
    30
 10
69.201146999999764
 20
-154.00685000000021
 30
0.0
 11
384.62452476712002
 21
-154.00685000000021
 31
0.0
  0
LINE
  8
SIZE
  6
CONTINUOUS
 62
    30
 10
364.62452476712002
 20
-142.00685000000021
 30
0.0
 11
364.62452476712002
 21
-130.00685000000021
 31
0.0
  0
LINE
  8
SIZE
  6
CONTINUOUS
 62
    30
 10
364.62452476712002
 20
-208.02482500000019
 30
0.0
 11
364.62452476712002
 21
-363.28196785714289
 31
0.0
  0
LINE
  8
SIZE
  6
CONTINUOUS
 62
    30
 10
364.62452476712002
 20
-154.00685000000021
 30
0.0
 11
364.62452476712002
 21
-196.02482500000019
 31
0.0
  0
CIRCLE
  8
SIZE
  6
CONTINUOUS
 62
    30
 10
364.62452476712002
 20
-154.00685000000021
 30
0.0
 40
6.0
  0
LINE
  8
SIZE
  6
CONTINUOUS
 62
    30
 10
364.62452476712002
 20
-154.00685000000021
 30
0.0
 11
364.62452476712002
 21
-142.00685000000021
 31
0.0
  0
CIRCLE
  8
SIZE
  6
CONTINUOUS
 62
    30
 10
364.62452476712002
 20
-196.02482500000019
 30
0.0
 40
6.0
  0
LINE
  8
SIZE
  6
CONTINUOUS
 62
    30
 10
364.62452476712002
 20
-196.02482500000019
 30
0.0
 11
364.62452476712002
 21
-208.02482500000019
 31
0.0
  0
TEXT
  8
SIZE
  6
CONTINUOUS
 62
    30
 10
339.62452476712002
 20
-338.281967857143
 30
0.0
 40
64.0
  1
42
 50
90.0
 41
0.9
 72
     1
 11
339.62452476712002
 21
-291.65339642857163
 31
0.0
  0
POINT
  8
DEFPOINTS
  6
CONTINUOUS
 62
    30
 10
48.310035999999847
 20
-196.02482500000011
 30
0.0
  0
POINT
  8
DEFPOINTS
  6
CONTINUOUS
 62
    30
 10
49.201146999999757
 20
-154.00685000000021
 30
0.0
  0
POINT
  8
DEFPOINTS
  6
CONTINUOUS
 62
    30
 10
364.62452476712002
 20
-154.00685000000021
 30
0.0
  0
LINE
  8
SIZE
  6
CONTINUOUS
 62
    30
 10
68.310035999999855
 20
-196.02482500000011
 30
0.0
 11
486.73494146075109
 21
-196.02482500000019
 31
0.0
  0
LINE
  8
SIZE
  6
CONTINUOUS
 62
    30
 10
72.863583999999719
 20
-127.159126
 30
0.0
 11
486.73494146075109
 21
-127.159126
 31
0.0
  0
LINE
  8
SIZE
  6
CONTINUOUS
 62
    30
 10
466.73494146075109
 20
-115.159126
 30
0.0
 11
466.73494146075109
 21
-103.159126
 31
0.0
  0
LINE
  8
SIZE
  6
CONTINUOUS
 62
    30
 10
466.73494146075109
 20
-208.02482500000019
 30
0.0
 11
466.73494146075109
 21
-360.53911071428593
 31
0.0
  0
LINE
  8
SIZE
  6
CONTINUOUS
 62
    30
 10
466.73494146075109
 20
-127.159126
 30
0.0
 11
466.73494146075109
 21
-196.02482500000019
 31
0.0
  0
CIRCLE
  8
SIZE
  6
CONTINUOUS
 62
    30
 10
466.73494146075109
 20
-127.159126
 30
0.0
 40
6.0
  0
LINE
  8
SIZE
  6
CONTINUOUS
 62
    30
 10
466.73494146075109
 20
-127.159126
 30
0.0
 11
466.73494146075109
 21
-115.159126
 31
0.0
  0
CIRCLE
  8
SIZE
  6
CONTINUOUS
 62
    30
 10
466.73494146075109
 20
-196.02482500000019
 30
0.0
 40
6.0
  0
LINE
  8
SIZE
  6
CONTINUOUS
 62
    30
 10
466.73494146075109
 20
-196.02482500000019
 30
0.0
 11
466.73494146075109
 21
-208.02482500000019
 31
0.0
  0
TEXT
  8
SIZE
  6
CONTINUOUS
 62
    30
 10
441.73494146075109
 20
-335.53911071428581
 30
0.0
 40
64.0
  1
69
 50
90.0
 41
0.9
 72
     1
 11
441.73494146075109
 21
-290.28196785714289
 31
0.0
  0
POINT
  8
DEFPOINTS
  6
CONTINUOUS
 62
    30
 10
48.310035999999847
 20
-196.02482500000011
 30
0.0
  0
POINT
  8
DEFPOINTS
  6
CONTINUOUS
 62
    30
 10
52.863583999999719
 20
-127.159126
 30
0.0
  0
POINT
  8
DEFPOINTS
  6
CONTINUOUS
 62
    30
 10
466.73494146075109
 20
-127.159126
 30
0.0
  0
LINE
  8
SIZE
  6
CONTINUOUS
 62
    30
 10
130.0119959999997
 20
-65.00019999999995
 30
0.0
 11
605.19501186958587
 21
-65.000200000000177
 31
0.0
  0
LINE
  8
SIZE
  6
CONTINUOUS
 62
    30
 10
130.0119959999997
 20
65.00019999999995
 30
0.0
 11
605.19501186958587
 21
65.00019999999995
 31
0.0
  0
LINE
  8
SIZE
  6
CONTINUOUS
 62
    30
 10
585.19501186958587
 20
-77.000200000000177
 30
0.0
 11
585.19501186958587
 21
-316.24046070704031
 31
0.0
  0
LINE
  8
SIZE
  6
CONTINUOUS
 62
    30
 10
585.19501186958587
 20
-65.000200000000177
 30
0.0
 11
585.19501186958587
 21
65.00019999999995
 31
0.0
  0
CIRCLE
  8
SIZE
  6
CONTINUOUS
 62
    30
 10
585.19501186958587
 20
-65.000200000000177
 30
0.0
 40
6.0
  0
LINE
  8
SIZE
  6
CONTINUOUS
 62
    30
 10
585.19501186958587
 20
-65.000200000000177
 30
0.0
 11
585.19501186958587
 21
-77.000200000000177
 31
0.0
  0
CIRCLE
  8
SIZE
  6
CONTINUOUS
 62
    30
 10
585.19501186958587
 20
65.00019999999995
 30
0.0
 40
6.0
  0
LINE
  8
SIZE
  6
CONTINUOUS
 62
    30
 10
585.19501186958587
 20
65.00019999999995
 30
0.0
 11
585.19501186958587
 21
77.00019999999995
 31
0.0
  0
TEXT
  8
SIZE
  6
CONTINUOUS
 62
    30
 10
560.19501186958587
 20
-294.61982338112023
 30
0.0
 40
64.0
  1
130
 50
90.0
 41
0.9
 72
     1
 11
560.19501186958587
 21
-226.0483948096917
 31
0.0
  0
POINT
  8
DEFPOINTS
  6
CONTINUOUS
 62
    30
 10
110.0119959999997
 20
-65.00019999999995
 30
0.0
  0
POINT
  8
DEFPOINTS
  6
CONTINUOUS
 62
    30
 10
110.0119959999997
 20
65.00019999999995
 30
0.0
  0
POINT
  8
DEFPOINTS
  6
CONTINUOUS
 62
    30
 10
585.19501186958587
 20
65.00019999999995
 30
0.0
  0
LINE
  8
SIZE
  6
CONTINUOUS
 62
    30
 10
93.507990999999947
 20
-98.50018
 30
0.0
 11
726.4117397356481
 21
-98.500180000000228
 31
0.0
  0
LINE
  8
SIZE
  6
CONTINUOUS
 62
    30
 10
93.507990999999947
 20
98.50018
 30
0.0
 11
726.4117397356481
 21
98.500179999999773
 31
0.0
  0
LINE
  8
SIZE
  6
CONTINUOUS
 62
    30
 10
706.4117397356481
 20
-86.500180000000228
 30
0.0
 11
706.4117397356481
 21
86.500179999999773
 31
0.0
  0
CIRCLE
  8
SIZE
  6
CONTINUOUS
 62
    30
 10
706.4117397356481
 20
-98.500180000000228
 30
0.0
 40
6.0
  0
LINE
  8
SIZE
  6
CONTINUOUS
 62
    30
 10
706.4117397356481
 20
-98.500180000000228
 30
0.0
 11
706.4117397356481
 21
-86.500180000000228
 31
0.0
  0
CIRCLE
  8
SIZE
  6
CONTINUOUS
 62
    30
 10
706.4117397356481
 20
98.500179999999773
 30
0.0
 40
6.0
  0
LINE
  8
SIZE
  6
CONTINUOUS
 62
    30
 10
706.4117397356481
 20
98.500179999999773
 30
0.0
 11
706.4117397356481
 21
86.500179999999773
 31
0.0
  0
TEXT
  8
SIZE
  6
CONTINUOUS
 62
    30
 10
681.4117397356481
 20
-68.571428571428569
 30
0.0
 40
64.0
  1
197
 50
90.0
 41
0.9
 72
     1
 11
681.4117397356481
 21
0.0
 31
0.0
  0
POINT
  8
DEFPOINTS
  6
CONTINUOUS
 62
    30
 10
73.507990999999947
 20
-98.50018
 30
0.0
  0
POINT
  8
DEFPOINTS
  6
CONTINUOUS
 62
    30
 10
73.507990999999947
 20
98.50018
 30
0.0
  0
POINT
  8
DEFPOINTS
  6
CONTINUOUS
 62
    30
 10
706.4117397356481
 20
98.500179999999773
 30
0.0
  0
LINE
  8
SIZE
  6
CONTINUOUS
 62
    30
 10
98.50018
 20
-93.007990999999947
 30
0.0
 11
98.50018
 21
-744.19396544564165
 31
0.0
  0
LINE
  8
SIZE
  6
CONTINUOUS
 62
    30
 10
-98.50018
 20
-93.007990999999947
 30
0.0
 11
-98.50018
 21
-744.19396544564165
 31
0.0
  0
LINE
  8
SIZE
  6
CONTINUOUS
 62
    30
 10
86.50018
 20
-724.19396544564165
 30
0.0
 11
-86.50018
 21
-724.19396544564165
 31
0.0
  0
CIRCLE
  8
SIZE
  6
CONTINUOUS
 62
    30
 10
98.50018
 20
-724.19396544564165
 30
0.0
 40
6.0
  0
LINE
  8
SIZE
  6
CONTINUOUS
 62
    30
 10
98.50018
 20
-724.19396544564165
 30
0.0
 11
86.50018
 21
-724.19396544564165
 31
0.0
  0
CIRCLE
  8
SIZE
  6
CONTINUOUS
 62
    30
 10
-98.50018
 20
-724.19396544564165
 30
0.0
 40
6.0
  0
LINE
  8
SIZE
  6
CONTINUOUS
 62
    30
 10
-98.50018
 20
-724.19396544564165
 30
0.0
 11
-86.50018
 21
-724.19396544564165
 31
0.0
  0
TEXT
  8
SIZE
  6
CONTINUOUS
 62
    30
 10
-68.571428571428569
 20
-699.19396544564165
 30
0.0
 40
64.0
  1
197
 41
0.9
 72
     1
 11
0.0
 21
-699.19396544564165
 31
0.0
  0
POINT
  8
DEFPOINTS
  6
CONTINUOUS
 62
    30
 10
98.50018
 20
-73.007990999999947
 30
0.0
  0
POINT
  8
DEFPOINTS
  6
CONTINUOUS
 62
    30
 10
-98.50018
 20
-73.007990999999947
 30
0.0
  0
POINT
  8
DEFPOINTS
  6
CONTINUOUS
 62
    30
 10
-98.50018
 20
-724.19396544564165
 30
0.0
  0
LINE
  8
SIZE
  6
CONTINUOUS
 62
    30
 10
-65.00019999999995
 20
-130.51199600000021
 30
0.0
 11
-65.00019999999995
 21
-619.94846010818844
 31
0.0
  0
LINE
  8
SIZE
  6
CONTINUOUS
 62
    30
 10
65.00019999999995
 20
-130.51199600000021
 30
0.0
 11
65.00019999999995
 21
-619.94846010818844
 31
0.0
  0
LINE
  8
SIZE
  6
CONTINUOUS
 62
    30
 10
-77.00019999999995
 20
-599.94846010818844
 30
0.0
 11
-300.72611611582028
 21
-599.94846010818844
 31
0.0
  0
LINE
  8
SIZE
  6
CONTINUOUS
 62
    30
 10
-65.00019999999995
 20
-599.94846010818844
 30
0.0
 11
65.00019999999995
 21
-599.94846010818844
 31
0.0
  0
CIRCLE
  8
SIZE
  6
CONTINUOUS
 62
    30
 10
-65.00019999999995
 20
-599.94846010818844
 30
0.0
 40
6.0
  0
LINE
  8
SIZE
  6
CONTINUOUS
 62
    30
 10
-65.00019999999995
 20
-599.94846010818844
 30
0.0
 11
-77.00019999999995
 21
-599.94846010818844
 31
0.0
  0
CIRCLE
  8
SIZE
  6
CONTINUOUS
 62
    30
 10
65.00019999999995
 20
-599.94846010818844
 30
0.0
 40
6.0
  0
TEXT
  8
SIZE
  6
CONTINUOUS
 62
    30
 10
-277.65849945524781
 20
-574.94846010818844
 30
0.0
 40
64.0
  1
130
 41
0.9
 72
     1
 11
-209.08707088381931
 21
-574.94846010818844
 31
0.0
  0
POINT
  8
DEFPOINTS
  6
CONTINUOUS
 62
    30
 10
-65.00019999999995
 20
-110.5119960000002
 30
0.0
  0
POINT
  8
DEFPOINTS
  6
CONTINUOUS
 62
    30
 10
65.00019999999995
 20
-110.5119960000002
 30
0.0
  0
POINT
  8
DEFPOINTS
  6
CONTINUOUS
 62
    30
 10
65.00019999999995
 20
-599.94846010818844
 30
0.0
  0
LINE
  8
SIZE
  6
CONTINUOUS
 62
    30
 10
-111.50012000000019
 20
-121.50012000000019
 30
0.0
 11
-111.50012000000019
 21
-858.085675764592
 31
0.0
  0
LINE
  8
SIZE
  6
CONTINUOUS
 62
    30
 10
111.5001199999997
 20
-121.50012000000019
 30
0.0
 11
111.5001199999997
 21
-858.085675764592
 31
0.0
  0
LINE
  8
SIZE
  6
CONTINUOUS
 62
    30
 10
-99.500120000000152
 20
-838.085675764592
 30
0.0
 11
99.500119999999697
 21
-838.085675764592
 31
0.0
  0
CIRCLE
  8
SIZE
  6
CONTINUOUS
 62
    30
 10
-111.50012000000019
 20
-838.085675764592
 30
0.0
 40
6.0
  0
LINE
  8
SIZE
  6
CONTINUOUS
 62
    30
 10
-111.50012000000019
 20
-838.085675764592
 30
0.0
 11
-99.500120000000152
 21
-838.085675764592
 31
0.0
  0
CIRCLE
  8
SIZE
  6
CONTINUOUS
 62
    30
 10
111.5001199999997
 20
-838.085675764592
 30
0.0
 40
6.0
  0
LINE
  8
SIZE
  6
CONTINUOUS
 62
    30
 10
111.5001199999997
 20
-838.085675764592
 30
0.0
 11
99.500119999999697
 21
-838.085675764592
 31
0.0
  0
TEXT
  8
SIZE
  6
CONTINUOUS
 62
    30
 10
-74.057142857142836
 20
-813.085675764592
 30
0.0
 40
64.0
  1
223
 41
0.9
 72
     1
 11
0.0
 21
-813.085675764592
 31
0.0
  0
POINT
  8
DEFPOINTS
  6
CONTINUOUS
 62
    30
 10
-111.50012000000019
 20
-101.50012000000019
 30
0.0
  0
POINT
  8
DEFPOINTS
  6
CONTINUOUS
 62
    30
 10
111.5001199999997
 20
-101.50012000000019
 30
0.0
  0
POINT
  8
DEFPOINTS
  6
CONTINUOUS
 62
    30
 10
111.5001199999997
 20
-838.085675764592
 30
0.0
  0
LINE
  8
SIZE
  6
CONTINUOUS
 62
    30
 10
121.5001199999997
 20
-111.50012000000019
 30
0.0
 11
840.21786758307553
 21
-111.50012000000019
 31
0.0
  0
LINE
  8
SIZE
  6
CONTINUOUS
 62
    30
 10
121.5001199999997
 20
111.5001199999999
 30
0.0
 11
840.21786758307553
 21
111.5001199999997
 31
0.0
  0
LINE
  8
SIZE
  6
CONTINUOUS
 62
    30
 10
820.21786758307553
 20
-99.500120000000152
 30
0.0
 11
820.21786758307553
 21
99.500119999999697
 31
0.0
  0
CIRCLE
  8
SIZE
  6
CONTINUOUS
 62
    30
 10
820.21786758307553
 20
-111.50012000000019
 30
0.0
 40
6.0
  0
LINE
  8
SIZE
  6
CONTINUOUS
 62
    30
 10
820.21786758307553
 20
-111.50012000000019
 30
0.0
 11
820.21786758307553
 21
-99.500120000000152
 31
0.0
  0
CIRCLE
  8
SIZE
  6
CONTINUOUS
 62
    30
 10
820.21786758307553
 20
111.5001199999997
 30
0.0
 40
6.0
  0
LINE
  8
SIZE
  6
CONTINUOUS
 62
    30
 10
820.21786758307553
 20
111.5001199999997
 30
0.0
 11
820.21786758307553
 21
99.500119999999697
 31
0.0
  0
TEXT
  8
SIZE
  6
CONTINUOUS
 62
    30
 10
795.21786758307553
 20
-74.057142857142836
 30
0.0
 40
64.0
  1
223
 50
90.0
 41
0.9
 72
     1
 11
795.21786758307553
 21
0.0
 31
0.0
  0
POINT
  8
DEFPOINTS
  6
CONTINUOUS
 62
    30
 10
101.5001199999997
 20
-111.50012000000019
 30
0.0
  0
POINT
  8
DEFPOINTS
  6
CONTINUOUS
 62
    30
 10
101.5001199999997
 20
111.5001199999999
 30
0.0
  0
POINT
  8
DEFPOINTS
  6
CONTINUOUS
 62
    30
 10
820.21786758307553
 20
111.5001199999997
 30
0.0
  0
LINE
  8
SIZE
  6
CONTINUOUS
 62
    30
 10
-48.809042998619127
 20
-215.53015376810359
 30
0.0
 11
-48.809042998619127
 21
-367.84958174326482
 31
0.0
  0
LINE
  8
SIZE
  6
CONTINUOUS
 62
    30
 10
48.809042998618679
 20
-215.53015376810359
 30
0.0
 11
48.809042998618679
 21
-367.84958174326482
 31
0.0
  0
LINE
  8
SIZE
  6
CONTINUOUS
 62
    30
 10
36.809042998618679
 20
-347.84958174326482
 30
0.0
 11
-36.809042998619127
 21
-347.84958174326482
 31
0.0
  0
LINE
  8
SIZE
  6
CONTINUOUS
 62
    30
 10
-48.809042998619127
 20
-347.84958174326482
 30
0.0
 11
-322.82451021986913
 21
-347.84958174326482
 31
0.0
  0
CIRCLE
  8
SIZE
  6
CONTINUOUS
 62
    30
 10
48.809042998618679
 20
-347.84958174326482
 30
0.0
 40
6.0
  0
LINE
  8
SIZE
  6
CONTINUOUS
 62
    30
 10
48.809042998618679
 20
-347.84958174326482
 30
0.0
 11
36.809042998618679
 21
-347.84958174326482
 31
0.0
  0
CIRCLE
  8
SIZE
  6
CONTINUOUS
 62
    30
 10
-48.809042998619127
 20
-347.84958174326482
 30
0.0
 40
6.0
  0
LINE
  8
SIZE
  6
CONTINUOUS
 62
    30
 10
-48.809042998619127
 20
-347.84958174326482
 30
0.0
 11
-36.809042998619127
 21
-347.84958174326482
 31
0.0
  0
TEXT
  8
SIZE
  6
CONTINUOUS
 62
    30
 10
-307.9730816484406
 20
-312.18291507659808
 30
0.0
 40
64.0
  1
φ98
 41
0.9
 72
     1
 11
-221.0245102198692
 21
-312.18291507659808
 31
0.0
  0
POINT
  8
DEFPOINTS
  6
CONTINUOUS
 62
    30
 10
-48.809042998619127
 20
-195.53015376810359
 30
0.0
  0
POINT
  8
DEFPOINTS
  6
CONTINUOUS
 62
    30
 10
48.809042998618679
 20
-195.53015376810359
 30
0.0
  0
POINT
  8
DEFPOINTS
  6
CONTINUOUS
 62
    30
 10
48.809042998618679
 20
-347.84958174326482
 30
0.0
  0
LINE
  8
SIZE
  6
CONTINUOUS
 62
    30
 10
-52.403541983844661
 20
-164.8086798008467
 30
0.0
 11
-52.403541983844661
 21
-500.9697643722227
 31
0.0
  0
LINE
  8
SIZE
  6
CONTINUOUS
 62
    30
 10
52.403540983844323
 20
-164.8086798008467
 30
0.0
 11
52.403540983844323
 21
-500.9697643722227
 31
0.0
  0
LINE
  8
SIZE
  6
CONTINUOUS
 62
    30
 10
40.403540983844323
 20
-480.9697643722227
 30
0.0
 11
-40.403541983844661
 21
-480.9697643722227
 31
0.0
  0
LINE
  8
SIZE
  6
CONTINUOUS
 62
    30
 10
-52.403541983844661
 20
-480.9697643722227
 30
0.0
 11
-378.79667928675121
 21
-480.9697643722227
 31
0.0
  0
CIRCLE
  8
SIZE
  6
CONTINUOUS
 62
    30
 10
52.403540983844323
 20
-480.9697643722227
 30
0.0
 40
6.0
  0
LINE
  8
SIZE
  6
CONTINUOUS
 62
    30
 10
52.403540983844323
 20
-480.9697643722227
 30
0.0
 11
40.403540983844323
 21
-480.9697643722227
 31
0.0
  0
CIRCLE
  8
SIZE
  6
CONTINUOUS
 62
    30
 10
-52.403541983844661
 20
-480.9697643722227
 30
0.0
 40
6.0
  0
LINE
  8
SIZE
  6
CONTINUOUS
 62
    30
 10
-52.403541983844661
 20
-480.9697643722227
 30
0.0
 11
-40.403541983844661
 21
-480.9697643722227
 31
0.0
  0
TEXT
  8
SIZE
  6
CONTINUOUS
 62
    30
 10
-363.9452507153228
 20
-445.30309770555601
 30
0.0
 40
64.0
  1
φ105
 41
0.9
 72
     1
 11
-255.05382214389419
 21
-445.30309770555601
 31
0.0
  0
POINT
  8
DEFPOINTS
  6
CONTINUOUS
 62
    30
 10
-52.403541983844661
 20
-144.8086798008467
 30
0.0
  0
POINT
  8
DEFPOINTS
  6
CONTINUOUS
 62
    30
 10
52.403540983844323
 20
-144.8086798008467
 30
0.0
  0
POINT
  8
DEFPOINTS
  6
CONTINUOUS
 62
    30
 10
52.403540983844323
 20
-480.9697643722227
 30
0.0
  0
TEXT
  8
NOTE
  6
CONTINUOUS
 62
     4
 10
152.74573345775801
 20
188.414076730402
 30
0.0
 40
63.999999999999993
  1
8-φ5×8.5
 50
359.85073780173718
 41
0.9
  0
LINE
  8
NOTE
  6
CONTINUOUS
 62
     4
 10
608.61502988942448
 20
166.09557273947121
 30
0.0
 11
125.75640928872549
 21
166.9706830931309
 31
0.0
  0
LINE
  8
NOTE
  6
CONTINUOUS
 62
     4
 10
64.920773499999996
 20
98.50018
 30
0.0
 11
125.75640928872549
 21
166.9706830931309
 31
0.0
  0
LINE
  8
NOTE
  6
CONTINUOUS
 62
     4
 10
64.920773499999996
 20
98.50018
 30
0.0
 11
96.233518847579035
 21
121.1836024188833
 31
0.0
  0
LINE
  8
NOTE
  6
CONTINUOUS
 62
     4
 10
83.91604819402346
 20
133.69947633376111
 30
0.0
 11
64.920773499999996
 21
98.50018
 31
0.0
  0
TEXT
  8
ETC
  6
CONTINUOUS
 62
    61
 10
742.95817330323189
 20
279.32480149497502
 30
0.0
 40
50.0
  1
VD-10ZVC6
 41
0.9
  0
TEXT
  8
ETC
  6
CONTINUOUS
 62
    61
 10
742.95817330323189
 20
196.82480149497499
 30
0.0
 40
50.0
  1
VD-10ZLC13-S
 41
0.9
  0
LINE
  8
SIZE
  6
CONTINUOUS
 62
    30
 10
-125.0
 20
144.0
 30
0.0
 11
-125.0
 21
313.9682091352588
 31
0.0
  0
LINE
  8
SIZE
  6
CONTINUOUS
 62
    30
 10
125.0
 20
144.0
 30
0.0
 11
125.0
 21
313.9682091352588
 31
0.0
  0
LINE
  8
SIZE
  6
CONTINUOUS
 62
    30
 10
-113.0
 20
293.9682091352588
 30
0.0
 11
113.0
 21
293.9682091352588
 31
0.0
  0
CIRCLE
  8
SIZE
  6
CONTINUOUS
 62
    30
 10
-125.0
 20
293.9682091352588
 30
0.0
 40
6.0
  0
LINE
  8
SIZE
  6
CONTINUOUS
 62
    30
 10
-125.0
 20
293.9682091352588
 30
0.0
 11
-113.0
 21
293.9682091352588
 31
0.0
  0
CIRCLE
  8
SIZE
  6
CONTINUOUS
 62
    30
 10
125.0
 20
293.9682091352588
 30
0.0
 40
6.0
  0
LINE
  8
SIZE
  6
CONTINUOUS
 62
    30
 10
125.0
 20
293.9682091352588
 30
0.0
 11
113.0
 21
293.9682091352588
 31
0.0
  0
TEXT
  8
SIZE
  6
CONTINUOUS
 62
    30
 10
-110.5371428571429
 20
318.9682091352588
 30
0.0
 40
64.0
  1
□250
 41
0.9
 72
     1
 11
0.0
 21
318.9682091352588
 31
0.0
  0
POINT
  8
DEFPOINTS
  6
CONTINUOUS
 62
    30
 10
-125.0
 20
124.0
 30
0.0
  0
POINT
  8
DEFPOINTS
  6
CONTINUOUS
 62
    30
 10
125.0
 20
124.0
 30
0.0
  0
POINT
  8
DEFPOINTS
  6
CONTINUOUS
 62
    30
 10
125.0
 20
293.9682091352588
 30
0.0
  0
ENDSEC
  0
EOF
