  0
SECTION
  2
HEADER
  9
$ACADVER
  1
AC1009
  9
$DWGCODEPAGE
  3
dos932
  9
$INSBASE
 10
0.0
 20
0.0
 30
0.0
  9
$EXTMIN
 10
-171.30430420081211
 20
-763.59556972002065
 30
-0.0015258207003583
  9
$EXTMAX
 10
846.55152502999408
 20
384.52149215680771
 30
0.0000000349246037
  9
$LIMMIN
 10
-2970.0
 20
-2100.0
  9
$LIMMAX
 10
2970.0
 20
2100.0
  9
$ORTHOMODE
 70
     1
  9
$REGENMODE
 70
     1
  9
$FILLMODE
 70
     1
  9
$QTEXTMODE
 70
     0
  9
$MIRRTEXT
 70
     0
  9
$LTSCALE
 40
20.0
  9
$ATTMODE
 70
     1
  9
$TEXTSIZE
 40
64.0
  9
$TRACEWID
 40
0.05
  9
$TEXTSTYLE
  7
STANDARD
  9
$CLAYER
  8
SIZE
  9
$CELTYPE
  6
CONTINUOUS
  9
$CECOLOR
 62
     7
  9
$DIMSCALE
 40
1.0
  9
$DIMASZ
 40
12.0
  9
$DIMEXO
 40
20.0
  9
$DIMDLI
 40
200.0
  9
$DIMRND
 40
0.0
  9
$DIMDLE
 40
0.0
  9
$DIMEXE
 40
20.0
  9
$DIMTP
 40
0.0
  9
$DIMTM
 40
0.0
  9
$DIMTXT
 40
64.0
  9
$DIMCEN
 40
0.09
  9
$DIMTSZ
 40
0.0
  9
$DIMTOL
 70
     0
  9
$DIMLIM
 70
     0
  9
$DIMTIH
 70
     0
  9
$DIMTOH
 70
     0
  9
$DIMSE1
 70
     0
  9
$DIMSE2
 70
     0
  9
$DIMTAD
 70
     1
  9
$DIMZIN
 70
     8
  9
$DIMBLK
  1

  9
$DIMASO
 70
     1
  9
$DIMSHO
 70
     0
  9
$DIMPOST
  1

  9
$DIMAPOST
  1

  9
$DIMALT
 70
     0
  9
$DIMALTD
 70
     2
  9
$DIMALTF
 40
25.399999999999999
  9
$DIMLFAC
 40
1.0
  9
$DIMTOFL
 70
     1
  9
$DIMTVP
 40
0.0
  9
$DIMTIX
 70
     1
  9
$DIMSOXD
 70
     0
  9
$DIMSAH
 70
     0
  9
$DIMBLK1
  1

  9
$DIMBLK2
  1

  9
$DIMSTYLE
  2
STANDARD
  9
$DIMCLRD
 70
     7
  9
$DIMCLRE
 70
     7
  9
$DIMCLRT
 70
     7
  9
$DIMTFAC
 40
1.0
  9
$DIMGAP
 40
25.0
  9
$LUNITS
 70
     2
  9
$LUPREC
 70
     4
  9
$SKETCHINC
 40
0.1
  9
$FILLETRAD
 40
3.0
  9
$AUNITS
 70
     1
  9
$AUPREC
 70
     3
  9
$MENU
  1
ACAD
  9
$ELEVATION
 40
0.0
  9
$PELEVATION
 40
0.0
  9
$THICKNESS
 40
0.0
  9
$LIMCHECK
 70
     0
  9
$CHAMFERA
 40
0.0
  9
$CHAMFERB
 40
0.0
  9
$SKPOLY
 70
     0
  9
$TDCREATE
 40
2453019.62301037
  9
$TDUPDATE
 40
2459025.49138772
  9
$TDINDWG
 40
1.7138354282
  9
$TDUSRTIMER
 40
1.7138354282
  9
$USRTIMER
 70
     1
  9
$ANGBASE
 50
0.0
  9
$ANGDIR
 70
     0
  9
$PDMODE
 70
     3
  9
$PDSIZE
 40
-2.0
  9
$PLINEWID
 40
0.0
  9
$SPLFRAME
 70
     0
  9
$SPLINETYPE
 70
     6
  9
$SPLINESEGS
 70
     8
  9
$SURFTAB1
 70
     6
  9
$SURFTAB2
 70
     6
  9
$SURFTYPE
 70
     6
  9
$SURFU
 70
     6
  9
$SURFV
 70
     6
  9
$UCSNAME
  2

  9
$UCSORG
 10
0.0
 20
0.0
 30
0.0
  9
$UCSXDIR
 10
1.0
 20
0.0
 30
0.0
  9
$UCSYDIR
 10
0.0
 20
1.0
 30
0.0
  9
$PUCSNAME
  2

  9
$PUCSORG
 10
0.0
 20
0.0
 30
0.0
  9
$PUCSXDIR
 10
1.0
 20
0.0
 30
0.0
  9
$PUCSYDIR
 10
0.0
 20
1.0
 30
0.0
  9
$USERI1
 70
     0
  9
$USERI2
 70
     0
  9
$USERI3
 70
     0
  9
$USERI4
 70
     0
  9
$USERI5
 70
     0
  9
$USERR1
 40
20.0
  9
$USERR2
 40
0.0
  9
$USERR3
 40
0.0
  9
$USERR4
 40
0.0
  9
$USERR5
 40
0.0
  9
$WORLDVIEW
 70
     1
  9
$SHADEDGE
 70
     3
  9
$SHADEDIF
 70
    70
  9
$TILEMODE
 70
     1
  9
$MAXACTVP
 70
    48
  9
$PINSBASE
 10
0.0
 20
0.0
 30
0.0
  9
$PLIMCHECK
 70
     0
  9
$PEXTMIN
 10
-100000000000000000000.0
 20
-100000000000000000000.0
 30
-100000000000000000000.0
  9
$PEXTMAX
 10
100000000000000000000.0
 20
100000000000000000000.0
 30
100000000000000000000.0
  9
$PLIMMIN
 10
0.0
 20
0.0
  9
$PLIMMAX
 10
12.0
 20
9.0
  9
$UNITMODE
 70
     0
  9
$VISRETAIN
 70
     0
  9
$PLINEGEN
 70
     0
  9
$PSLTSCALE
 70
     0
  9
$TREEDEPTH
 70
  3020
  9
$ATTDIA
 70
     0
  9
$ATTREQ
 70
     1
  9
$BLIPMODE
 70
     1
  9
$COORDS
 70
     1
  9
$DRAGMODE
 70
     2
  9
$OSMODE
 70
     0
  9
$HANDLING
 70
     0
  9
$HANDSEED
  5
10766
  0
ENDSEC
  0
SECTION
  2
TABLES
  0
TABLE
  2
LTYPE
 70
     3
  0
LTYPE
  2
CONTINUOUS
 70
     0
  3
実線
 72
    65
 73
     0
 40
0.0
  0
LTYPE
  2
DASHDOT
 70
     0
  3
____ _ ____ _ ____ _ ____ _ ____ _ ____ _ ____
 72
    65
 73
     4
 40
5.5
 49
4.0
 49
-0.6
 49
0.3
 49
-0.6
  0
LTYPE
  2
CENTER
 70
     0
  3
Center ____ _ ____ _ ____ _ ____ _ ____ _ ____
 72
    65
 73
     4
 40
1.0
 49
0.5
 49
-0.25
 49
0.0
 49
-0.25
  0
ENDTAB
  0
TABLE
  2
LAYER
 70
    12
  0
LAYER
  2
0
 70
     0
 62
     7
  6
CONTINUOUS
  0
LAYER
  2
BASIS
 70
     0
 62
     6
  6
DASHDOT
  0
LAYER
  2
OUTLINE
 70
     0
 62
     3
  6
CONTINUOUS
  0
LAYER
  2
DETAIL
 70
     0
 62
     5
  6
CONTINUOUS
  0
LAYER
  2
SIZE
 70
     0
 62
    30
  6
CONTINUOUS
  0
LAYER
  2
ARRANGE
 70
     0
 62
     1
  6
CONTINUOUS
  0
LAYER
  2
DEFPOINTS
 70
     0
 62
     7
  6
CONTINUOUS
  0
LAYER
  2
ETC
 70
     0
 62
    61
  6
CONTINUOUS
  0
LAYER
  2
NOTE
 70
     0
 62
     4
  6
CONTINUOUS
  0
LAYER
  2
FIX
 70
    64
 62
    11
  6
CONTINUOUS
  0
LAYER
  2
SERVICESPACE
 70
    64
 62
     2
  6
DASHDOT
  0
LAYER
  2
SYMBOLLINE
 70
    64
 62
    15
  6
CONTINUOUS
  0
ENDTAB
  0
TABLE
  2
STYLE
 70
     1
  0
STYLE
  2
STANDARD
 70
     0
 40
64.0
 41
0.9
 50
0.0
 71
     0
 42
64.0
  3
SIMPLEX.shx
  4
BIGFONT.shx
  0
ENDTAB
  0
TABLE
  2
APPID
 70
    19
  0
APPID
  2
ACAD
 70
     0
  0
APPID
  2
AUTOCAD_POSTSCRIPT_FIGURE
 70
     0
  0
APPID
  2
ACAD_EXEMPT_FROM_CAD_STANDARDS
 70
     0
  0
APPID
  2
ACAD_PSEXT
 70
     0
  0
APPID
  2
ACAUTHENVIRON
 70
     0
  0
APPID
  2
GENIUS_GENOENT_13
 70
     0
  0
APPID
  2
GENIUS_GENCFG_13
 70
     0
  0
APPID
  2
GENIUS_GENCFG0_13
 70
     0
  0
APPID
  2
GENIUS_GENCFG1_13
 70
     0
  0
APPID
  2
GENIUS_GENCFG2_13
 70
     0
  0
APPID
  2
GENIUS_GENCFG3_13
 70
     0
  0
APPID
  2
GENIUS_GENCFG4_13
 70
     0
  0
APPID
  2
GENIUS_GEVCFG0_13
 70
     0
  0
APPID
  2
CONTENTBLOCKICON
 70
     0
  0
APPID
  2
CONTENTBLOCKDESCRIPTION
 70
     0
  0
APPID
  2
ACAD_NAV_VCDISPLAY
 70
     0
  0
APPID
  2
ACAD_MLEADERVER
 70
     0
  0
APPID
  2
ACDBDYNAMICBLOCKTRUENAME
 70
     0
  0
APPID
  2
ACDBDYNAMICBLOCKGUID
 70
     0
  0
ENDTAB
  0
TABLE
  2
DIMSTYLE
 70
     1
  0
DIMSTYLE
  2
STANDARD
 70
     0
  3

  4

  5
_ORIGIN
  6

  7

 40
1.0
 41
12.0
 42
20.0
 43
200.0
 44
20.0
 45
0.0
 46
0.0
 47
0.0
 48
0.0
140
64.0
141
0.09
142
0.0
143
25.399999999999999
144
1.0
145
0.0
146
1.0
147
25.0
 71
     0
 72
     0
 73
     0
 74
     0
 75
     0
 76
     0
 77
     1
 78
     8
170
     0
171
     2
172
     1
173
     0
174
     1
175
     0
176
     7
177
     7
178
     7
  0
ENDTAB
  0
TABLE
  2
VIEW
 70
     1
  0
VIEW
  2
ALL
 70
     0
 40
4282.6198079999986
 10
0.0
 20
41.309904000000003
 41
5940.0
 11
0.0
 21
0.0
 31
1.0
 12
0.0
 22
0.0
 32
0.0
 42
50.0
 43
0.0
 44
0.0
 50
0.0
 71
     0
  0
ENDTAB
  0
TABLE
  2
UCS
 70
     0
  0
ENDTAB
  0
TABLE
  2
VPORT
 70
     1
  0
VPORT
  2
*ACTIVE
 70
     0
 10
0.0
 20
0.0
 11
1.0
 21
1.0
 12
337.62361041459093
 22
-189.5370387816065
 13
0.0
 23
0.0
 14
1.0
 24
1.0
 15
0.0
 25
0.0
 16
0.0
 26
0.0
 36
1.0
 17
0.0
 27
0.0
 37
0.0
 40
1155.7288877014259
 41
1.747787610619469
 42
50.0
 43
0.0
 44
0.0
 50
0.0
 51
0.0
 71
     0
 72
  1000
 73
     1
 74
     3
 75
     0
 76
     0
 77
     0
 78
     0
  0
ENDTAB
  0
ENDSEC
  0
SECTION
  2
BLOCKS
  0
BLOCK
  8
0
  2
_ORIGIN
 70
     0
 10
0.0
 20
0.0
 30
0.0
  3
_ORIGIN
  1
_ORIGIN
  0
CIRCLE
  8
0
  6
CONTINUOUS
 62
     7
 10
0.0
 20
0.0
 30
0.0
 40
0.5
  0
LINE
  8
0
  6
CONTINUOUS
 62
     7
 10
0.0
 20
0.0
 30
0.0
 11
-1.0
 21
0.0
 31
0.0
  0
ENDBLK
  8
0
  0
ENDSEC
  0
SECTION
  2
ENTITIES
  0
TEXT
  8
ETC
  6
CONTINUOUS
 62
    61
 10
308.53655055855722
 20
320.29273755288659
 30
0.0
 40
64.0
  1
VD-13Z13_6
 41
0.9
  0
TEXT
  8
ETC
  6
CONTINUOUS
 62
    61
 10
304.35055655855689
 20
202.33742753805541
 30
0.0
 40
64.0
  1
換気扇
 41
0.9
  0
TEXT
  8
ETC
  6
CONTINUOUS
 62
    61
 10
355.05195480711291
 20
94.18865465183012
 30
0.0
 40
40.0
  1
VD-13Z13
 41
0.9
  0
CIRCLE
  8
ARRANGE
  6
CONTINUOUS
 62
     1
 10
0.0
 20
0.0
 30
0.0
 40
40.0
  0
POINT
  8
ARRANGE
  6
CONTINUOUS
 62
     1
 10
0.0
 20
0.0
 30
0.0
 50
90.0
  0
LINE
  8
SIZE
  6
CONTINUOUS
 62
    30
 10
-105.0001680000005
 20
-231.49999999999989
 30
0.0
 11
-105.0001680000005
 21
-526.86542422947969
 31
0.0
  0
LINE
  8
SIZE
  6
CONTINUOUS
 62
    30
 10
-6.9998320000004242
 20
-231.49999999999989
 30
0.0
 11
-6.9998320000004242
 21
-526.86542422947969
 31
0.0
  0
LINE
  8
SIZE
  6
CONTINUOUS
 62
    30
 10
-93.000168000000485
 20
-506.86542422947969
 30
0.0
 11
-18.999832000000421
 21
-506.86542422947969
 31
0.0
  0
LINE
  8
SIZE
  6
CONTINUOUS
 62
    30
 10
-6.9998320000004242
 20
-506.86542422947969
 30
0.0
 11
366.20904299861922
 21
-506.86542422947969
 31
0.0
  0
CIRCLE
  8
SIZE
  6
CONTINUOUS
 62
    30
 10
-105.0001680000005
 20
-506.86542422947969
 30
0.0
 40
6.0
  0
LINE
  8
SIZE
  6
CONTINUOUS
 62
    30
 10
-105.0001680000005
 20
-506.86542422947969
 30
0.0
 11
-93.000168000000485
 21
-506.86542422947969
 31
0.0
  0
CIRCLE
  8
SIZE
  6
CONTINUOUS
 62
    30
 10
-6.9998320000004242
 20
-506.86542422947969
 30
0.0
 40
6.0
  0
LINE
  8
SIZE
  6
CONTINUOUS
 62
    30
 10
-6.9998320000004242
 20
-506.86542422947969
 30
0.0
 11
-18.999832000000421
 21
-506.86542422947969
 31
0.0
  0
TEXT
  8
SIZE
  6
CONTINUOUS
 62
    30
 10
177.4604715700479
 20
-471.19875756281323
 30
0.0
 40
64.0
  1
φ98
 41
0.9
 72
     1
 11
264.40904299861933
 21
-471.19875756281323
 31
0.0
  0
POINT
  8
DEFPOINTS
  6
CONTINUOUS
 62
    30
 10
-105.0001680000005
 20
-211.49999999999989
 30
0.0
  0
POINT
  8
DEFPOINTS
  6
CONTINUOUS
 62
    30
 10
-6.9998320000004242
 20
-211.49999999999989
 30
0.0
  0
POINT
  8
DEFPOINTS
  6
CONTINUOUS
 62
    30
 10
-6.9998320000004242
 20
-506.86542422947969
 30
0.0
  0
LINE
  8
SIZE
  6
CONTINUOUS
 62
    30
 10
-108.4998320000004
 20
-201.00033599999981
 30
0.0
 11
-108.4998320000005
 21
-644.50436510175416
 31
0.0
  0
LINE
  8
SIZE
  6
CONTINUOUS
 62
    30
 10
-3.5001680000004849
 20
-201.00033599999981
 30
0.0
 11
-3.5001680000004849
 21
-644.50436510175416
 31
0.0
  0
LINE
  8
SIZE
  6
CONTINUOUS
 62
    30
 10
-96.499832000000424
 20
-624.50436510175416
 30
0.0
 11
-15.500168000000491
 21
-624.50436510175416
 31
0.0
  0
LINE
  8
SIZE
  6
CONTINUOUS
 62
    30
 10
-3.5001680000004849
 20
-624.50436510175416
 30
0.0
 11
399.51069061834983
 21
-624.50436510175416
 31
0.0
  0
CIRCLE
  8
SIZE
  6
CONTINUOUS
 62
    30
 10
-108.4998320000005
 20
-624.50436510175416
 30
0.0
 40
6.0
  0
LINE
  8
SIZE
  6
CONTINUOUS
 62
    30
 10
-108.4998320000005
 20
-624.50436510175416
 30
0.0
 11
-96.499832000000424
 21
-624.50436510175416
 31
0.0
  0
CIRCLE
  8
SIZE
  6
CONTINUOUS
 62
    30
 10
-3.5001680000004849
 20
-624.50436510175416
 30
0.0
 40
6.0
  0
LINE
  8
SIZE
  6
CONTINUOUS
 62
    30
 10
-3.5001680000004849
 20
-624.50436510175416
 30
0.0
 11
-15.500168000000491
 21
-624.50436510175416
 31
0.0
  0
TEXT
  8
SIZE
  6
CONTINUOUS
 62
    30
 10
166.8764049040642
 20
-588.8376984350873
 30
0.0
 40
64.0
  1
φ105
 41
0.9
 72
     1
 11
275.76783347549281
 21
-588.8376984350873
 31
0.0
  0
POINT
  8
DEFPOINTS
  6
CONTINUOUS
 62
    30
 10
-108.4998320000004
 20
-181.00033599999981
 30
0.0
  0
POINT
  8
DEFPOINTS
  6
CONTINUOUS
 62
    30
 10
-3.5001680000004849
 20
-181.00033599999981
 30
0.0
  0
POINT
  8
DEFPOINTS
  6
CONTINUOUS
 62
    30
 10
-3.5001680000004849
 20
-624.50436510175416
 30
0.0
  0
LINE
  8
SIZE
  6
CONTINUOUS
 62
    30
 10
-143.0000000000006
 20
-161.99999999999989
 30
0.0
 11
-143.0000000000006
 21
-763.49548325321121
 31
0.0
  0
LINE
  8
SIZE
  6
CONTINUOUS
 62
    30
 10
143.0
 20
-161.99999999999989
 30
0.0
 11
143.0
 21
-763.49548325321121
 31
0.0
  0
LINE
  8
SIZE
  6
CONTINUOUS
 62
    30
 10
-131.00000000000051
 20
-743.49548325321121
 30
0.0
 11
131.0
 21
-743.49548325321121
 31
0.0
  0
CIRCLE
  8
SIZE
  6
CONTINUOUS
 62
    30
 10
-143.0000000000006
 20
-743.49548325321121
 30
0.0
 40
6.0
  0
LINE
  8
SIZE
  6
CONTINUOUS
 62
    30
 10
-143.0000000000006
 20
-743.49548325321121
 30
0.0
 11
-131.00000000000051
 21
-743.49548325321121
 31
0.0
  0
CIRCLE
  8
SIZE
  6
CONTINUOUS
 62
    30
 10
143.0
 20
-743.49548325321121
 30
0.0
 40
6.0
  0
LINE
  8
SIZE
  6
CONTINUOUS
 62
    30
 10
143.0
 20
-743.49548325321121
 30
0.0
 11
131.0
 21
-743.49548325321121
 31
0.0
  0
TEXT
  8
SIZE
  6
CONTINUOUS
 62
    30
 10
-109.1657142857145
 20
-718.49548325321121
 30
0.0
 40
64.0
  1
□286
 41
0.9
 72
     1
 11
-0.0000000000002274
 21
-718.49548325321121
 31
0.0
  0
POINT
  8
DEFPOINTS
  6
CONTINUOUS
 62
    30
 10
-143.0000000000006
 20
-141.99999999999989
 30
0.0
  0
POINT
  8
DEFPOINTS
  6
CONTINUOUS
 62
    30
 10
143.0
 20
-141.99999999999989
 30
0.0
  0
POINT
  8
DEFPOINTS
  6
CONTINUOUS
 62
    30
 10
143.0
 20
-743.49548325321121
 30
0.0
  0
LINE
  8
SIZE
  6
CONTINUOUS
 62
    30
 10
13.000167999999579
 20
-211.50000000000011
 30
0.0
 11
544.40181078415117
 21
-211.50000000000031
 31
0.0
  0
LINE
  8
SIZE
  6
CONTINUOUS
 62
    30
 10
13.000167999999579
 20
-184.49999999999989
 30
0.0
 11
544.40181078415117
 21
-184.5
 31
0.0
  0
LINE
  8
SIZE
  6
CONTINUOUS
 62
    30
 10
524.40181078415117
 20
-172.5
 30
0.0
 11
524.40181078415117
 21
-160.5
 31
0.0
  0
LINE
  8
SIZE
  6
CONTINUOUS
 62
    30
 10
524.40181078415117
 20
-223.50000000000031
 30
0.0
 11
524.40181078415117
 21
-378.75714285714309
 31
0.0
  0
LINE
  8
SIZE
  6
CONTINUOUS
 62
    30
 10
524.40181078415117
 20
-184.5
 30
0.0
 11
524.40181078415117
 21
-211.50000000000031
 31
0.0
  0
CIRCLE
  8
SIZE
  6
CONTINUOUS
 62
    30
 10
524.40181078415117
 20
-184.5
 30
0.0
 40
6.0
  0
LINE
  8
SIZE
  6
CONTINUOUS
 62
    30
 10
524.40181078415117
 20
-184.5
 30
0.0
 11
524.40181078415117
 21
-172.5
 31
0.0
  0
CIRCLE
  8
SIZE
  6
CONTINUOUS
 62
    30
 10
524.40181078415117
 20
-211.50000000000031
 30
0.0
 40
6.0
  0
LINE
  8
SIZE
  6
CONTINUOUS
 62
    30
 10
524.40181078415117
 20
-211.50000000000031
 30
0.0
 11
524.40181078415117
 21
-223.50000000000031
 31
0.0
  0
TEXT
  8
SIZE
  6
CONTINUOUS
 62
    30
 10
499.40181078415122
 20
-353.75714285714298
 30
0.0
 40
64.0
  1
27
 50
90.0
 41
0.9
 72
     1
 11
499.40181078415122
 21
-307.1285714285716
 31
0.0
  0
POINT
  8
DEFPOINTS
  6
CONTINUOUS
 62
    30
 10
-6.9998320000004242
 20
-211.50000000000011
 30
0.0
  0
POINT
  8
DEFPOINTS
  6
CONTINUOUS
 62
    30
 10
-6.9998320000004242
 20
-184.49999999999989
 30
0.0
  0
POINT
  8
DEFPOINTS
  6
CONTINUOUS
 62
    30
 10
524.40181078415117
 20
-184.5
 30
0.0
  0
LINE
  8
SIZE
  6
CONTINUOUS
 62
    30
 10
13.000167999999579
 20
-211.50000000000011
 30
0.0
 11
659.79651990406273
 21
-211.50000000000031
 31
0.0
  0
LINE
  8
SIZE
  6
CONTINUOUS
 62
    30
 10
16.499831999999511
 20
-159.50000000000011
 30
0.0
 11
659.79651990406273
 21
-159.50000000000031
 31
0.0
  0
LINE
  8
SIZE
  6
CONTINUOUS
 62
    30
 10
639.79651990406273
 20
-147.50000000000031
 30
0.0
 11
639.79651990406273
 21
-135.50000000000031
 31
0.0
  0
LINE
  8
SIZE
  6
CONTINUOUS
 62
    30
 10
639.79651990406273
 20
-223.50000000000031
 30
0.0
 11
639.79651990406251
 21
-380.1285714285716
 31
0.0
  0
LINE
  8
SIZE
  6
CONTINUOUS
 62
    30
 10
639.79651990406273
 20
-159.50000000000031
 30
0.0
 11
639.79651990406273
 21
-211.50000000000031
 31
0.0
  0
CIRCLE
  8
SIZE
  6
CONTINUOUS
 62
    30
 10
639.79651990406273
 20
-159.50000000000031
 30
0.0
 40
6.0
  0
LINE
  8
SIZE
  6
CONTINUOUS
 62
    30
 10
639.79651990406273
 20
-159.50000000000031
 30
0.0
 11
639.79651990406273
 21
-147.50000000000031
 31
0.0
  0
CIRCLE
  8
SIZE
  6
CONTINUOUS
 62
    30
 10
639.79651990406273
 20
-211.50000000000031
 30
0.0
 40
6.0
  0
LINE
  8
SIZE
  6
CONTINUOUS
 62
    30
 10
639.79651990406273
 20
-211.50000000000031
 30
0.0
 11
639.79651990406273
 21
-223.50000000000031
 31
0.0
  0
TEXT
  8
SIZE
  6
CONTINUOUS
 62
    30
 10
614.79651990406273
 20
-355.12857142857172
 30
0.0
 40
64.0
  1
52
 50
90.0
 41
0.9
 72
     1
 11
614.79651990406273
 21
-308.50000000000028
 31
0.0
  0
POINT
  8
DEFPOINTS
  6
CONTINUOUS
 62
    30
 10
-6.9998320000004242
 20
-211.50000000000011
 30
0.0
  0
POINT
  8
DEFPOINTS
  6
CONTINUOUS
 62
    30
 10
-3.5001680000004849
 20
-159.50000000000011
 30
0.0
  0
POINT
  8
DEFPOINTS
  6
CONTINUOUS
 62
    30
 10
639.79651990406273
 20
-159.50000000000031
 30
0.0
  0
TEXT
  8
NOTE
  6
CONTINUOUS
 62
     4
 10
-45.784574817282653
 20
-296.42105579356468
 30
0.0
 40
64.0
  1
EA
 41
0.9
  0
LINE
  8
DETAIL
  6
CONTINUOUS
 62
     5
 10
-105.0001680000005
 20
-211.49999999999989
 30
0.0
 11
-6.9998320000004242
 21
-211.49999999999989
 31
0.0
  0
LINE
  8
DETAIL
  6
CONTINUOUS
 62
     5
 10
-6.9998320000004242
 20
-184.49999999999989
 30
0.0
 11
-6.9998320000004242
 21
-211.49999999999989
 31
0.0
  0
LINE
  8
DETAIL
  6
CONTINUOUS
 62
     5
 10
-105.0001680000005
 20
-184.49999999999989
 30
0.0
 11
-105.0001680000005
 21
-211.49999999999989
 31
0.0
  0
LINE
  8
DETAIL
  6
CONTINUOUS
 62
     5
 10
-108.5001680000005
 20
-180.99999999999989
 30
0.0
 11
-105.0001680000005
 21
-184.49999999999989
 31
0.0
  0
LINE
  8
DETAIL
  6
CONTINUOUS
 62
     5
 10
-3.5001680000004849
 20
-181.00033599999981
 30
0.0
 11
-108.5001680000005
 21
-181.00033599999981
 31
0.0
  0
LINE
  8
DETAIL
  6
CONTINUOUS
 62
     5
 10
-3.5001680000004849
 20
-181.00033599999981
 30
0.0
 11
-6.9998320000004242
 21
-184.49999999999989
 31
0.0
  0
LINE
  8
DETAIL
  6
CONTINUOUS
 62
     5
 10
-105.0001680000005
 20
-184.49999999999989
 30
0.0
 11
-6.9998320000004242
 21
-184.49999999999989
 31
0.0
  0
LINE
  8
DETAIL
  6
CONTINUOUS
 62
     5
 10
6.9998779999996259
 20
-148.99995499999989
 30
0.0
 11
-3.5001680000004849
 21
-159.49999999999989
 31
0.0
  0
LINE
  8
DETAIL
  6
CONTINUOUS
 62
     5
 10
6.9998779999996259
 20
-148.99995499999989
 30
0.0
 11
6.9998779999996259
 21
-148.6000829999999
 31
0.0
  0
LINE
  8
DETAIL
  6
CONTINUOUS
 62
     5
 10
-3.5001680000004849
 20
-159.49999999999989
 30
0.0
 11
-3.5001680000004849
 21
-181.00033599999981
 31
0.0
  0
LINE
  8
DETAIL
  6
CONTINUOUS
 62
     5
 10
-108.5001680000005
 20
-159.49999999999989
 30
0.0
 11
-3.5001680000004849
 21
-159.49999999999989
 31
0.0
  0
LINE
  8
DETAIL
  6
CONTINUOUS
 62
     5
 10
-108.5001680000005
 20
-159.49999999999989
 30
0.0
 11
-108.5001680000005
 21
-180.99999999999989
 31
0.0
  0
LINE
  8
DETAIL
  6
CONTINUOUS
 62
     5
 10
-118.99987800000051
 20
-148.99995499999989
 30
0.0
 11
-108.4998320000004
 21
-159.49999999999989
 31
0.0
  0
LINE
  8
DETAIL
  6
CONTINUOUS
 62
     5
 10
-118.99987800000051
 20
-148.99995499999989
 30
0.0
 11
-118.99987800000051
 21
-148.6000829999999
 31
0.0
  0
LINE
  8
NOTE
  6
CENTER
 62
     4
 10
-56.0
 20
-77.878169999999955
 30
0.0
 11
-56.0
 21
-230.4613129999999
 31
0.0
  0
LINE
  8
BASIS
  6
DASHDOT
 62
     6
 10
174.24327499999981
 20
0.0
 30
0.0
 11
-171.22292000000019
 21
0.0
 31
0.0
  0
LINE
  8
BASIS
  6
DASHDOT
 62
     6
 10
0.0
 20
164.65490200000011
 30
0.0
 11
0.0
 21
-218.8582309999999
 31
0.0
  0
LINE
  8
OUTLINE
  6
CONTINUOUS
 62
     3
 10
-105.0001680000005
 20
-211.50000000000011
 30
0.0
 11
-6.9998320000004242
 21
-211.50000000000011
 31
0.0
  0
LINE
  8
OUTLINE
  6
CONTINUOUS
 62
     3
 10
-6.9998320000004242
 20
-184.50000000000011
 30
0.0
 11
-6.9998320000004242
 21
-211.50000000000011
 31
0.0
  0
LINE
  8
OUTLINE
  6
CONTINUOUS
 62
     3
 10
-105.0001680000005
 20
-184.50000000000011
 30
0.0
 11
-105.0001680000005
 21
-211.50000000000011
 31
0.0
  0
LINE
  8
OUTLINE
  6
CONTINUOUS
 62
     3
 10
-108.5001680000005
 20
-181.00000000000011
 30
0.0
 11
-105.0001680000005
 21
-184.50000000000011
 31
0.0
  0
LINE
  8
OUTLINE
  6
CONTINUOUS
 62
     3
 10
-3.5001680000004849
 20
-181.00033599999981
 30
0.0
 11
-6.9998320000004242
 21
-184.50000000000011
 31
0.0
  0
LINE
  8
OUTLINE
  6
CONTINUOUS
 62
     3
 10
6.9998779999996259
 20
-148.999955
 30
0.0
 11
-3.5001680000004849
 21
-159.50000000000011
 31
0.0
  0
LINE
  8
OUTLINE
  6
CONTINUOUS
 62
     3
 10
6.9998779999996259
 20
-148.999955
 30
0.0
 11
6.9998779999996259
 21
-148.60008300000001
 31
0.0
  0
LINE
  8
OUTLINE
  6
CONTINUOUS
 62
     3
 10
-3.5001680000004849
 20
-159.50000000000011
 30
0.0
 11
-3.5001680000004849
 21
-181.00033599999981
 31
0.0
  0
LINE
  8
OUTLINE
  6
CONTINUOUS
 62
     3
 10
-108.5001680000005
 20
-159.50000000000011
 30
0.0
 11
-108.5001680000005
 21
-181.00000000000011
 31
0.0
  0
LINE
  8
OUTLINE
  6
CONTINUOUS
 62
     3
 10
-118.99987800000051
 20
-148.999955
 30
0.0
 11
-108.4998320000004
 21
-159.50000000000011
 31
0.0
  0
LINE
  8
OUTLINE
  6
CONTINUOUS
 62
     3
 10
-118.99987800000051
 20
-148.999955
 30
0.0
 11
-118.99987800000051
 21
-148.60008300000001
 31
0.0
  0
ARC
  8
OUTLINE
  6
CONTINUOUS
 62
     3
 10
-142.0000000000006
 20
142.0
 30
0.0
 40
1.0
 50
90.0
 51
180.0
  0
ARC
  8
OUTLINE
  6
CONTINUOUS
 62
     3
 10
142.0
 20
142.0
 30
0.0
 40
1.0
 50
0.0
 51
90.0
  0
LINE
  8
OUTLINE
  6
CONTINUOUS
 62
     3
 10
142.0
 20
143.0
 30
0.0
 11
-142.0000000000006
 21
143.0
 31
0.0
  0
LINE
  8
OUTLINE
  6
CONTINUOUS
 62
     3
 10
143.0
 20
142.0
 30
0.0
 11
143.0
 21
0.0
 31
0.0
  0
LINE
  8
OUTLINE
  6
CONTINUOUS
 62
     3
 10
-143.0000000000006
 20
142.0
 30
0.0
 11
-143.0000000000006
 21
0.0
 31
0.0
  0
ARC
  8
OUTLINE
  6
CONTINUOUS
 62
     3
 10
-142.0000000000006
 20
-142.00000000000011
 30
0.0
 40
1.0
 50
180.0
 51
270.0
  0
LINE
  8
OUTLINE
  6
CONTINUOUS
 62
     3
 10
-143.0000000000006
 20
-142.00000000000011
 30
0.0
 11
-143.0000000000006
 21
0.0
 31
0.0
  0
ARC
  8
OUTLINE
  6
CONTINUOUS
 62
     3
 10
142.0
 20
-142.00000000000011
 30
0.0
 40
1.0
 50
270.0
 51
0.0
  0
LINE
  8
OUTLINE
  6
CONTINUOUS
 62
     3
 10
143.0
 20
-142.00000000000011
 30
0.0
 11
143.0
 21
0.0
 31
0.0
  0
LINE
  8
OUTLINE
  6
CONTINUOUS
 62
     3
 10
142.0
 20
-143.00000000000011
 30
0.0
 11
6.9998779999996259
 21
-143.00000000000011
 31
0.0
  0
LINE
  8
OUTLINE
  6
CONTINUOUS
 62
     3
 10
-118.99987800000051
 20
-143.00000000000011
 30
0.0
 11
-142.0000000000006
 21
-143.00000000000011
 31
0.0
  0
LINE
  8
OUTLINE
  6
CONTINUOUS
 62
     3
 10
6.9998779999996259
 20
-148.999955
 30
0.0
 11
6.9998779999996259
 21
-143.00000000000011
 31
0.0
  0
LINE
  8
OUTLINE
  6
CONTINUOUS
 62
     3
 10
-118.99987800000051
 20
-148.999955
 30
0.0
 11
-118.99987800000051
 21
-143.00000000000011
 31
0.0
  0
LINE
  8
DETAIL
  6
CONTINUOUS
 62
     5
 10
-3.6000000000003638
 20
3.600000000000136
 30
0.0
 11
-3.6000000000003638
 21
-3.5999999999999091
 31
0.0
  0
LINE
  8
DETAIL
  6
CONTINUOUS
 62
     5
 10
-12.60000000000036
 20
3.600000000000136
 30
0.0
 11
-12.60000000000036
 21
-3.5999999999999091
 31
0.0
  0
LINE
  8
DETAIL
  6
CONTINUOUS
 62
     5
 10
-5.4000000000005457
 20
3.600000000000136
 30
0.0
 11
-5.4000000000005457
 21
-3.5999999999999091
 31
0.0
  0
LINE
  8
DETAIL
  6
CONTINUOUS
 62
     5
 10
-5.4000000000005457
 20
-3.5999999999999091
 30
0.0
 11
-12.60000000000036
 21
-3.5999999999999091
 31
0.0
  0
LINE
  8
DETAIL
  6
CONTINUOUS
 62
     5
 10
-21.60000000000036
 20
3.600000000000136
 30
0.0
 11
-21.60000000000036
 21
-3.5999999999999091
 31
0.0
  0
LINE
  8
DETAIL
  6
CONTINUOUS
 62
     5
 10
-14.400000000000549
 20
3.600000000000136
 30
0.0
 11
-14.400000000000549
 21
-3.5999999999999091
 31
0.0
  0
LINE
  8
DETAIL
  6
CONTINUOUS
 62
     5
 10
-14.400000000000549
 20
-3.5999999999999091
 30
0.0
 11
-21.60000000000036
 21
-3.5999999999999091
 31
0.0
  0
LINE
  8
DETAIL
  6
CONTINUOUS
 62
     5
 10
-30.60000000000036
 20
3.600000000000136
 30
0.0
 11
-30.60000000000036
 21
-3.5999999999999091
 31
0.0
  0
LINE
  8
DETAIL
  6
CONTINUOUS
 62
     5
 10
-23.400000000000549
 20
3.600000000000136
 30
0.0
 11
-23.400000000000549
 21
-3.5999999999999091
 31
0.0
  0
LINE
  8
DETAIL
  6
CONTINUOUS
 62
     5
 10
-23.400000000000549
 20
-3.5999999999999091
 30
0.0
 11
-30.60000000000036
 21
-3.5999999999999091
 31
0.0
  0
LINE
  8
DETAIL
  6
CONTINUOUS
 62
     5
 10
-39.600000000000357
 20
3.600000000000136
 30
0.0
 11
-39.600000000000357
 21
-3.5999999999999091
 31
0.0
  0
LINE
  8
DETAIL
  6
CONTINUOUS
 62
     5
 10
-32.400000000000553
 20
3.600000000000136
 30
0.0
 11
-32.400000000000553
 21
-3.5999999999999091
 31
0.0
  0
LINE
  8
DETAIL
  6
CONTINUOUS
 62
     5
 10
-32.400000000000553
 20
-3.5999999999999091
 30
0.0
 11
-39.600000000000357
 21
-3.5999999999999091
 31
0.0
  0
LINE
  8
DETAIL
  6
CONTINUOUS
 62
     5
 10
-48.600000000000357
 20
3.600000000000136
 30
0.0
 11
-48.600000000000357
 21
-3.5999999999999091
 31
0.0
  0
LINE
  8
DETAIL
  6
CONTINUOUS
 62
     5
 10
-41.400000000000553
 20
3.600000000000136
 30
0.0
 11
-41.400000000000553
 21
-3.5999999999999091
 31
0.0
  0
LINE
  8
DETAIL
  6
CONTINUOUS
 62
     5
 10
-41.400000000000553
 20
-3.5999999999999091
 30
0.0
 11
-48.600000000000357
 21
-3.5999999999999091
 31
0.0
  0
LINE
  8
DETAIL
  6
CONTINUOUS
 62
     5
 10
-57.600000000000357
 20
3.600000000000136
 30
0.0
 11
-57.600000000000357
 21
-3.5999999999999091
 31
0.0
  0
LINE
  8
DETAIL
  6
CONTINUOUS
 62
     5
 10
-50.400000000000553
 20
3.600000000000136
 30
0.0
 11
-50.400000000000553
 21
-3.5999999999999091
 31
0.0
  0
LINE
  8
DETAIL
  6
CONTINUOUS
 62
     5
 10
-50.400000000000553
 20
-3.5999999999999091
 30
0.0
 11
-57.600000000000357
 21
-3.5999999999999091
 31
0.0
  0
LINE
  8
DETAIL
  6
CONTINUOUS
 62
     5
 10
-66.600000000000364
 20
3.600000000000136
 30
0.0
 11
-66.600000000000364
 21
-3.5999999999999091
 31
0.0
  0
LINE
  8
DETAIL
  6
CONTINUOUS
 62
     5
 10
-59.400000000000553
 20
3.600000000000136
 30
0.0
 11
-59.400000000000553
 21
-3.5999999999999091
 31
0.0
  0
LINE
  8
DETAIL
  6
CONTINUOUS
 62
     5
 10
-59.400000000000553
 20
-3.5999999999999091
 30
0.0
 11
-66.600000000000364
 21
-3.5999999999999091
 31
0.0
  0
LINE
  8
DETAIL
  6
CONTINUOUS
 62
     5
 10
-75.600000000000364
 20
3.600000000000136
 30
0.0
 11
-75.600000000000364
 21
-3.5999999999999091
 31
0.0
  0
LINE
  8
DETAIL
  6
CONTINUOUS
 62
     5
 10
-68.400000000000546
 20
3.600000000000136
 30
0.0
 11
-68.400000000000546
 21
-3.5999999999999091
 31
0.0
  0
LINE
  8
DETAIL
  6
CONTINUOUS
 62
     5
 10
-68.400000000000546
 20
-3.5999999999999091
 30
0.0
 11
-75.600000000000364
 21
-3.5999999999999091
 31
0.0
  0
LINE
  8
DETAIL
  6
CONTINUOUS
 62
     5
 10
-84.600000000000364
 20
3.600000000000136
 30
0.0
 11
-84.600000000000364
 21
-3.5999999999999091
 31
0.0
  0
LINE
  8
DETAIL
  6
CONTINUOUS
 62
     5
 10
-77.400000000000546
 20
3.600000000000136
 30
0.0
 11
-77.400000000000546
 21
-3.5999999999999091
 31
0.0
  0
LINE
  8
DETAIL
  6
CONTINUOUS
 62
     5
 10
-77.400000000000546
 20
-3.5999999999999091
 30
0.0
 11
-84.600000000000364
 21
-3.5999999999999091
 31
0.0
  0
LINE
  8
DETAIL
  6
CONTINUOUS
 62
     5
 10
-75.600000000000364
 20
-5.3999999999998636
 30
0.0
 11
-75.600000000000364
 21
-12.599999999999911
 31
0.0
  0
LINE
  8
DETAIL
  6
CONTINUOUS
 62
     5
 10
-75.600000000000364
 20
-5.3999999999998636
 30
0.0
 11
-68.400000000000546
 21
-5.3999999999998636
 31
0.0
  0
LINE
  8
DETAIL
  6
CONTINUOUS
 62
     5
 10
-68.400000000000546
 20
-5.3999999999998636
 30
0.0
 11
-68.400000000000546
 21
-12.599999999999911
 31
0.0
  0
LINE
  8
DETAIL
  6
CONTINUOUS
 62
     5
 10
-68.400000000000546
 20
-5.3999999999998636
 30
0.0
 11
-68.400000000000546
 21
-12.599999999999911
 31
0.0
  0
LINE
  8
DETAIL
  6
CONTINUOUS
 62
     5
 10
-68.400000000000546
 20
-5.3999999999998636
 30
0.0
 11
-75.600000000000364
 21
-5.3999999999998636
 31
0.0
  0
LINE
  8
DETAIL
  6
CONTINUOUS
 62
     5
 10
-68.400000000000546
 20
-12.599999999999911
 30
0.0
 11
-75.600000000000364
 21
-12.599999999999911
 31
0.0
  0
LINE
  8
DETAIL
  6
CONTINUOUS
 62
     5
 10
-59.400000000000553
 20
-5.3999999999998636
 30
0.0
 11
-59.400000000000553
 21
-12.599999999999911
 31
0.0
  0
LINE
  8
DETAIL
  6
CONTINUOUS
 62
     5
 10
-59.400000000000553
 20
-5.3999999999998636
 30
0.0
 11
-66.600000000000364
 21
-5.3999999999998636
 31
0.0
  0
LINE
  8
DETAIL
  6
CONTINUOUS
 62
     5
 10
-59.400000000000553
 20
-12.599999999999911
 30
0.0
 11
-66.600000000000364
 21
-12.599999999999911
 31
0.0
  0
LINE
  8
DETAIL
  6
CONTINUOUS
 62
     5
 10
-66.600000000000364
 20
-5.3999999999998636
 30
0.0
 11
-66.600000000000364
 21
-12.599999999999911
 31
0.0
  0
LINE
  8
DETAIL
  6
CONTINUOUS
 62
     5
 10
-59.400000000000553
 20
-14.39999999999986
 30
0.0
 11
-59.400000000000553
 21
-21.599999999999909
 31
0.0
  0
LINE
  8
DETAIL
  6
CONTINUOUS
 62
     5
 10
-59.400000000000553
 20
-14.39999999999986
 30
0.0
 11
-66.600000000000364
 21
-14.39999999999986
 31
0.0
  0
LINE
  8
DETAIL
  6
CONTINUOUS
 62
     5
 10
-59.400000000000553
 20
-21.599999999999909
 30
0.0
 11
-66.600000000000364
 21
-21.599999999999909
 31
0.0
  0
LINE
  8
DETAIL
  6
CONTINUOUS
 62
     5
 10
-66.600000000000364
 20
-14.39999999999986
 30
0.0
 11
-66.600000000000364
 21
-21.599999999999909
 31
0.0
  0
LINE
  8
DETAIL
  6
CONTINUOUS
 62
     5
 10
-50.400000000000553
 20
-12.599999999999911
 30
0.0
 11
-57.600000000000357
 21
-12.599999999999911
 31
0.0
  0
LINE
  8
DETAIL
  6
CONTINUOUS
 62
     5
 10
-57.600000000000357
 20
-5.3999999999998636
 30
0.0
 11
-50.400000000000553
 21
-5.3999999999998636
 31
0.0
  0
LINE
  8
DETAIL
  6
CONTINUOUS
 62
     5
 10
-50.400000000000553
 20
-5.3999999999998636
 30
0.0
 11
-50.400000000000553
 21
-12.599999999999911
 31
0.0
  0
LINE
  8
DETAIL
  6
CONTINUOUS
 62
     5
 10
-50.400000000000553
 20
-5.3999999999998636
 30
0.0
 11
-50.400000000000553
 21
-12.599999999999911
 31
0.0
  0
LINE
  8
DETAIL
  6
CONTINUOUS
 62
     5
 10
-50.400000000000553
 20
-5.3999999999998636
 30
0.0
 11
-57.600000000000357
 21
-5.3999999999998636
 31
0.0
  0
LINE
  8
DETAIL
  6
CONTINUOUS
 62
     5
 10
-57.600000000000357
 20
-5.3999999999998636
 30
0.0
 11
-57.600000000000357
 21
-12.599999999999911
 31
0.0
  0
LINE
  8
DETAIL
  6
CONTINUOUS
 62
     5
 10
-50.400000000000553
 20
-21.599999999999909
 30
0.0
 11
-57.600000000000357
 21
-21.599999999999909
 31
0.0
  0
LINE
  8
DETAIL
  6
CONTINUOUS
 62
     5
 10
-57.600000000000357
 20
-14.39999999999986
 30
0.0
 11
-50.400000000000553
 21
-14.39999999999986
 31
0.0
  0
LINE
  8
DETAIL
  6
CONTINUOUS
 62
     5
 10
-50.400000000000553
 20
-14.39999999999986
 30
0.0
 11
-50.400000000000553
 21
-21.599999999999909
 31
0.0
  0
LINE
  8
DETAIL
  6
CONTINUOUS
 62
     5
 10
-50.400000000000553
 20
-14.39999999999986
 30
0.0
 11
-50.400000000000553
 21
-21.599999999999909
 31
0.0
  0
LINE
  8
DETAIL
  6
CONTINUOUS
 62
     5
 10
-50.400000000000553
 20
-14.39999999999986
 30
0.0
 11
-57.600000000000357
 21
-14.39999999999986
 31
0.0
  0
LINE
  8
DETAIL
  6
CONTINUOUS
 62
     5
 10
-57.600000000000357
 20
-14.39999999999986
 30
0.0
 11
-57.600000000000357
 21
-21.599999999999909
 31
0.0
  0
LINE
  8
DETAIL
  6
CONTINUOUS
 62
     5
 10
-50.400000000000553
 20
-30.599999999999909
 30
0.0
 11
-57.600000000000357
 21
-30.599999999999909
 31
0.0
  0
LINE
  8
DETAIL
  6
CONTINUOUS
 62
     5
 10
-57.600000000000357
 20
-23.39999999999986
 30
0.0
 11
-50.400000000000553
 21
-23.39999999999986
 31
0.0
  0
LINE
  8
DETAIL
  6
CONTINUOUS
 62
     5
 10
-50.400000000000553
 20
-23.39999999999986
 30
0.0
 11
-50.400000000000553
 21
-30.599999999999909
 31
0.0
  0
LINE
  8
DETAIL
  6
CONTINUOUS
 62
     5
 10
-50.400000000000553
 20
-23.39999999999986
 30
0.0
 11
-50.400000000000553
 21
-30.599999999999909
 31
0.0
  0
LINE
  8
DETAIL
  6
CONTINUOUS
 62
     5
 10
-50.400000000000553
 20
-23.39999999999986
 30
0.0
 11
-57.600000000000357
 21
-23.39999999999986
 31
0.0
  0
LINE
  8
DETAIL
  6
CONTINUOUS
 62
     5
 10
-57.600000000000357
 20
-23.39999999999986
 30
0.0
 11
-57.600000000000357
 21
-30.599999999999909
 31
0.0
  0
LINE
  8
DETAIL
  6
CONTINUOUS
 62
     5
 10
-41.400000000000553
 20
-5.3999999999998636
 30
0.0
 11
-41.400000000000553
 21
-12.599999999999911
 31
0.0
  0
LINE
  8
DETAIL
  6
CONTINUOUS
 62
     5
 10
-41.400000000000553
 20
-5.3999999999998636
 30
0.0
 11
-48.600000000000357
 21
-5.3999999999998636
 31
0.0
  0
LINE
  8
DETAIL
  6
CONTINUOUS
 62
     5
 10
-41.400000000000553
 20
-12.599999999999911
 30
0.0
 11
-48.600000000000357
 21
-12.599999999999911
 31
0.0
  0
LINE
  8
DETAIL
  6
CONTINUOUS
 62
     5
 10
-48.600000000000357
 20
-5.3999999999998636
 30
0.0
 11
-48.600000000000357
 21
-12.599999999999911
 31
0.0
  0
LINE
  8
DETAIL
  6
CONTINUOUS
 62
     5
 10
-41.400000000000553
 20
-14.39999999999986
 30
0.0
 11
-41.400000000000553
 21
-21.599999999999909
 31
0.0
  0
LINE
  8
DETAIL
  6
CONTINUOUS
 62
     5
 10
-41.400000000000553
 20
-14.39999999999986
 30
0.0
 11
-48.600000000000357
 21
-14.39999999999986
 31
0.0
  0
LINE
  8
DETAIL
  6
CONTINUOUS
 62
     5
 10
-41.400000000000553
 20
-21.599999999999909
 30
0.0
 11
-48.600000000000357
 21
-21.599999999999909
 31
0.0
  0
LINE
  8
DETAIL
  6
CONTINUOUS
 62
     5
 10
-48.600000000000357
 20
-14.39999999999986
 30
0.0
 11
-48.600000000000357
 21
-21.599999999999909
 31
0.0
  0
LINE
  8
DETAIL
  6
CONTINUOUS
 62
     5
 10
-41.400000000000553
 20
-23.39999999999986
 30
0.0
 11
-41.400000000000553
 21
-30.599999999999909
 31
0.0
  0
LINE
  8
DETAIL
  6
CONTINUOUS
 62
     5
 10
-41.400000000000553
 20
-23.39999999999986
 30
0.0
 11
-48.600000000000357
 21
-23.39999999999986
 31
0.0
  0
LINE
  8
DETAIL
  6
CONTINUOUS
 62
     5
 10
-41.400000000000553
 20
-30.599999999999909
 30
0.0
 11
-48.600000000000357
 21
-30.599999999999909
 31
0.0
  0
LINE
  8
DETAIL
  6
CONTINUOUS
 62
     5
 10
-48.600000000000357
 20
-23.39999999999986
 30
0.0
 11
-48.600000000000357
 21
-30.599999999999909
 31
0.0
  0
LINE
  8
DETAIL
  6
CONTINUOUS
 62
     5
 10
-41.400000000000553
 20
-32.399999999999856
 30
0.0
 11
-41.400000000000553
 21
-39.599999999999909
 31
0.0
  0
LINE
  8
DETAIL
  6
CONTINUOUS
 62
     5
 10
-41.400000000000553
 20
-32.399999999999856
 30
0.0
 11
-48.600000000000357
 21
-32.399999999999856
 31
0.0
  0
LINE
  8
DETAIL
  6
CONTINUOUS
 62
     5
 10
-41.400000000000553
 20
-39.599999999999909
 30
0.0
 11
-48.600000000000357
 21
-39.599999999999909
 31
0.0
  0
LINE
  8
DETAIL
  6
CONTINUOUS
 62
     5
 10
-48.600000000000357
 20
-32.399999999999856
 30
0.0
 11
-48.600000000000357
 21
-39.599999999999909
 31
0.0
  0
LINE
  8
DETAIL
  6
CONTINUOUS
 62
     5
 10
-32.400000000000553
 20
-5.3999999999998636
 30
0.0
 11
-32.400000000000553
 21
-12.599999999999911
 31
0.0
  0
LINE
  8
DETAIL
  6
CONTINUOUS
 62
     5
 10
-32.400000000000553
 20
-5.3999999999998636
 30
0.0
 11
-39.600000000000357
 21
-5.3999999999998636
 31
0.0
  0
LINE
  8
DETAIL
  6
CONTINUOUS
 62
     5
 10
-32.400000000000553
 20
-12.599999999999911
 30
0.0
 11
-39.600000000000357
 21
-12.599999999999911
 31
0.0
  0
LINE
  8
DETAIL
  6
CONTINUOUS
 62
     5
 10
-39.600000000000357
 20
-5.3999999999998636
 30
0.0
 11
-39.600000000000357
 21
-12.599999999999911
 31
0.0
  0
LINE
  8
DETAIL
  6
CONTINUOUS
 62
     5
 10
-32.400000000000553
 20
-14.39999999999986
 30
0.0
 11
-32.400000000000553
 21
-21.599999999999909
 31
0.0
  0
LINE
  8
DETAIL
  6
CONTINUOUS
 62
     5
 10
-32.400000000000553
 20
-14.39999999999986
 30
0.0
 11
-39.600000000000357
 21
-14.39999999999986
 31
0.0
  0
LINE
  8
DETAIL
  6
CONTINUOUS
 62
     5
 10
-32.400000000000553
 20
-21.599999999999909
 30
0.0
 11
-39.600000000000357
 21
-21.599999999999909
 31
0.0
  0
LINE
  8
DETAIL
  6
CONTINUOUS
 62
     5
 10
-39.600000000000357
 20
-14.39999999999986
 30
0.0
 11
-39.600000000000357
 21
-21.599999999999909
 31
0.0
  0
LINE
  8
DETAIL
  6
CONTINUOUS
 62
     5
 10
-32.400000000000553
 20
-23.39999999999986
 30
0.0
 11
-32.400000000000553
 21
-30.599999999999909
 31
0.0
  0
LINE
  8
DETAIL
  6
CONTINUOUS
 62
     5
 10
-32.400000000000553
 20
-23.39999999999986
 30
0.0
 11
-39.600000000000357
 21
-23.39999999999986
 31
0.0
  0
LINE
  8
DETAIL
  6
CONTINUOUS
 62
     5
 10
-32.400000000000553
 20
-30.599999999999909
 30
0.0
 11
-39.600000000000357
 21
-30.599999999999909
 31
0.0
  0
LINE
  8
DETAIL
  6
CONTINUOUS
 62
     5
 10
-39.600000000000357
 20
-23.39999999999986
 30
0.0
 11
-39.600000000000357
 21
-30.599999999999909
 31
0.0
  0
LINE
  8
DETAIL
  6
CONTINUOUS
 62
     5
 10
-32.400000000000553
 20
-32.399999999999856
 30
0.0
 11
-32.400000000000553
 21
-39.599999999999909
 31
0.0
  0
LINE
  8
DETAIL
  6
CONTINUOUS
 62
     5
 10
-32.400000000000553
 20
-32.399999999999856
 30
0.0
 11
-39.600000000000357
 21
-32.399999999999856
 31
0.0
  0
LINE
  8
DETAIL
  6
CONTINUOUS
 62
     5
 10
-32.400000000000553
 20
-39.599999999999909
 30
0.0
 11
-39.600000000000357
 21
-39.599999999999909
 31
0.0
  0
LINE
  8
DETAIL
  6
CONTINUOUS
 62
     5
 10
-39.600000000000357
 20
-32.399999999999856
 30
0.0
 11
-39.600000000000357
 21
-39.599999999999909
 31
0.0
  0
LINE
  8
DETAIL
  6
CONTINUOUS
 62
     5
 10
-32.400000000000553
 20
-41.399999999999856
 30
0.0
 11
-32.400000000000553
 21
-48.599999999999909
 31
0.0
  0
LINE
  8
DETAIL
  6
CONTINUOUS
 62
     5
 10
-32.400000000000553
 20
-41.399999999999856
 30
0.0
 11
-39.600000000000357
 21
-41.399999999999856
 31
0.0
  0
LINE
  8
DETAIL
  6
CONTINUOUS
 62
     5
 10
-32.400000000000553
 20
-48.599999999999909
 30
0.0
 11
-39.600000000000357
 21
-48.599999999999909
 31
0.0
  0
LINE
  8
DETAIL
  6
CONTINUOUS
 62
     5
 10
-39.600000000000357
 20
-41.399999999999856
 30
0.0
 11
-39.600000000000357
 21
-48.599999999999909
 31
0.0
  0
LINE
  8
DETAIL
  6
CONTINUOUS
 62
     5
 10
-30.60000000000036
 20
-5.3999999999998636
 30
0.0
 11
-23.400000000000549
 21
-5.3999999999998636
 31
0.0
  0
LINE
  8
DETAIL
  6
CONTINUOUS
 62
     5
 10
-23.400000000000549
 20
-5.3999999999998636
 30
0.0
 11
-23.400000000000549
 21
-12.599999999999911
 31
0.0
  0
LINE
  8
DETAIL
  6
CONTINUOUS
 62
     5
 10
-23.400000000000549
 20
-5.3999999999998636
 30
0.0
 11
-23.400000000000549
 21
-12.599999999999911
 31
0.0
  0
LINE
  8
DETAIL
  6
CONTINUOUS
 62
     5
 10
-23.400000000000549
 20
-5.3999999999998636
 30
0.0
 11
-30.60000000000036
 21
-5.3999999999998636
 31
0.0
  0
LINE
  8
DETAIL
  6
CONTINUOUS
 62
     5
 10
-23.400000000000549
 20
-12.599999999999911
 30
0.0
 11
-30.60000000000036
 21
-12.599999999999911
 31
0.0
  0
LINE
  8
DETAIL
  6
CONTINUOUS
 62
     5
 10
-30.60000000000036
 20
-5.3999999999998636
 30
0.0
 11
-30.60000000000036
 21
-12.599999999999911
 31
0.0
  0
LINE
  8
DETAIL
  6
CONTINUOUS
 62
     5
 10
-30.60000000000036
 20
-14.39999999999986
 30
0.0
 11
-23.400000000000549
 21
-14.39999999999986
 31
0.0
  0
LINE
  8
DETAIL
  6
CONTINUOUS
 62
     5
 10
-23.400000000000549
 20
-14.39999999999986
 30
0.0
 11
-23.400000000000549
 21
-21.599999999999909
 31
0.0
  0
LINE
  8
DETAIL
  6
CONTINUOUS
 62
     5
 10
-23.400000000000549
 20
-14.39999999999986
 30
0.0
 11
-23.400000000000549
 21
-21.599999999999909
 31
0.0
  0
LINE
  8
DETAIL
  6
CONTINUOUS
 62
     5
 10
-23.400000000000549
 20
-14.39999999999986
 30
0.0
 11
-30.60000000000036
 21
-14.39999999999986
 31
0.0
  0
LINE
  8
DETAIL
  6
CONTINUOUS
 62
     5
 10
-23.400000000000549
 20
-21.599999999999909
 30
0.0
 11
-30.60000000000036
 21
-21.599999999999909
 31
0.0
  0
LINE
  8
DETAIL
  6
CONTINUOUS
 62
     5
 10
-30.60000000000036
 20
-14.39999999999986
 30
0.0
 11
-30.60000000000036
 21
-21.599999999999909
 31
0.0
  0
LINE
  8
DETAIL
  6
CONTINUOUS
 62
     5
 10
-30.60000000000036
 20
-23.39999999999986
 30
0.0
 11
-23.400000000000549
 21
-23.39999999999986
 31
0.0
  0
LINE
  8
DETAIL
  6
CONTINUOUS
 62
     5
 10
-23.400000000000549
 20
-23.39999999999986
 30
0.0
 11
-23.400000000000549
 21
-30.599999999999909
 31
0.0
  0
LINE
  8
DETAIL
  6
CONTINUOUS
 62
     5
 10
-23.400000000000549
 20
-23.39999999999986
 30
0.0
 11
-23.400000000000549
 21
-30.599999999999909
 31
0.0
  0
LINE
  8
DETAIL
  6
CONTINUOUS
 62
     5
 10
-23.400000000000549
 20
-23.39999999999986
 30
0.0
 11
-30.60000000000036
 21
-23.39999999999986
 31
0.0
  0
LINE
  8
DETAIL
  6
CONTINUOUS
 62
     5
 10
-23.400000000000549
 20
-30.599999999999909
 30
0.0
 11
-30.60000000000036
 21
-30.599999999999909
 31
0.0
  0
LINE
  8
DETAIL
  6
CONTINUOUS
 62
     5
 10
-30.60000000000036
 20
-23.39999999999986
 30
0.0
 11
-30.60000000000036
 21
-30.599999999999909
 31
0.0
  0
LINE
  8
DETAIL
  6
CONTINUOUS
 62
     5
 10
-30.60000000000036
 20
-32.399999999999856
 30
0.0
 11
-23.400000000000549
 21
-32.399999999999856
 31
0.0
  0
LINE
  8
DETAIL
  6
CONTINUOUS
 62
     5
 10
-23.400000000000549
 20
-32.399999999999856
 30
0.0
 11
-23.400000000000549
 21
-39.599999999999909
 31
0.0
  0
LINE
  8
DETAIL
  6
CONTINUOUS
 62
     5
 10
-23.400000000000549
 20
-32.399999999999856
 30
0.0
 11
-23.400000000000549
 21
-39.599999999999909
 31
0.0
  0
LINE
  8
DETAIL
  6
CONTINUOUS
 62
     5
 10
-23.400000000000549
 20
-32.399999999999856
 30
0.0
 11
-30.60000000000036
 21
-32.399999999999856
 31
0.0
  0
LINE
  8
DETAIL
  6
CONTINUOUS
 62
     5
 10
-23.400000000000549
 20
-39.599999999999909
 30
0.0
 11
-30.60000000000036
 21
-39.599999999999909
 31
0.0
  0
LINE
  8
DETAIL
  6
CONTINUOUS
 62
     5
 10
-30.60000000000036
 20
-32.399999999999856
 30
0.0
 11
-30.60000000000036
 21
-39.599999999999909
 31
0.0
  0
LINE
  8
DETAIL
  6
CONTINUOUS
 62
     5
 10
-30.60000000000036
 20
-41.399999999999856
 30
0.0
 11
-23.400000000000549
 21
-41.399999999999856
 31
0.0
  0
LINE
  8
DETAIL
  6
CONTINUOUS
 62
     5
 10
-23.400000000000549
 20
-41.399999999999856
 30
0.0
 11
-23.400000000000549
 21
-48.599999999999909
 31
0.0
  0
LINE
  8
DETAIL
  6
CONTINUOUS
 62
     5
 10
-23.400000000000549
 20
-41.399999999999856
 30
0.0
 11
-23.400000000000549
 21
-48.599999999999909
 31
0.0
  0
LINE
  8
DETAIL
  6
CONTINUOUS
 62
     5
 10
-23.400000000000549
 20
-41.399999999999856
 30
0.0
 11
-30.60000000000036
 21
-41.399999999999856
 31
0.0
  0
LINE
  8
DETAIL
  6
CONTINUOUS
 62
     5
 10
-23.400000000000549
 20
-48.599999999999909
 30
0.0
 11
-30.60000000000036
 21
-48.599999999999909
 31
0.0
  0
LINE
  8
DETAIL
  6
CONTINUOUS
 62
     5
 10
-30.60000000000036
 20
-41.399999999999856
 30
0.0
 11
-30.60000000000036
 21
-48.599999999999909
 31
0.0
  0
LINE
  8
DETAIL
  6
CONTINUOUS
 62
     5
 10
-30.60000000000036
 20
-50.399999999999856
 30
0.0
 11
-23.400000000000549
 21
-50.399999999999856
 31
0.0
  0
LINE
  8
DETAIL
  6
CONTINUOUS
 62
     5
 10
-23.400000000000549
 20
-50.399999999999856
 30
0.0
 11
-23.400000000000549
 21
-57.599999999999909
 31
0.0
  0
LINE
  8
DETAIL
  6
CONTINUOUS
 62
     5
 10
-23.400000000000549
 20
-50.399999999999856
 30
0.0
 11
-23.400000000000549
 21
-57.599999999999909
 31
0.0
  0
LINE
  8
DETAIL
  6
CONTINUOUS
 62
     5
 10
-23.400000000000549
 20
-50.399999999999856
 30
0.0
 11
-30.60000000000036
 21
-50.399999999999856
 31
0.0
  0
LINE
  8
DETAIL
  6
CONTINUOUS
 62
     5
 10
-23.400000000000549
 20
-57.599999999999909
 30
0.0
 11
-30.60000000000036
 21
-57.599999999999909
 31
0.0
  0
LINE
  8
DETAIL
  6
CONTINUOUS
 62
     5
 10
-30.60000000000036
 20
-50.399999999999856
 30
0.0
 11
-30.60000000000036
 21
-57.599999999999909
 31
0.0
  0
LINE
  8
DETAIL
  6
CONTINUOUS
 62
     5
 10
-14.400000000000549
 20
-5.3999999999998636
 30
0.0
 11
-14.400000000000549
 21
-12.599999999999911
 31
0.0
  0
LINE
  8
DETAIL
  6
CONTINUOUS
 62
     5
 10
-14.400000000000549
 20
-5.3999999999998636
 30
0.0
 11
-21.60000000000036
 21
-5.3999999999998636
 31
0.0
  0
LINE
  8
DETAIL
  6
CONTINUOUS
 62
     5
 10
-14.400000000000549
 20
-12.599999999999911
 30
0.0
 11
-21.60000000000036
 21
-12.599999999999911
 31
0.0
  0
LINE
  8
DETAIL
  6
CONTINUOUS
 62
     5
 10
-21.60000000000036
 20
-5.3999999999998636
 30
0.0
 11
-21.60000000000036
 21
-12.599999999999911
 31
0.0
  0
LINE
  8
DETAIL
  6
CONTINUOUS
 62
     5
 10
-14.400000000000549
 20
-14.39999999999986
 30
0.0
 11
-14.400000000000549
 21
-21.599999999999909
 31
0.0
  0
LINE
  8
DETAIL
  6
CONTINUOUS
 62
     5
 10
-14.400000000000549
 20
-14.39999999999986
 30
0.0
 11
-21.60000000000036
 21
-14.39999999999986
 31
0.0
  0
LINE
  8
DETAIL
  6
CONTINUOUS
 62
     5
 10
-14.400000000000549
 20
-21.599999999999909
 30
0.0
 11
-21.60000000000036
 21
-21.599999999999909
 31
0.0
  0
LINE
  8
DETAIL
  6
CONTINUOUS
 62
     5
 10
-21.60000000000036
 20
-14.39999999999986
 30
0.0
 11
-21.60000000000036
 21
-21.599999999999909
 31
0.0
  0
LINE
  8
DETAIL
  6
CONTINUOUS
 62
     5
 10
-14.400000000000549
 20
-23.39999999999986
 30
0.0
 11
-14.400000000000549
 21
-30.599999999999909
 31
0.0
  0
LINE
  8
DETAIL
  6
CONTINUOUS
 62
     5
 10
-14.400000000000549
 20
-23.39999999999986
 30
0.0
 11
-21.60000000000036
 21
-23.39999999999986
 31
0.0
  0
LINE
  8
DETAIL
  6
CONTINUOUS
 62
     5
 10
-14.400000000000549
 20
-30.599999999999909
 30
0.0
 11
-21.60000000000036
 21
-30.599999999999909
 31
0.0
  0
LINE
  8
DETAIL
  6
CONTINUOUS
 62
     5
 10
-21.60000000000036
 20
-23.39999999999986
 30
0.0
 11
-21.60000000000036
 21
-30.599999999999909
 31
0.0
  0
LINE
  8
DETAIL
  6
CONTINUOUS
 62
     5
 10
-14.400000000000549
 20
-32.399999999999856
 30
0.0
 11
-14.400000000000549
 21
-39.599999999999909
 31
0.0
  0
LINE
  8
DETAIL
  6
CONTINUOUS
 62
     5
 10
-14.400000000000549
 20
-32.399999999999856
 30
0.0
 11
-21.60000000000036
 21
-32.399999999999856
 31
0.0
  0
LINE
  8
DETAIL
  6
CONTINUOUS
 62
     5
 10
-14.400000000000549
 20
-39.599999999999909
 30
0.0
 11
-21.60000000000036
 21
-39.599999999999909
 31
0.0
  0
LINE
  8
DETAIL
  6
CONTINUOUS
 62
     5
 10
-21.60000000000036
 20
-32.399999999999856
 30
0.0
 11
-21.60000000000036
 21
-39.599999999999909
 31
0.0
  0
LINE
  8
DETAIL
  6
CONTINUOUS
 62
     5
 10
-14.400000000000549
 20
-41.399999999999856
 30
0.0
 11
-14.400000000000549
 21
-48.599999999999909
 31
0.0
  0
LINE
  8
DETAIL
  6
CONTINUOUS
 62
     5
 10
-14.400000000000549
 20
-41.399999999999856
 30
0.0
 11
-21.60000000000036
 21
-41.399999999999856
 31
0.0
  0
LINE
  8
DETAIL
  6
CONTINUOUS
 62
     5
 10
-14.400000000000549
 20
-48.599999999999909
 30
0.0
 11
-21.60000000000036
 21
-48.599999999999909
 31
0.0
  0
LINE
  8
DETAIL
  6
CONTINUOUS
 62
     5
 10
-21.60000000000036
 20
-41.399999999999856
 30
0.0
 11
-21.60000000000036
 21
-48.599999999999909
 31
0.0
  0
LINE
  8
DETAIL
  6
CONTINUOUS
 62
     5
 10
-14.400000000000549
 20
-50.399999999999856
 30
0.0
 11
-14.400000000000549
 21
-57.599999999999909
 31
0.0
  0
LINE
  8
DETAIL
  6
CONTINUOUS
 62
     5
 10
-14.400000000000549
 20
-50.399999999999856
 30
0.0
 11
-21.60000000000036
 21
-50.399999999999856
 31
0.0
  0
LINE
  8
DETAIL
  6
CONTINUOUS
 62
     5
 10
-14.400000000000549
 20
-57.599999999999909
 30
0.0
 11
-21.60000000000036
 21
-57.599999999999909
 31
0.0
  0
LINE
  8
DETAIL
  6
CONTINUOUS
 62
     5
 10
-21.60000000000036
 20
-50.399999999999856
 30
0.0
 11
-21.60000000000036
 21
-57.599999999999909
 31
0.0
  0
LINE
  8
DETAIL
  6
CONTINUOUS
 62
     5
 10
-14.400000000000549
 20
-59.399999999999856
 30
0.0
 11
-14.400000000000549
 21
-66.599999999999909
 31
0.0
  0
LINE
  8
DETAIL
  6
CONTINUOUS
 62
     5
 10
-14.400000000000549
 20
-59.399999999999856
 30
0.0
 11
-21.60000000000036
 21
-59.399999999999856
 31
0.0
  0
LINE
  8
DETAIL
  6
CONTINUOUS
 62
     5
 10
-14.400000000000549
 20
-66.599999999999909
 30
0.0
 11
-21.60000000000036
 21
-66.599999999999909
 31
0.0
  0
LINE
  8
DETAIL
  6
CONTINUOUS
 62
     5
 10
-21.60000000000036
 20
-59.399999999999856
 30
0.0
 11
-21.60000000000036
 21
-66.599999999999909
 31
0.0
  0
LINE
  8
DETAIL
  6
CONTINUOUS
 62
     5
 10
-5.4000000000005457
 20
-5.3999999999998636
 30
0.0
 11
-12.60000000000036
 21
-5.3999999999998636
 31
0.0
  0
LINE
  8
DETAIL
  6
CONTINUOUS
 62
     5
 10
-5.4000000000005457
 20
-12.599999999999911
 30
0.0
 11
-12.60000000000036
 21
-12.599999999999911
 31
0.0
  0
LINE
  8
DETAIL
  6
CONTINUOUS
 62
     5
 10
-12.60000000000036
 20
-5.3999999999998636
 30
0.0
 11
-12.60000000000036
 21
-12.599999999999911
 31
0.0
  0
LINE
  8
DETAIL
  6
CONTINUOUS
 62
     5
 10
-5.4000000000005457
 20
-5.3999999999998636
 30
0.0
 11
-5.4000000000005457
 21
-12.599999999999911
 31
0.0
  0
LINE
  8
DETAIL
  6
CONTINUOUS
 62
     5
 10
-5.4000000000005457
 20
-14.39999999999986
 30
0.0
 11
-12.60000000000036
 21
-14.39999999999986
 31
0.0
  0
LINE
  8
DETAIL
  6
CONTINUOUS
 62
     5
 10
-5.4000000000005457
 20
-21.599999999999909
 30
0.0
 11
-12.60000000000036
 21
-21.599999999999909
 31
0.0
  0
LINE
  8
DETAIL
  6
CONTINUOUS
 62
     5
 10
-12.60000000000036
 20
-14.39999999999986
 30
0.0
 11
-12.60000000000036
 21
-21.599999999999909
 31
0.0
  0
LINE
  8
DETAIL
  6
CONTINUOUS
 62
     5
 10
-5.4000000000005457
 20
-14.39999999999986
 30
0.0
 11
-5.4000000000005457
 21
-21.599999999999909
 31
0.0
  0
LINE
  8
DETAIL
  6
CONTINUOUS
 62
     5
 10
-5.4000000000005457
 20
-23.39999999999986
 30
0.0
 11
-12.60000000000036
 21
-23.39999999999986
 31
0.0
  0
LINE
  8
DETAIL
  6
CONTINUOUS
 62
     5
 10
-5.4000000000005457
 20
-30.599999999999909
 30
0.0
 11
-12.60000000000036
 21
-30.599999999999909
 31
0.0
  0
LINE
  8
DETAIL
  6
CONTINUOUS
 62
     5
 10
-12.60000000000036
 20
-23.39999999999986
 30
0.0
 11
-12.60000000000036
 21
-30.599999999999909
 31
0.0
  0
LINE
  8
DETAIL
  6
CONTINUOUS
 62
     5
 10
-5.4000000000005457
 20
-23.39999999999986
 30
0.0
 11
-5.4000000000005457
 21
-30.599999999999909
 31
0.0
  0
LINE
  8
DETAIL
  6
CONTINUOUS
 62
     5
 10
-5.4000000000005457
 20
-32.399999999999856
 30
0.0
 11
-12.60000000000036
 21
-32.399999999999856
 31
0.0
  0
LINE
  8
DETAIL
  6
CONTINUOUS
 62
     5
 10
-5.4000000000005457
 20
-39.599999999999909
 30
0.0
 11
-12.60000000000036
 21
-39.599999999999909
 31
0.0
  0
LINE
  8
DETAIL
  6
CONTINUOUS
 62
     5
 10
-12.60000000000036
 20
-32.399999999999856
 30
0.0
 11
-12.60000000000036
 21
-39.599999999999909
 31
0.0
  0
LINE
  8
DETAIL
  6
CONTINUOUS
 62
     5
 10
-5.4000000000005457
 20
-32.399999999999856
 30
0.0
 11
-5.4000000000005457
 21
-39.599999999999909
 31
0.0
  0
LINE
  8
DETAIL
  6
CONTINUOUS
 62
     5
 10
-5.4000000000005457
 20
-41.399999999999856
 30
0.0
 11
-12.60000000000036
 21
-41.399999999999856
 31
0.0
  0
LINE
  8
DETAIL
  6
CONTINUOUS
 62
     5
 10
-5.4000000000005457
 20
-48.599999999999909
 30
0.0
 11
-12.60000000000036
 21
-48.599999999999909
 31
0.0
  0
LINE
  8
DETAIL
  6
CONTINUOUS
 62
     5
 10
-12.60000000000036
 20
-41.399999999999856
 30
0.0
 11
-12.60000000000036
 21
-48.599999999999909
 31
0.0
  0
LINE
  8
DETAIL
  6
CONTINUOUS
 62
     5
 10
-5.4000000000005457
 20
-41.399999999999856
 30
0.0
 11
-5.4000000000005457
 21
-48.599999999999909
 31
0.0
  0
LINE
  8
DETAIL
  6
CONTINUOUS
 62
     5
 10
-5.4000000000005457
 20
-50.399999999999856
 30
0.0
 11
-12.60000000000036
 21
-50.399999999999856
 31
0.0
  0
LINE
  8
DETAIL
  6
CONTINUOUS
 62
     5
 10
-5.4000000000005457
 20
-57.599999999999909
 30
0.0
 11
-12.60000000000036
 21
-57.599999999999909
 31
0.0
  0
LINE
  8
DETAIL
  6
CONTINUOUS
 62
     5
 10
-12.60000000000036
 20
-50.399999999999856
 30
0.0
 11
-12.60000000000036
 21
-57.599999999999909
 31
0.0
  0
LINE
  8
DETAIL
  6
CONTINUOUS
 62
     5
 10
-5.4000000000005457
 20
-50.399999999999856
 30
0.0
 11
-5.4000000000005457
 21
-57.599999999999909
 31
0.0
  0
LINE
  8
DETAIL
  6
CONTINUOUS
 62
     5
 10
-5.4000000000005457
 20
-59.399999999999856
 30
0.0
 11
-12.60000000000036
 21
-59.399999999999856
 31
0.0
  0
LINE
  8
DETAIL
  6
CONTINUOUS
 62
     5
 10
-5.4000000000005457
 20
-66.599999999999909
 30
0.0
 11
-12.60000000000036
 21
-66.599999999999909
 31
0.0
  0
LINE
  8
DETAIL
  6
CONTINUOUS
 62
     5
 10
-12.60000000000036
 20
-59.399999999999856
 30
0.0
 11
-12.60000000000036
 21
-66.599999999999909
 31
0.0
  0
LINE
  8
DETAIL
  6
CONTINUOUS
 62
     5
 10
-5.4000000000005457
 20
-59.399999999999856
 30
0.0
 11
-5.4000000000005457
 21
-66.599999999999909
 31
0.0
  0
LINE
  8
DETAIL
  6
CONTINUOUS
 62
     5
 10
-5.4000000000005457
 20
-68.399999999999864
 30
0.0
 11
-12.60000000000036
 21
-68.399999999999864
 31
0.0
  0
LINE
  8
DETAIL
  6
CONTINUOUS
 62
     5
 10
-5.4000000000005457
 20
-75.599999999999909
 30
0.0
 11
-12.60000000000036
 21
-75.599999999999909
 31
0.0
  0
LINE
  8
DETAIL
  6
CONTINUOUS
 62
     5
 10
-12.60000000000036
 20
-68.399999999999864
 30
0.0
 11
-12.60000000000036
 21
-75.599999999999909
 31
0.0
  0
LINE
  8
DETAIL
  6
CONTINUOUS
 62
     5
 10
-5.4000000000005457
 20
-68.399999999999864
 30
0.0
 11
-5.4000000000005457
 21
-75.599999999999909
 31
0.0
  0
LINE
  8
DETAIL
  6
CONTINUOUS
 62
     5
 10
-3.6000000000003638
 20
-5.3999999999998636
 30
0.0
 11
-3.6000000000003638
 21
-12.599999999999911
 31
0.0
  0
LINE
  8
DETAIL
  6
CONTINUOUS
 62
     5
 10
-3.6000000000003638
 20
-14.39999999999986
 30
0.0
 11
-3.6000000000003638
 21
-21.599999999999909
 31
0.0
  0
LINE
  8
DETAIL
  6
CONTINUOUS
 62
     5
 10
-3.6000000000003638
 20
-23.39999999999986
 30
0.0
 11
-3.6000000000003638
 21
-30.599999999999909
 31
0.0
  0
LINE
  8
DETAIL
  6
CONTINUOUS
 62
     5
 10
-3.6000000000003638
 20
-32.399999999999856
 30
0.0
 11
-3.6000000000003638
 21
-39.599999999999909
 31
0.0
  0
LINE
  8
DETAIL
  6
CONTINUOUS
 62
     5
 10
-3.6000000000003638
 20
-41.399999999999856
 30
0.0
 11
-3.6000000000003638
 21
-48.599999999999909
 31
0.0
  0
LINE
  8
DETAIL
  6
CONTINUOUS
 62
     5
 10
-3.6000000000003638
 20
-50.399999999999856
 30
0.0
 11
-3.6000000000003638
 21
-57.599999999999909
 31
0.0
  0
LINE
  8
DETAIL
  6
CONTINUOUS
 62
     5
 10
-3.6000000000003638
 20
-59.399999999999856
 30
0.0
 11
-3.6000000000003638
 21
-66.599999999999909
 31
0.0
  0
LINE
  8
DETAIL
  6
CONTINUOUS
 62
     5
 10
-3.6000000000003638
 20
-68.399999999999864
 30
0.0
 11
-3.6000000000003638
 21
-75.599999999999909
 31
0.0
  0
LINE
  8
DETAIL
  6
CONTINUOUS
 62
     5
 10
-3.6000000000003638
 20
-77.399999999999864
 30
0.0
 11
-3.6000000000003638
 21
-84.599999999999909
 31
0.0
  0
LINE
  8
DETAIL
  6
CONTINUOUS
 62
     5
 10
-93.600000000000364
 20
3.600000000000136
 30
0.0
 11
-93.600000000000364
 21
-3.5999999999999091
 31
0.0
  0
LINE
  8
DETAIL
  6
CONTINUOUS
 62
     5
 10
-86.400000000000546
 20
3.600000000000136
 30
0.0
 11
-86.400000000000546
 21
-3.5999999999999091
 31
0.0
  0
ARC
  8
DETAIL
  6
CONTINUOUS
 62
     5
 10
-135.20564900000039
 20
-135.20564999999991
 30
0.0
 40
1.0
 50
180.0
 51
270.0
  0
LINE
  8
DETAIL
  6
CONTINUOUS
 62
     5
 10
-101.0
 20
-96.999999999999886
 30
0.0
 11
-99.5
 21
-95.499999999999886
 31
0.0
  0
LINE
  8
DETAIL
  6
CONTINUOUS
 62
     5
 10
-97.0
 20
-100.9999999999999
 30
0.0
 11
-95.5
 21
-99.499999999999886
 31
0.0
  0
ARC
  8
DETAIL
  6
CONTINUOUS
 62
     5
 10
-142.0000000000006
 20
-141.99999999999989
 30
0.0
 40
1.0
 50
180.0
 51
270.0
  0
LINE
  8
DETAIL
  6
CONTINUOUS
 62
     5
 10
-30.60000000000036
 20
-59.399999999999856
 30
0.0
 11
-23.400000000000549
 21
-59.399999999999856
 31
0.0
  0
LINE
  8
DETAIL
  6
CONTINUOUS
 62
     5
 10
-23.400000000000549
 20
-59.399999999999856
 30
0.0
 11
-23.400000000000549
 21
-66.599999999999909
 31
0.0
  0
LINE
  8
DETAIL
  6
CONTINUOUS
 62
     5
 10
-86.400000000000546
 20
-39.599999999999909
 30
0.0
 11
-93.600000000000364
 21
-39.599999999999909
 31
0.0
  0
LINE
  8
DETAIL
  6
CONTINUOUS
 62
     5
 10
-86.400000000000546
 20
-41.399999999999856
 30
0.0
 11
-86.400000000000546
 21
-48.599999999999909
 31
0.0
  0
LINE
  8
DETAIL
  6
CONTINUOUS
 62
     5
 10
-86.400000000000546
 20
-41.399999999999856
 30
0.0
 11
-93.600000000000364
 21
-41.399999999999856
 31
0.0
  0
LINE
  8
DETAIL
  6
CONTINUOUS
 62
     5
 10
-86.400000000000546
 20
-48.599999999999909
 30
0.0
 11
-93.600000000000364
 21
-48.599999999999909
 31
0.0
  0
LINE
  8
DETAIL
  6
CONTINUOUS
 62
     5
 10
-93.600000000000364
 20
-41.399999999999856
 30
0.0
 11
-93.600000000000364
 21
-48.599999999999909
 31
0.0
  0
LINE
  8
DETAIL
  6
CONTINUOUS
 62
     5
 10
-86.400000000000546
 20
-50.399999999999856
 30
0.0
 11
-86.400000000000546
 21
-57.599999999999909
 31
0.0
  0
LINE
  8
DETAIL
  6
CONTINUOUS
 62
     5
 10
-86.400000000000546
 20
-50.399999999999856
 30
0.0
 11
-93.600000000000364
 21
-50.399999999999856
 31
0.0
  0
LINE
  8
DETAIL
  6
CONTINUOUS
 62
     5
 10
-86.400000000000546
 20
-57.599999999999909
 30
0.0
 11
-93.600000000000364
 21
-57.599999999999909
 31
0.0
  0
LINE
  8
DETAIL
  6
CONTINUOUS
 62
     5
 10
-93.600000000000364
 20
-50.399999999999856
 30
0.0
 11
-93.600000000000364
 21
-57.599999999999909
 31
0.0
  0
LINE
  8
DETAIL
  6
CONTINUOUS
 62
     5
 10
-86.400000000000546
 20
-59.399999999999856
 30
0.0
 11
-86.400000000000546
 21
-66.599999999999909
 31
0.0
  0
LINE
  8
DETAIL
  6
CONTINUOUS
 62
     5
 10
-86.400000000000546
 20
-59.399999999999856
 30
0.0
 11
-93.600000000000364
 21
-59.399999999999856
 31
0.0
  0
LINE
  8
DETAIL
  6
CONTINUOUS
 62
     5
 10
-86.400000000000546
 20
-66.599999999999909
 30
0.0
 11
-93.600000000000364
 21
-66.599999999999909
 31
0.0
  0
LINE
  8
DETAIL
  6
CONTINUOUS
 62
     5
 10
-93.600000000000364
 20
-59.399999999999856
 30
0.0
 11
-93.600000000000364
 21
-66.599999999999909
 31
0.0
  0
LINE
  8
DETAIL
  6
CONTINUOUS
 62
     5
 10
-86.400000000000546
 20
-68.399999999999864
 30
0.0
 11
-86.400000000000546
 21
-75.599999999999909
 31
0.0
  0
LINE
  8
DETAIL
  6
CONTINUOUS
 62
     5
 10
-86.400000000000546
 20
-68.399999999999864
 30
0.0
 11
-93.600000000000364
 21
-68.399999999999864
 31
0.0
  0
LINE
  8
DETAIL
  6
CONTINUOUS
 62
     5
 10
-86.400000000000546
 20
-75.599999999999909
 30
0.0
 11
-93.600000000000364
 21
-75.599999999999909
 31
0.0
  0
LINE
  8
DETAIL
  6
CONTINUOUS
 62
     5
 10
-93.600000000000364
 20
-68.399999999999864
 30
0.0
 11
-93.600000000000364
 21
-75.599999999999909
 31
0.0
  0
LINE
  8
DETAIL
  6
CONTINUOUS
 62
     5
 10
-86.400000000000546
 20
-77.399999999999864
 30
0.0
 11
-86.400000000000546
 21
-84.599999999999909
 31
0.0
  0
LINE
  8
DETAIL
  6
CONTINUOUS
 62
     5
 10
-86.400000000000546
 20
-77.399999999999864
 30
0.0
 11
-93.600000000000364
 21
-77.399999999999864
 31
0.0
  0
LINE
  8
DETAIL
  6
CONTINUOUS
 62
     5
 10
-86.400000000000546
 20
-84.599999999999909
 30
0.0
 11
-93.600000000000364
 21
-84.599999999999909
 31
0.0
  0
LINE
  8
DETAIL
  6
CONTINUOUS
 62
     5
 10
-93.600000000000364
 20
-77.399999999999864
 30
0.0
 11
-93.600000000000364
 21
-84.599999999999909
 31
0.0
  0
LINE
  8
DETAIL
  6
CONTINUOUS
 62
     5
 10
-86.400000000000546
 20
-86.399999999999864
 30
0.0
 11
-86.400000000000546
 21
-93.599999999999909
 31
0.0
  0
LINE
  8
DETAIL
  6
CONTINUOUS
 62
     5
 10
-86.400000000000546
 20
-86.399999999999864
 30
0.0
 11
-93.600000000000364
 21
-86.399999999999864
 31
0.0
  0
LINE
  8
DETAIL
  6
CONTINUOUS
 62
     5
 10
-86.400000000000546
 20
-93.599999999999909
 30
0.0
 11
-93.600000000000364
 21
-93.599999999999909
 31
0.0
  0
LINE
  8
DETAIL
  6
CONTINUOUS
 62
     5
 10
-93.600000000000364
 20
-86.399999999999864
 30
0.0
 11
-93.600000000000364
 21
-93.599999999999909
 31
0.0
  0
LINE
  8
DETAIL
  6
CONTINUOUS
 62
     5
 10
-77.400000000000546
 20
-39.599999999999909
 30
0.0
 11
-84.600000000000364
 21
-39.599999999999909
 31
0.0
  0
LINE
  8
DETAIL
  6
CONTINUOUS
 62
     5
 10
-77.400000000000546
 20
-41.399999999999856
 30
0.0
 11
-77.400000000000546
 21
-48.599999999999909
 31
0.0
  0
LINE
  8
DETAIL
  6
CONTINUOUS
 62
     5
 10
-77.400000000000546
 20
-41.399999999999856
 30
0.0
 11
-84.600000000000364
 21
-41.399999999999856
 31
0.0
  0
LINE
  8
DETAIL
  6
CONTINUOUS
 62
     5
 10
-77.400000000000546
 20
-48.599999999999909
 30
0.0
 11
-84.600000000000364
 21
-48.599999999999909
 31
0.0
  0
LINE
  8
DETAIL
  6
CONTINUOUS
 62
     5
 10
-84.600000000000364
 20
-41.399999999999856
 30
0.0
 11
-84.600000000000364
 21
-48.599999999999909
 31
0.0
  0
LINE
  8
DETAIL
  6
CONTINUOUS
 62
     5
 10
-77.400000000000546
 20
-50.399999999999856
 30
0.0
 11
-77.400000000000546
 21
-57.599999999999909
 31
0.0
  0
LINE
  8
DETAIL
  6
CONTINUOUS
 62
     5
 10
-77.400000000000546
 20
-50.399999999999856
 30
0.0
 11
-84.600000000000364
 21
-50.399999999999856
 31
0.0
  0
LINE
  8
DETAIL
  6
CONTINUOUS
 62
     5
 10
-77.400000000000546
 20
-57.599999999999909
 30
0.0
 11
-84.600000000000364
 21
-57.599999999999909
 31
0.0
  0
LINE
  8
DETAIL
  6
CONTINUOUS
 62
     5
 10
-84.600000000000364
 20
-50.399999999999856
 30
0.0
 11
-84.600000000000364
 21
-57.599999999999909
 31
0.0
  0
LINE
  8
DETAIL
  6
CONTINUOUS
 62
     5
 10
-77.400000000000546
 20
-59.399999999999856
 30
0.0
 11
-77.400000000000546
 21
-66.599999999999909
 31
0.0
  0
LINE
  8
DETAIL
  6
CONTINUOUS
 62
     5
 10
-77.400000000000546
 20
-59.399999999999856
 30
0.0
 11
-84.600000000000364
 21
-59.399999999999856
 31
0.0
  0
LINE
  8
DETAIL
  6
CONTINUOUS
 62
     5
 10
-77.400000000000546
 20
-66.599999999999909
 30
0.0
 11
-84.600000000000364
 21
-66.599999999999909
 31
0.0
  0
LINE
  8
DETAIL
  6
CONTINUOUS
 62
     5
 10
-84.600000000000364
 20
-59.399999999999856
 30
0.0
 11
-84.600000000000364
 21
-66.599999999999909
 31
0.0
  0
LINE
  8
DETAIL
  6
CONTINUOUS
 62
     5
 10
-77.400000000000546
 20
-68.399999999999864
 30
0.0
 11
-77.400000000000546
 21
-75.599999999999909
 31
0.0
  0
LINE
  8
DETAIL
  6
CONTINUOUS
 62
     5
 10
-77.400000000000546
 20
-68.399999999999864
 30
0.0
 11
-84.600000000000364
 21
-68.399999999999864
 31
0.0
  0
LINE
  8
DETAIL
  6
CONTINUOUS
 62
     5
 10
-77.400000000000546
 20
-75.599999999999909
 30
0.0
 11
-84.600000000000364
 21
-75.599999999999909
 31
0.0
  0
LINE
  8
DETAIL
  6
CONTINUOUS
 62
     5
 10
-84.600000000000364
 20
-68.399999999999864
 30
0.0
 11
-84.600000000000364
 21
-75.599999999999909
 31
0.0
  0
LINE
  8
DETAIL
  6
CONTINUOUS
 62
     5
 10
-77.400000000000546
 20
-77.399999999999864
 30
0.0
 11
-77.400000000000546
 21
-84.599999999999909
 31
0.0
  0
LINE
  8
DETAIL
  6
CONTINUOUS
 62
     5
 10
-77.400000000000546
 20
-77.399999999999864
 30
0.0
 11
-84.600000000000364
 21
-77.399999999999864
 31
0.0
  0
LINE
  8
DETAIL
  6
CONTINUOUS
 62
     5
 10
-77.400000000000546
 20
-84.599999999999909
 30
0.0
 11
-84.600000000000364
 21
-84.599999999999909
 31
0.0
  0
LINE
  8
DETAIL
  6
CONTINUOUS
 62
     5
 10
-84.600000000000364
 20
-77.399999999999864
 30
0.0
 11
-84.600000000000364
 21
-84.599999999999909
 31
0.0
  0
LINE
  8
DETAIL
  6
CONTINUOUS
 62
     5
 10
-77.400000000000546
 20
-86.399999999999864
 30
0.0
 11
-77.400000000000546
 21
-93.599999999999909
 31
0.0
  0
LINE
  8
DETAIL
  6
CONTINUOUS
 62
     5
 10
-77.400000000000546
 20
-86.399999999999864
 30
0.0
 11
-84.600000000000364
 21
-86.399999999999864
 31
0.0
  0
LINE
  8
DETAIL
  6
CONTINUOUS
 62
     5
 10
-77.400000000000546
 20
-93.599999999999909
 30
0.0
 11
-84.600000000000364
 21
-93.599999999999909
 31
0.0
  0
LINE
  8
DETAIL
  6
CONTINUOUS
 62
     5
 10
-84.600000000000364
 20
-86.399999999999864
 30
0.0
 11
-84.600000000000364
 21
-93.599999999999909
 31
0.0
  0
LINE
  8
DETAIL
  6
CONTINUOUS
 62
     5
 10
-68.400000000000546
 20
-39.599999999999909
 30
0.0
 11
-75.600000000000364
 21
-39.599999999999909
 31
0.0
  0
LINE
  8
DETAIL
  6
CONTINUOUS
 62
     5
 10
-68.400000000000546
 20
-41.399999999999856
 30
0.0
 11
-68.400000000000546
 21
-48.599999999999909
 31
0.0
  0
LINE
  8
DETAIL
  6
CONTINUOUS
 62
     5
 10
-68.400000000000546
 20
-41.399999999999856
 30
0.0
 11
-75.600000000000364
 21
-41.399999999999856
 31
0.0
  0
LINE
  8
DETAIL
  6
CONTINUOUS
 62
     5
 10
-68.400000000000546
 20
-48.599999999999909
 30
0.0
 11
-75.600000000000364
 21
-48.599999999999909
 31
0.0
  0
LINE
  8
DETAIL
  6
CONTINUOUS
 62
     5
 10
-75.600000000000364
 20
-41.399999999999856
 30
0.0
 11
-75.600000000000364
 21
-48.599999999999909
 31
0.0
  0
LINE
  8
DETAIL
  6
CONTINUOUS
 62
     5
 10
-68.400000000000546
 20
-50.399999999999856
 30
0.0
 11
-68.400000000000546
 21
-57.599999999999909
 31
0.0
  0
LINE
  8
DETAIL
  6
CONTINUOUS
 62
     5
 10
-68.400000000000546
 20
-50.399999999999856
 30
0.0
 11
-75.600000000000364
 21
-50.399999999999856
 31
0.0
  0
LINE
  8
DETAIL
  6
CONTINUOUS
 62
     5
 10
-68.400000000000546
 20
-57.599999999999909
 30
0.0
 11
-75.600000000000364
 21
-57.599999999999909
 31
0.0
  0
LINE
  8
DETAIL
  6
CONTINUOUS
 62
     5
 10
-75.600000000000364
 20
-50.399999999999856
 30
0.0
 11
-75.600000000000364
 21
-57.599999999999909
 31
0.0
  0
LINE
  8
DETAIL
  6
CONTINUOUS
 62
     5
 10
-68.400000000000546
 20
-59.399999999999856
 30
0.0
 11
-68.400000000000546
 21
-66.599999999999909
 31
0.0
  0
LINE
  8
DETAIL
  6
CONTINUOUS
 62
     5
 10
-68.400000000000546
 20
-59.399999999999856
 30
0.0
 11
-75.600000000000364
 21
-59.399999999999856
 31
0.0
  0
LINE
  8
DETAIL
  6
CONTINUOUS
 62
     5
 10
-68.400000000000546
 20
-66.599999999999909
 30
0.0
 11
-75.600000000000364
 21
-66.599999999999909
 31
0.0
  0
LINE
  8
DETAIL
  6
CONTINUOUS
 62
     5
 10
-75.600000000000364
 20
-59.399999999999856
 30
0.0
 11
-75.600000000000364
 21
-66.599999999999909
 31
0.0
  0
LINE
  8
DETAIL
  6
CONTINUOUS
 62
     5
 10
-68.400000000000546
 20
-68.399999999999864
 30
0.0
 11
-68.400000000000546
 21
-75.599999999999909
 31
0.0
  0
LINE
  8
DETAIL
  6
CONTINUOUS
 62
     5
 10
-68.400000000000546
 20
-68.399999999999864
 30
0.0
 11
-75.600000000000364
 21
-68.399999999999864
 31
0.0
  0
LINE
  8
DETAIL
  6
CONTINUOUS
 62
     5
 10
-68.400000000000546
 20
-75.599999999999909
 30
0.0
 11
-75.600000000000364
 21
-75.599999999999909
 31
0.0
  0
LINE
  8
DETAIL
  6
CONTINUOUS
 62
     5
 10
-75.600000000000364
 20
-68.399999999999864
 30
0.0
 11
-75.600000000000364
 21
-75.599999999999909
 31
0.0
  0
LINE
  8
DETAIL
  6
CONTINUOUS
 62
     5
 10
-68.400000000000546
 20
-77.399999999999864
 30
0.0
 11
-68.400000000000546
 21
-84.599999999999909
 31
0.0
  0
LINE
  8
DETAIL
  6
CONTINUOUS
 62
     5
 10
-68.400000000000546
 20
-77.399999999999864
 30
0.0
 11
-75.600000000000364
 21
-77.399999999999864
 31
0.0
  0
LINE
  8
DETAIL
  6
CONTINUOUS
 62
     5
 10
-68.400000000000546
 20
-84.599999999999909
 30
0.0
 11
-75.600000000000364
 21
-84.599999999999909
 31
0.0
  0
LINE
  8
DETAIL
  6
CONTINUOUS
 62
     5
 10
-75.600000000000364
 20
-77.399999999999864
 30
0.0
 11
-75.600000000000364
 21
-84.599999999999909
 31
0.0
  0
LINE
  8
DETAIL
  6
CONTINUOUS
 62
     5
 10
-68.400000000000546
 20
-86.399999999999864
 30
0.0
 11
-68.400000000000546
 21
-93.599999999999909
 31
0.0
  0
LINE
  8
DETAIL
  6
CONTINUOUS
 62
     5
 10
-68.400000000000546
 20
-86.399999999999864
 30
0.0
 11
-75.600000000000364
 21
-86.399999999999864
 31
0.0
  0
LINE
  8
DETAIL
  6
CONTINUOUS
 62
     5
 10
-68.400000000000546
 20
-93.599999999999909
 30
0.0
 11
-75.600000000000364
 21
-93.599999999999909
 31
0.0
  0
LINE
  8
DETAIL
  6
CONTINUOUS
 62
     5
 10
-75.600000000000364
 20
-86.399999999999864
 30
0.0
 11
-75.600000000000364
 21
-93.599999999999909
 31
0.0
  0
LINE
  8
DETAIL
  6
CONTINUOUS
 62
     5
 10
-59.400000000000553
 20
-39.599999999999909
 30
0.0
 11
-66.600000000000364
 21
-39.599999999999909
 31
0.0
  0
LINE
  8
DETAIL
  6
CONTINUOUS
 62
     5
 10
-59.400000000000553
 20
-41.399999999999856
 30
0.0
 11
-59.400000000000553
 21
-48.599999999999909
 31
0.0
  0
LINE
  8
DETAIL
  6
CONTINUOUS
 62
     5
 10
-59.400000000000553
 20
-41.399999999999856
 30
0.0
 11
-66.600000000000364
 21
-41.399999999999856
 31
0.0
  0
LINE
  8
DETAIL
  6
CONTINUOUS
 62
     5
 10
-59.400000000000553
 20
-48.599999999999909
 30
0.0
 11
-66.600000000000364
 21
-48.599999999999909
 31
0.0
  0
LINE
  8
DETAIL
  6
CONTINUOUS
 62
     5
 10
-66.600000000000364
 20
-41.399999999999856
 30
0.0
 11
-66.600000000000364
 21
-48.599999999999909
 31
0.0
  0
LINE
  8
DETAIL
  6
CONTINUOUS
 62
     5
 10
-59.400000000000553
 20
-50.399999999999856
 30
0.0
 11
-59.400000000000553
 21
-57.599999999999909
 31
0.0
  0
LINE
  8
DETAIL
  6
CONTINUOUS
 62
     5
 10
-59.400000000000553
 20
-50.399999999999856
 30
0.0
 11
-66.600000000000364
 21
-50.399999999999856
 31
0.0
  0
LINE
  8
DETAIL
  6
CONTINUOUS
 62
     5
 10
-59.400000000000553
 20
-57.599999999999909
 30
0.0
 11
-66.600000000000364
 21
-57.599999999999909
 31
0.0
  0
LINE
  8
DETAIL
  6
CONTINUOUS
 62
     5
 10
-66.600000000000364
 20
-50.399999999999856
 30
0.0
 11
-66.600000000000364
 21
-57.599999999999909
 31
0.0
  0
LINE
  8
DETAIL
  6
CONTINUOUS
 62
     5
 10
-59.400000000000553
 20
-59.399999999999856
 30
0.0
 11
-59.400000000000553
 21
-66.599999999999909
 31
0.0
  0
LINE
  8
DETAIL
  6
CONTINUOUS
 62
     5
 10
-59.400000000000553
 20
-59.399999999999856
 30
0.0
 11
-66.600000000000364
 21
-59.399999999999856
 31
0.0
  0
LINE
  8
DETAIL
  6
CONTINUOUS
 62
     5
 10
-59.400000000000553
 20
-66.599999999999909
 30
0.0
 11
-66.600000000000364
 21
-66.599999999999909
 31
0.0
  0
LINE
  8
DETAIL
  6
CONTINUOUS
 62
     5
 10
-66.600000000000364
 20
-59.399999999999856
 30
0.0
 11
-66.600000000000364
 21
-66.599999999999909
 31
0.0
  0
LINE
  8
DETAIL
  6
CONTINUOUS
 62
     5
 10
-59.400000000000553
 20
-68.399999999999864
 30
0.0
 11
-59.400000000000553
 21
-75.599999999999909
 31
0.0
  0
LINE
  8
DETAIL
  6
CONTINUOUS
 62
     5
 10
-59.400000000000553
 20
-68.399999999999864
 30
0.0
 11
-66.600000000000364
 21
-68.399999999999864
 31
0.0
  0
LINE
  8
DETAIL
  6
CONTINUOUS
 62
     5
 10
-59.400000000000553
 20
-75.599999999999909
 30
0.0
 11
-66.600000000000364
 21
-75.599999999999909
 31
0.0
  0
LINE
  8
DETAIL
  6
CONTINUOUS
 62
     5
 10
-66.600000000000364
 20
-68.399999999999864
 30
0.0
 11
-66.600000000000364
 21
-75.599999999999909
 31
0.0
  0
LINE
  8
DETAIL
  6
CONTINUOUS
 62
     5
 10
-59.400000000000553
 20
-77.399999999999864
 30
0.0
 11
-59.400000000000553
 21
-84.599999999999909
 31
0.0
  0
LINE
  8
DETAIL
  6
CONTINUOUS
 62
     5
 10
-59.400000000000553
 20
-77.399999999999864
 30
0.0
 11
-66.600000000000364
 21
-77.399999999999864
 31
0.0
  0
LINE
  8
DETAIL
  6
CONTINUOUS
 62
     5
 10
-59.400000000000553
 20
-84.599999999999909
 30
0.0
 11
-66.600000000000364
 21
-84.599999999999909
 31
0.0
  0
LINE
  8
DETAIL
  6
CONTINUOUS
 62
     5
 10
-66.600000000000364
 20
-77.399999999999864
 30
0.0
 11
-66.600000000000364
 21
-84.599999999999909
 31
0.0
  0
LINE
  8
DETAIL
  6
CONTINUOUS
 62
     5
 10
-59.400000000000553
 20
-86.399999999999864
 30
0.0
 11
-59.400000000000553
 21
-93.599999999999909
 31
0.0
  0
LINE
  8
DETAIL
  6
CONTINUOUS
 62
     5
 10
-59.400000000000553
 20
-86.399999999999864
 30
0.0
 11
-66.600000000000364
 21
-86.399999999999864
 31
0.0
  0
LINE
  8
DETAIL
  6
CONTINUOUS
 62
     5
 10
-59.400000000000553
 20
-93.599999999999909
 30
0.0
 11
-66.600000000000364
 21
-93.599999999999909
 31
0.0
  0
LINE
  8
DETAIL
  6
CONTINUOUS
 62
     5
 10
-66.600000000000364
 20
-86.399999999999864
 30
0.0
 11
-66.600000000000364
 21
-93.599999999999909
 31
0.0
  0
LINE
  8
DETAIL
  6
CONTINUOUS
 62
     5
 10
-50.400000000000553
 20
-39.599999999999909
 30
0.0
 11
-57.600000000000357
 21
-39.599999999999909
 31
0.0
  0
LINE
  8
DETAIL
  6
CONTINUOUS
 62
     5
 10
-50.400000000000553
 20
-41.399999999999856
 30
0.0
 11
-50.400000000000553
 21
-48.599999999999909
 31
0.0
  0
LINE
  8
DETAIL
  6
CONTINUOUS
 62
     5
 10
-50.400000000000553
 20
-41.399999999999856
 30
0.0
 11
-57.600000000000357
 21
-41.399999999999856
 31
0.0
  0
LINE
  8
DETAIL
  6
CONTINUOUS
 62
     5
 10
-50.400000000000553
 20
-48.599999999999909
 30
0.0
 11
-57.600000000000357
 21
-48.599999999999909
 31
0.0
  0
LINE
  8
DETAIL
  6
CONTINUOUS
 62
     5
 10
-57.600000000000357
 20
-41.399999999999856
 30
0.0
 11
-57.600000000000357
 21
-48.599999999999909
 31
0.0
  0
LINE
  8
DETAIL
  6
CONTINUOUS
 62
     5
 10
-50.400000000000553
 20
-50.399999999999856
 30
0.0
 11
-50.400000000000553
 21
-57.599999999999909
 31
0.0
  0
LINE
  8
DETAIL
  6
CONTINUOUS
 62
     5
 10
-50.400000000000553
 20
-50.399999999999856
 30
0.0
 11
-57.600000000000357
 21
-50.399999999999856
 31
0.0
  0
LINE
  8
DETAIL
  6
CONTINUOUS
 62
     5
 10
-50.400000000000553
 20
-57.599999999999909
 30
0.0
 11
-57.600000000000357
 21
-57.599999999999909
 31
0.0
  0
LINE
  8
DETAIL
  6
CONTINUOUS
 62
     5
 10
-57.600000000000357
 20
-50.399999999999856
 30
0.0
 11
-57.600000000000357
 21
-57.599999999999909
 31
0.0
  0
LINE
  8
DETAIL
  6
CONTINUOUS
 62
     5
 10
-50.400000000000553
 20
-59.399999999999856
 30
0.0
 11
-50.400000000000553
 21
-66.599999999999909
 31
0.0
  0
LINE
  8
DETAIL
  6
CONTINUOUS
 62
     5
 10
-50.400000000000553
 20
-59.399999999999856
 30
0.0
 11
-57.600000000000357
 21
-59.399999999999856
 31
0.0
  0
LINE
  8
DETAIL
  6
CONTINUOUS
 62
     5
 10
-50.400000000000553
 20
-66.599999999999909
 30
0.0
 11
-57.600000000000357
 21
-66.599999999999909
 31
0.0
  0
LINE
  8
DETAIL
  6
CONTINUOUS
 62
     5
 10
-57.600000000000357
 20
-59.399999999999856
 30
0.0
 11
-57.600000000000357
 21
-66.599999999999909
 31
0.0
  0
LINE
  8
DETAIL
  6
CONTINUOUS
 62
     5
 10
-50.400000000000553
 20
-68.399999999999864
 30
0.0
 11
-50.400000000000553
 21
-75.599999999999909
 31
0.0
  0
LINE
  8
DETAIL
  6
CONTINUOUS
 62
     5
 10
-50.400000000000553
 20
-68.399999999999864
 30
0.0
 11
-57.600000000000357
 21
-68.399999999999864
 31
0.0
  0
LINE
  8
DETAIL
  6
CONTINUOUS
 62
     5
 10
-50.400000000000553
 20
-75.599999999999909
 30
0.0
 11
-57.600000000000357
 21
-75.599999999999909
 31
0.0
  0
LINE
  8
DETAIL
  6
CONTINUOUS
 62
     5
 10
-57.600000000000357
 20
-68.399999999999864
 30
0.0
 11
-57.600000000000357
 21
-75.599999999999909
 31
0.0
  0
LINE
  8
DETAIL
  6
CONTINUOUS
 62
     5
 10
-50.400000000000553
 20
-77.399999999999864
 30
0.0
 11
-50.400000000000553
 21
-84.599999999999909
 31
0.0
  0
LINE
  8
DETAIL
  6
CONTINUOUS
 62
     5
 10
-50.400000000000553
 20
-77.399999999999864
 30
0.0
 11
-57.600000000000357
 21
-77.399999999999864
 31
0.0
  0
LINE
  8
DETAIL
  6
CONTINUOUS
 62
     5
 10
-50.400000000000553
 20
-84.599999999999909
 30
0.0
 11
-57.600000000000357
 21
-84.599999999999909
 31
0.0
  0
LINE
  8
DETAIL
  6
CONTINUOUS
 62
     5
 10
-57.600000000000357
 20
-77.399999999999864
 30
0.0
 11
-57.600000000000357
 21
-84.599999999999909
 31
0.0
  0
LINE
  8
DETAIL
  6
CONTINUOUS
 62
     5
 10
-50.400000000000553
 20
-86.399999999999864
 30
0.0
 11
-50.400000000000553
 21
-93.599999999999909
 31
0.0
  0
LINE
  8
DETAIL
  6
CONTINUOUS
 62
     5
 10
-50.400000000000553
 20
-86.399999999999864
 30
0.0
 11
-57.600000000000357
 21
-86.399999999999864
 31
0.0
  0
LINE
  8
DETAIL
  6
CONTINUOUS
 62
     5
 10
-50.400000000000553
 20
-93.599999999999909
 30
0.0
 11
-57.600000000000357
 21
-93.599999999999909
 31
0.0
  0
LINE
  8
DETAIL
  6
CONTINUOUS
 62
     5
 10
-57.600000000000357
 20
-86.399999999999864
 30
0.0
 11
-57.600000000000357
 21
-93.599999999999909
 31
0.0
  0
LINE
  8
DETAIL
  6
CONTINUOUS
 62
     5
 10
-41.400000000000553
 20
-41.399999999999856
 30
0.0
 11
-41.400000000000553
 21
-48.599999999999909
 31
0.0
  0
LINE
  8
DETAIL
  6
CONTINUOUS
 62
     5
 10
-41.400000000000553
 20
-41.399999999999856
 30
0.0
 11
-48.600000000000357
 21
-41.399999999999856
 31
0.0
  0
LINE
  8
DETAIL
  6
CONTINUOUS
 62
     5
 10
-41.400000000000553
 20
-48.599999999999909
 30
0.0
 11
-48.600000000000357
 21
-48.599999999999909
 31
0.0
  0
LINE
  8
DETAIL
  6
CONTINUOUS
 62
     5
 10
-48.600000000000357
 20
-41.399999999999856
 30
0.0
 11
-48.600000000000357
 21
-48.599999999999909
 31
0.0
  0
LINE
  8
DETAIL
  6
CONTINUOUS
 62
     5
 10
-41.400000000000553
 20
-50.399999999999856
 30
0.0
 11
-41.400000000000553
 21
-57.599999999999909
 31
0.0
  0
LINE
  8
DETAIL
  6
CONTINUOUS
 62
     5
 10
-41.400000000000553
 20
-50.399999999999856
 30
0.0
 11
-48.600000000000357
 21
-50.399999999999856
 31
0.0
  0
LINE
  8
DETAIL
  6
CONTINUOUS
 62
     5
 10
-41.400000000000553
 20
-57.599999999999909
 30
0.0
 11
-48.600000000000357
 21
-57.599999999999909
 31
0.0
  0
LINE
  8
DETAIL
  6
CONTINUOUS
 62
     5
 10
-48.600000000000357
 20
-50.399999999999856
 30
0.0
 11
-48.600000000000357
 21
-57.599999999999909
 31
0.0
  0
LINE
  8
DETAIL
  6
CONTINUOUS
 62
     5
 10
-41.400000000000553
 20
-59.399999999999856
 30
0.0
 11
-41.400000000000553
 21
-66.599999999999909
 31
0.0
  0
LINE
  8
DETAIL
  6
CONTINUOUS
 62
     5
 10
-41.400000000000553
 20
-59.399999999999856
 30
0.0
 11
-48.600000000000357
 21
-59.399999999999856
 31
0.0
  0
LINE
  8
DETAIL
  6
CONTINUOUS
 62
     5
 10
-41.400000000000553
 20
-66.599999999999909
 30
0.0
 11
-48.600000000000357
 21
-66.599999999999909
 31
0.0
  0
LINE
  8
DETAIL
  6
CONTINUOUS
 62
     5
 10
-48.600000000000357
 20
-59.399999999999856
 30
0.0
 11
-48.600000000000357
 21
-66.599999999999909
 31
0.0
  0
LINE
  8
DETAIL
  6
CONTINUOUS
 62
     5
 10
-41.400000000000553
 20
-68.399999999999864
 30
0.0
 11
-41.400000000000553
 21
-75.599999999999909
 31
0.0
  0
LINE
  8
DETAIL
  6
CONTINUOUS
 62
     5
 10
-41.400000000000553
 20
-68.399999999999864
 30
0.0
 11
-48.600000000000357
 21
-68.399999999999864
 31
0.0
  0
LINE
  8
DETAIL
  6
CONTINUOUS
 62
     5
 10
-41.400000000000553
 20
-75.599999999999909
 30
0.0
 11
-48.600000000000357
 21
-75.599999999999909
 31
0.0
  0
LINE
  8
DETAIL
  6
CONTINUOUS
 62
     5
 10
-48.600000000000357
 20
-68.399999999999864
 30
0.0
 11
-48.600000000000357
 21
-75.599999999999909
 31
0.0
  0
LINE
  8
DETAIL
  6
CONTINUOUS
 62
     5
 10
-41.400000000000553
 20
-77.399999999999864
 30
0.0
 11
-41.400000000000553
 21
-84.599999999999909
 31
0.0
  0
LINE
  8
DETAIL
  6
CONTINUOUS
 62
     5
 10
-41.400000000000553
 20
-77.399999999999864
 30
0.0
 11
-48.600000000000357
 21
-77.399999999999864
 31
0.0
  0
LINE
  8
DETAIL
  6
CONTINUOUS
 62
     5
 10
-41.400000000000553
 20
-84.599999999999909
 30
0.0
 11
-48.600000000000357
 21
-84.599999999999909
 31
0.0
  0
LINE
  8
DETAIL
  6
CONTINUOUS
 62
     5
 10
-48.600000000000357
 20
-77.399999999999864
 30
0.0
 11
-48.600000000000357
 21
-84.599999999999909
 31
0.0
  0
LINE
  8
DETAIL
  6
CONTINUOUS
 62
     5
 10
-41.400000000000553
 20
-86.399999999999864
 30
0.0
 11
-41.400000000000553
 21
-93.599999999999909
 31
0.0
  0
LINE
  8
DETAIL
  6
CONTINUOUS
 62
     5
 10
-41.400000000000553
 20
-86.399999999999864
 30
0.0
 11
-48.600000000000357
 21
-86.399999999999864
 31
0.0
  0
LINE
  8
DETAIL
  6
CONTINUOUS
 62
     5
 10
-41.400000000000553
 20
-93.599999999999909
 30
0.0
 11
-48.600000000000357
 21
-93.599999999999909
 31
0.0
  0
LINE
  8
DETAIL
  6
CONTINUOUS
 62
     5
 10
-48.600000000000357
 20
-86.399999999999864
 30
0.0
 11
-48.600000000000357
 21
-93.599999999999909
 31
0.0
  0
LINE
  8
DETAIL
  6
CONTINUOUS
 62
     5
 10
-32.400000000000553
 20
-50.399999999999856
 30
0.0
 11
-32.400000000000553
 21
-57.599999999999909
 31
0.0
  0
LINE
  8
DETAIL
  6
CONTINUOUS
 62
     5
 10
-32.400000000000553
 20
-50.399999999999856
 30
0.0
 11
-39.600000000000357
 21
-50.399999999999856
 31
0.0
  0
LINE
  8
DETAIL
  6
CONTINUOUS
 62
     5
 10
-32.400000000000553
 20
-57.599999999999909
 30
0.0
 11
-39.600000000000357
 21
-57.599999999999909
 31
0.0
  0
LINE
  8
DETAIL
  6
CONTINUOUS
 62
     5
 10
-39.600000000000357
 20
-50.399999999999856
 30
0.0
 11
-39.600000000000357
 21
-57.599999999999909
 31
0.0
  0
LINE
  8
DETAIL
  6
CONTINUOUS
 62
     5
 10
-32.400000000000553
 20
-59.399999999999856
 30
0.0
 11
-32.400000000000553
 21
-66.599999999999909
 31
0.0
  0
LINE
  8
DETAIL
  6
CONTINUOUS
 62
     5
 10
-32.400000000000553
 20
-59.399999999999856
 30
0.0
 11
-39.600000000000357
 21
-59.399999999999856
 31
0.0
  0
LINE
  8
DETAIL
  6
CONTINUOUS
 62
     5
 10
-32.400000000000553
 20
-66.599999999999909
 30
0.0
 11
-39.600000000000357
 21
-66.599999999999909
 31
0.0
  0
LINE
  8
DETAIL
  6
CONTINUOUS
 62
     5
 10
-39.600000000000357
 20
-59.399999999999856
 30
0.0
 11
-39.600000000000357
 21
-66.599999999999909
 31
0.0
  0
LINE
  8
DETAIL
  6
CONTINUOUS
 62
     5
 10
-32.400000000000553
 20
-68.399999999999864
 30
0.0
 11
-32.400000000000553
 21
-75.599999999999909
 31
0.0
  0
LINE
  8
DETAIL
  6
CONTINUOUS
 62
     5
 10
-32.400000000000553
 20
-68.399999999999864
 30
0.0
 11
-39.600000000000357
 21
-68.399999999999864
 31
0.0
  0
LINE
  8
DETAIL
  6
CONTINUOUS
 62
     5
 10
-32.400000000000553
 20
-75.599999999999909
 30
0.0
 11
-39.600000000000357
 21
-75.599999999999909
 31
0.0
  0
LINE
  8
DETAIL
  6
CONTINUOUS
 62
     5
 10
-39.600000000000357
 20
-68.399999999999864
 30
0.0
 11
-39.600000000000357
 21
-75.599999999999909
 31
0.0
  0
LINE
  8
DETAIL
  6
CONTINUOUS
 62
     5
 10
-32.400000000000553
 20
-77.399999999999864
 30
0.0
 11
-32.400000000000553
 21
-84.599999999999909
 31
0.0
  0
LINE
  8
DETAIL
  6
CONTINUOUS
 62
     5
 10
-32.400000000000553
 20
-77.399999999999864
 30
0.0
 11
-39.600000000000357
 21
-77.399999999999864
 31
0.0
  0
LINE
  8
DETAIL
  6
CONTINUOUS
 62
     5
 10
-32.400000000000553
 20
-84.599999999999909
 30
0.0
 11
-39.600000000000357
 21
-84.599999999999909
 31
0.0
  0
LINE
  8
DETAIL
  6
CONTINUOUS
 62
     5
 10
-39.600000000000357
 20
-77.399999999999864
 30
0.0
 11
-39.600000000000357
 21
-84.599999999999909
 31
0.0
  0
LINE
  8
DETAIL
  6
CONTINUOUS
 62
     5
 10
-32.400000000000553
 20
-86.399999999999864
 30
0.0
 11
-32.400000000000553
 21
-93.599999999999909
 31
0.0
  0
LINE
  8
DETAIL
  6
CONTINUOUS
 62
     5
 10
-32.400000000000553
 20
-86.399999999999864
 30
0.0
 11
-39.600000000000357
 21
-86.399999999999864
 31
0.0
  0
LINE
  8
DETAIL
  6
CONTINUOUS
 62
     5
 10
-32.400000000000553
 20
-93.599999999999909
 30
0.0
 11
-39.600000000000357
 21
-93.599999999999909
 31
0.0
  0
LINE
  8
DETAIL
  6
CONTINUOUS
 62
     5
 10
-39.600000000000357
 20
-86.399999999999864
 30
0.0
 11
-39.600000000000357
 21
-93.599999999999909
 31
0.0
  0
LINE
  8
DETAIL
  6
CONTINUOUS
 62
     5
 10
-23.400000000000549
 20
-59.399999999999856
 30
0.0
 11
-23.400000000000549
 21
-66.599999999999909
 31
0.0
  0
LINE
  8
DETAIL
  6
CONTINUOUS
 62
     5
 10
-23.400000000000549
 20
-59.399999999999856
 30
0.0
 11
-30.60000000000036
 21
-59.399999999999856
 31
0.0
  0
LINE
  8
DETAIL
  6
CONTINUOUS
 62
     5
 10
-23.400000000000549
 20
-66.599999999999909
 30
0.0
 11
-30.60000000000036
 21
-66.599999999999909
 31
0.0
  0
LINE
  8
DETAIL
  6
CONTINUOUS
 62
     5
 10
-30.60000000000036
 20
-59.399999999999856
 30
0.0
 11
-30.60000000000036
 21
-66.599999999999909
 31
0.0
  0
LINE
  8
DETAIL
  6
CONTINUOUS
 62
     5
 10
-23.400000000000549
 20
-68.399999999999864
 30
0.0
 11
-23.400000000000549
 21
-75.599999999999909
 31
0.0
  0
LINE
  8
DETAIL
  6
CONTINUOUS
 62
     5
 10
-23.400000000000549
 20
-68.399999999999864
 30
0.0
 11
-30.60000000000036
 21
-68.399999999999864
 31
0.0
  0
LINE
  8
DETAIL
  6
CONTINUOUS
 62
     5
 10
-23.400000000000549
 20
-75.599999999999909
 30
0.0
 11
-30.60000000000036
 21
-75.599999999999909
 31
0.0
  0
LINE
  8
DETAIL
  6
CONTINUOUS
 62
     5
 10
-30.60000000000036
 20
-68.399999999999864
 30
0.0
 11
-30.60000000000036
 21
-75.599999999999909
 31
0.0
  0
LINE
  8
DETAIL
  6
CONTINUOUS
 62
     5
 10
-23.400000000000549
 20
-77.399999999999864
 30
0.0
 11
-23.400000000000549
 21
-84.599999999999909
 31
0.0
  0
LINE
  8
DETAIL
  6
CONTINUOUS
 62
     5
 10
-23.400000000000549
 20
-77.399999999999864
 30
0.0
 11
-30.60000000000036
 21
-77.399999999999864
 31
0.0
  0
LINE
  8
DETAIL
  6
CONTINUOUS
 62
     5
 10
-23.400000000000549
 20
-84.599999999999909
 30
0.0
 11
-30.60000000000036
 21
-84.599999999999909
 31
0.0
  0
LINE
  8
DETAIL
  6
CONTINUOUS
 62
     5
 10
-30.60000000000036
 20
-77.399999999999864
 30
0.0
 11
-30.60000000000036
 21
-84.599999999999909
 31
0.0
  0
LINE
  8
DETAIL
  6
CONTINUOUS
 62
     5
 10
-23.400000000000549
 20
-86.399999999999864
 30
0.0
 11
-23.400000000000549
 21
-93.599999999999909
 31
0.0
  0
LINE
  8
DETAIL
  6
CONTINUOUS
 62
     5
 10
-23.400000000000549
 20
-86.399999999999864
 30
0.0
 11
-30.60000000000036
 21
-86.399999999999864
 31
0.0
  0
LINE
  8
DETAIL
  6
CONTINUOUS
 62
     5
 10
-23.400000000000549
 20
-93.599999999999909
 30
0.0
 11
-30.60000000000036
 21
-93.599999999999909
 31
0.0
  0
LINE
  8
DETAIL
  6
CONTINUOUS
 62
     5
 10
-30.60000000000036
 20
-86.399999999999864
 30
0.0
 11
-30.60000000000036
 21
-93.599999999999909
 31
0.0
  0
LINE
  8
DETAIL
  6
CONTINUOUS
 62
     5
 10
-14.400000000000549
 20
-68.399999999999864
 30
0.0
 11
-14.400000000000549
 21
-75.599999999999909
 31
0.0
  0
LINE
  8
DETAIL
  6
CONTINUOUS
 62
     5
 10
-14.400000000000549
 20
-68.399999999999864
 30
0.0
 11
-21.60000000000036
 21
-68.399999999999864
 31
0.0
  0
LINE
  8
DETAIL
  6
CONTINUOUS
 62
     5
 10
-14.400000000000549
 20
-75.599999999999909
 30
0.0
 11
-21.60000000000036
 21
-75.599999999999909
 31
0.0
  0
LINE
  8
DETAIL
  6
CONTINUOUS
 62
     5
 10
-21.60000000000036
 20
-68.399999999999864
 30
0.0
 11
-21.60000000000036
 21
-75.599999999999909
 31
0.0
  0
LINE
  8
DETAIL
  6
CONTINUOUS
 62
     5
 10
-14.400000000000549
 20
-77.399999999999864
 30
0.0
 11
-14.400000000000549
 21
-84.599999999999909
 31
0.0
  0
LINE
  8
DETAIL
  6
CONTINUOUS
 62
     5
 10
-14.400000000000549
 20
-77.399999999999864
 30
0.0
 11
-21.60000000000036
 21
-77.399999999999864
 31
0.0
  0
LINE
  8
DETAIL
  6
CONTINUOUS
 62
     5
 10
-14.400000000000549
 20
-84.599999999999909
 30
0.0
 11
-21.60000000000036
 21
-84.599999999999909
 31
0.0
  0
LINE
  8
DETAIL
  6
CONTINUOUS
 62
     5
 10
-21.60000000000036
 20
-77.399999999999864
 30
0.0
 11
-21.60000000000036
 21
-84.599999999999909
 31
0.0
  0
LINE
  8
DETAIL
  6
CONTINUOUS
 62
     5
 10
-14.400000000000549
 20
-86.399999999999864
 30
0.0
 11
-14.400000000000549
 21
-93.599999999999909
 31
0.0
  0
LINE
  8
DETAIL
  6
CONTINUOUS
 62
     5
 10
-14.400000000000549
 20
-86.399999999999864
 30
0.0
 11
-21.60000000000036
 21
-86.399999999999864
 31
0.0
  0
LINE
  8
DETAIL
  6
CONTINUOUS
 62
     5
 10
-14.400000000000549
 20
-93.599999999999909
 30
0.0
 11
-21.60000000000036
 21
-93.599999999999909
 31
0.0
  0
LINE
  8
DETAIL
  6
CONTINUOUS
 62
     5
 10
-21.60000000000036
 20
-86.399999999999864
 30
0.0
 11
-21.60000000000036
 21
-93.599999999999909
 31
0.0
  0
LINE
  8
DETAIL
  6
CONTINUOUS
 62
     5
 10
-5.4000000000005457
 20
-77.399999999999864
 30
0.0
 11
-5.4000000000005457
 21
-84.599999999999909
 31
0.0
  0
LINE
  8
DETAIL
  6
CONTINUOUS
 62
     5
 10
-5.4000000000005457
 20
-77.399999999999864
 30
0.0
 11
-12.60000000000036
 21
-77.399999999999864
 31
0.0
  0
LINE
  8
DETAIL
  6
CONTINUOUS
 62
     5
 10
-5.4000000000005457
 20
-84.599999999999909
 30
0.0
 11
-12.60000000000036
 21
-84.599999999999909
 31
0.0
  0
LINE
  8
DETAIL
  6
CONTINUOUS
 62
     5
 10
-12.60000000000036
 20
-77.399999999999864
 30
0.0
 11
-12.60000000000036
 21
-84.599999999999909
 31
0.0
  0
LINE
  8
DETAIL
  6
CONTINUOUS
 62
     5
 10
-5.4000000000005457
 20
-86.399999999999864
 30
0.0
 11
-5.4000000000005457
 21
-93.599999999999909
 31
0.0
  0
LINE
  8
DETAIL
  6
CONTINUOUS
 62
     5
 10
-5.4000000000005457
 20
-86.399999999999864
 30
0.0
 11
-12.60000000000036
 21
-86.399999999999864
 31
0.0
  0
LINE
  8
DETAIL
  6
CONTINUOUS
 62
     5
 10
-5.4000000000005457
 20
-93.599999999999909
 30
0.0
 11
-12.60000000000036
 21
-93.599999999999909
 31
0.0
  0
LINE
  8
DETAIL
  6
CONTINUOUS
 62
     5
 10
-12.60000000000036
 20
-86.399999999999864
 30
0.0
 11
-12.60000000000036
 21
-93.599999999999909
 31
0.0
  0
LINE
  8
DETAIL
  6
CONTINUOUS
 62
     5
 10
-3.6000000000003638
 20
-86.399999999999864
 30
0.0
 11
-3.6000000000003638
 21
-93.599999999999909
 31
0.0
  0
LINE
  8
DETAIL
  6
CONTINUOUS
 62
     5
 10
-57.600000000000357
 20
-32.399999999999856
 30
0.0
 11
-50.400000000000553
 21
-32.399999999999856
 31
0.0
  0
LINE
  8
DETAIL
  6
CONTINUOUS
 62
     5
 10
-50.400000000000553
 20
-32.399999999999856
 30
0.0
 11
-50.400000000000553
 21
-39.599999999999909
 31
0.0
  0
LINE
  8
DETAIL
  6
CONTINUOUS
 62
     5
 10
-59.400000000000553
 20
-32.399999999999856
 30
0.0
 11
-59.400000000000553
 21
-39.599999999999909
 31
0.0
  0
LINE
  8
DETAIL
  6
CONTINUOUS
 62
     5
 10
-75.600000000000364
 20
-14.39999999999986
 30
0.0
 11
-68.400000000000546
 21
-14.39999999999986
 31
0.0
  0
LINE
  8
DETAIL
  6
CONTINUOUS
 62
     5
 10
-68.400000000000546
 20
-14.39999999999986
 30
0.0
 11
-68.400000000000546
 21
-21.599999999999909
 31
0.0
  0
LINE
  8
DETAIL
  6
CONTINUOUS
 62
     5
 10
-86.400000000000546
 20
-3.5999999999999091
 30
0.0
 11
-93.600000000000364
 21
-3.5999999999999091
 31
0.0
  0
LINE
  8
DETAIL
  6
CONTINUOUS
 62
     5
 10
-86.400000000000546
 20
-5.3999999999998636
 30
0.0
 11
-86.400000000000546
 21
-12.599999999999911
 31
0.0
  0
LINE
  8
DETAIL
  6
CONTINUOUS
 62
     5
 10
-86.400000000000546
 20
-5.3999999999998636
 30
0.0
 11
-93.600000000000364
 21
-5.3999999999998636
 31
0.0
  0
LINE
  8
DETAIL
  6
CONTINUOUS
 62
     5
 10
-86.400000000000546
 20
-12.599999999999911
 30
0.0
 11
-93.600000000000364
 21
-12.599999999999911
 31
0.0
  0
LINE
  8
DETAIL
  6
CONTINUOUS
 62
     5
 10
-93.600000000000364
 20
-5.3999999999998636
 30
0.0
 11
-93.600000000000364
 21
-12.599999999999911
 31
0.0
  0
LINE
  8
DETAIL
  6
CONTINUOUS
 62
     5
 10
-86.400000000000546
 20
-14.39999999999986
 30
0.0
 11
-86.400000000000546
 21
-21.599999999999909
 31
0.0
  0
LINE
  8
DETAIL
  6
CONTINUOUS
 62
     5
 10
-86.400000000000546
 20
-14.39999999999986
 30
0.0
 11
-93.600000000000364
 21
-14.39999999999986
 31
0.0
  0
LINE
  8
DETAIL
  6
CONTINUOUS
 62
     5
 10
-86.400000000000546
 20
-21.599999999999909
 30
0.0
 11
-93.600000000000364
 21
-21.599999999999909
 31
0.0
  0
LINE
  8
DETAIL
  6
CONTINUOUS
 62
     5
 10
-93.600000000000364
 20
-14.39999999999986
 30
0.0
 11
-93.600000000000364
 21
-21.599999999999909
 31
0.0
  0
LINE
  8
DETAIL
  6
CONTINUOUS
 62
     5
 10
-86.400000000000546
 20
-23.39999999999986
 30
0.0
 11
-86.400000000000546
 21
-30.599999999999909
 31
0.0
  0
LINE
  8
DETAIL
  6
CONTINUOUS
 62
     5
 10
-86.400000000000546
 20
-23.39999999999986
 30
0.0
 11
-93.600000000000364
 21
-23.39999999999986
 31
0.0
  0
LINE
  8
DETAIL
  6
CONTINUOUS
 62
     5
 10
-86.400000000000546
 20
-30.599999999999909
 30
0.0
 11
-93.600000000000364
 21
-30.599999999999909
 31
0.0
  0
LINE
  8
DETAIL
  6
CONTINUOUS
 62
     5
 10
-93.600000000000364
 20
-23.39999999999986
 30
0.0
 11
-93.600000000000364
 21
-30.599999999999909
 31
0.0
  0
LINE
  8
DETAIL
  6
CONTINUOUS
 62
     5
 10
-86.400000000000546
 20
-32.399999999999856
 30
0.0
 11
-86.400000000000546
 21
-39.599999999999909
 31
0.0
  0
LINE
  8
DETAIL
  6
CONTINUOUS
 62
     5
 10
-86.400000000000546
 20
-32.399999999999856
 30
0.0
 11
-93.600000000000364
 21
-32.399999999999856
 31
0.0
  0
LINE
  8
DETAIL
  6
CONTINUOUS
 62
     5
 10
-93.600000000000364
 20
-32.399999999999856
 30
0.0
 11
-93.600000000000364
 21
-39.599999999999909
 31
0.0
  0
LINE
  8
DETAIL
  6
CONTINUOUS
 62
     5
 10
-77.400000000000546
 20
-5.3999999999998636
 30
0.0
 11
-77.400000000000546
 21
-12.599999999999911
 31
0.0
  0
LINE
  8
DETAIL
  6
CONTINUOUS
 62
     5
 10
-77.400000000000546
 20
-5.3999999999998636
 30
0.0
 11
-84.600000000000364
 21
-5.3999999999998636
 31
0.0
  0
LINE
  8
DETAIL
  6
CONTINUOUS
 62
     5
 10
-77.400000000000546
 20
-12.599999999999911
 30
0.0
 11
-84.600000000000364
 21
-12.599999999999911
 31
0.0
  0
LINE
  8
DETAIL
  6
CONTINUOUS
 62
     5
 10
-84.600000000000364
 20
-5.3999999999998636
 30
0.0
 11
-84.600000000000364
 21
-12.599999999999911
 31
0.0
  0
LINE
  8
DETAIL
  6
CONTINUOUS
 62
     5
 10
-77.400000000000546
 20
-14.39999999999986
 30
0.0
 11
-77.400000000000546
 21
-21.599999999999909
 31
0.0
  0
LINE
  8
DETAIL
  6
CONTINUOUS
 62
     5
 10
-77.400000000000546
 20
-14.39999999999986
 30
0.0
 11
-84.600000000000364
 21
-14.39999999999986
 31
0.0
  0
LINE
  8
DETAIL
  6
CONTINUOUS
 62
     5
 10
-77.400000000000546
 20
-21.599999999999909
 30
0.0
 11
-84.600000000000364
 21
-21.599999999999909
 31
0.0
  0
LINE
  8
DETAIL
  6
CONTINUOUS
 62
     5
 10
-84.600000000000364
 20
-14.39999999999986
 30
0.0
 11
-84.600000000000364
 21
-21.599999999999909
 31
0.0
  0
LINE
  8
DETAIL
  6
CONTINUOUS
 62
     5
 10
-77.400000000000546
 20
-23.39999999999986
 30
0.0
 11
-77.400000000000546
 21
-30.599999999999909
 31
0.0
  0
LINE
  8
DETAIL
  6
CONTINUOUS
 62
     5
 10
-77.400000000000546
 20
-23.39999999999986
 30
0.0
 11
-84.600000000000364
 21
-23.39999999999986
 31
0.0
  0
LINE
  8
DETAIL
  6
CONTINUOUS
 62
     5
 10
-77.400000000000546
 20
-30.599999999999909
 30
0.0
 11
-84.600000000000364
 21
-30.599999999999909
 31
0.0
  0
LINE
  8
DETAIL
  6
CONTINUOUS
 62
     5
 10
-84.600000000000364
 20
-23.39999999999986
 30
0.0
 11
-84.600000000000364
 21
-30.599999999999909
 31
0.0
  0
LINE
  8
DETAIL
  6
CONTINUOUS
 62
     5
 10
-77.400000000000546
 20
-32.399999999999856
 30
0.0
 11
-77.400000000000546
 21
-39.599999999999909
 31
0.0
  0
LINE
  8
DETAIL
  6
CONTINUOUS
 62
     5
 10
-77.400000000000546
 20
-32.399999999999856
 30
0.0
 11
-84.600000000000364
 21
-32.399999999999856
 31
0.0
  0
LINE
  8
DETAIL
  6
CONTINUOUS
 62
     5
 10
-84.600000000000364
 20
-32.399999999999856
 30
0.0
 11
-84.600000000000364
 21
-39.599999999999909
 31
0.0
  0
LINE
  8
DETAIL
  6
CONTINUOUS
 62
     5
 10
-68.400000000000546
 20
-14.39999999999986
 30
0.0
 11
-68.400000000000546
 21
-21.599999999999909
 31
0.0
  0
LINE
  8
DETAIL
  6
CONTINUOUS
 62
     5
 10
-68.400000000000546
 20
-14.39999999999986
 30
0.0
 11
-75.600000000000364
 21
-14.39999999999986
 31
0.0
  0
LINE
  8
DETAIL
  6
CONTINUOUS
 62
     5
 10
-68.400000000000546
 20
-21.599999999999909
 30
0.0
 11
-75.600000000000364
 21
-21.599999999999909
 31
0.0
  0
LINE
  8
DETAIL
  6
CONTINUOUS
 62
     5
 10
-75.600000000000364
 20
-14.39999999999986
 30
0.0
 11
-75.600000000000364
 21
-21.599999999999909
 31
0.0
  0
LINE
  8
DETAIL
  6
CONTINUOUS
 62
     5
 10
-68.400000000000546
 20
-23.39999999999986
 30
0.0
 11
-68.400000000000546
 21
-30.599999999999909
 31
0.0
  0
LINE
  8
DETAIL
  6
CONTINUOUS
 62
     5
 10
-68.400000000000546
 20
-23.39999999999986
 30
0.0
 11
-75.600000000000364
 21
-23.39999999999986
 31
0.0
  0
LINE
  8
DETAIL
  6
CONTINUOUS
 62
     5
 10
-68.400000000000546
 20
-30.599999999999909
 30
0.0
 11
-75.600000000000364
 21
-30.599999999999909
 31
0.0
  0
LINE
  8
DETAIL
  6
CONTINUOUS
 62
     5
 10
-75.600000000000364
 20
-23.39999999999986
 30
0.0
 11
-75.600000000000364
 21
-30.599999999999909
 31
0.0
  0
LINE
  8
DETAIL
  6
CONTINUOUS
 62
     5
 10
-68.400000000000546
 20
-32.399999999999856
 30
0.0
 11
-68.400000000000546
 21
-39.599999999999909
 31
0.0
  0
LINE
  8
DETAIL
  6
CONTINUOUS
 62
     5
 10
-68.400000000000546
 20
-32.399999999999856
 30
0.0
 11
-75.600000000000364
 21
-32.399999999999856
 31
0.0
  0
LINE
  8
DETAIL
  6
CONTINUOUS
 62
     5
 10
-75.600000000000364
 20
-32.399999999999856
 30
0.0
 11
-75.600000000000364
 21
-39.599999999999909
 31
0.0
  0
LINE
  8
DETAIL
  6
CONTINUOUS
 62
     5
 10
-59.400000000000553
 20
-23.39999999999986
 30
0.0
 11
-59.400000000000553
 21
-30.599999999999909
 31
0.0
  0
LINE
  8
DETAIL
  6
CONTINUOUS
 62
     5
 10
-59.400000000000553
 20
-23.39999999999986
 30
0.0
 11
-66.600000000000364
 21
-23.39999999999986
 31
0.0
  0
LINE
  8
DETAIL
  6
CONTINUOUS
 62
     5
 10
-59.400000000000553
 20
-30.599999999999909
 30
0.0
 11
-66.600000000000364
 21
-30.599999999999909
 31
0.0
  0
LINE
  8
DETAIL
  6
CONTINUOUS
 62
     5
 10
-66.600000000000364
 20
-23.39999999999986
 30
0.0
 11
-66.600000000000364
 21
-30.599999999999909
 31
0.0
  0
LINE
  8
DETAIL
  6
CONTINUOUS
 62
     5
 10
-59.400000000000553
 20
-32.399999999999856
 30
0.0
 11
-59.400000000000553
 21
-39.599999999999909
 31
0.0
  0
LINE
  8
DETAIL
  6
CONTINUOUS
 62
     5
 10
-59.400000000000553
 20
-32.399999999999856
 30
0.0
 11
-66.600000000000364
 21
-32.399999999999856
 31
0.0
  0
LINE
  8
DETAIL
  6
CONTINUOUS
 62
     5
 10
-66.600000000000364
 20
-32.399999999999856
 30
0.0
 11
-66.600000000000364
 21
-39.599999999999909
 31
0.0
  0
LINE
  8
DETAIL
  6
CONTINUOUS
 62
     5
 10
-57.600000000000357
 20
-23.39999999999986
 30
0.0
 11
-57.600000000000357
 21
-30.599999999999909
 31
0.0
  0
LINE
  8
DETAIL
  6
CONTINUOUS
 62
     5
 10
-50.400000000000553
 20
-32.399999999999856
 30
0.0
 11
-50.400000000000553
 21
-39.599999999999909
 31
0.0
  0
LINE
  8
DETAIL
  6
CONTINUOUS
 62
     5
 10
-50.400000000000553
 20
-32.399999999999856
 30
0.0
 11
-57.600000000000357
 21
-32.399999999999856
 31
0.0
  0
LINE
  8
DETAIL
  6
CONTINUOUS
 62
     5
 10
-57.600000000000357
 20
-32.399999999999856
 30
0.0
 11
-57.600000000000357
 21
-39.599999999999909
 31
0.0
  0
LINE
  8
DETAIL
  6
CONTINUOUS
 62
     5
 10
-5.4000000000005457
 20
3.600000000000136
 30
0.0
 11
-12.60000000000036
 21
3.600000000000136
 31
0.0
  0
LINE
  8
DETAIL
  6
CONTINUOUS
 62
     5
 10
-14.400000000000549
 20
3.600000000000136
 30
0.0
 11
-21.60000000000036
 21
3.600000000000136
 31
0.0
  0
LINE
  8
DETAIL
  6
CONTINUOUS
 62
     5
 10
-23.400000000000549
 20
3.600000000000136
 30
0.0
 11
-30.60000000000036
 21
3.600000000000136
 31
0.0
  0
LINE
  8
DETAIL
  6
CONTINUOUS
 62
     5
 10
-32.400000000000553
 20
3.600000000000136
 30
0.0
 11
-39.600000000000357
 21
3.600000000000136
 31
0.0
  0
LINE
  8
DETAIL
  6
CONTINUOUS
 62
     5
 10
-41.400000000000553
 20
3.600000000000136
 30
0.0
 11
-48.600000000000357
 21
3.600000000000136
 31
0.0
  0
LINE
  8
DETAIL
  6
CONTINUOUS
 62
     5
 10
-50.400000000000553
 20
3.600000000000136
 30
0.0
 11
-57.600000000000357
 21
3.600000000000136
 31
0.0
  0
LINE
  8
DETAIL
  6
CONTINUOUS
 62
     5
 10
-59.400000000000553
 20
3.600000000000136
 30
0.0
 11
-66.600000000000364
 21
3.600000000000136
 31
0.0
  0
LINE
  8
DETAIL
  6
CONTINUOUS
 62
     5
 10
-68.400000000000546
 20
3.600000000000136
 30
0.0
 11
-75.600000000000364
 21
3.600000000000136
 31
0.0
  0
LINE
  8
DETAIL
  6
CONTINUOUS
 62
     5
 10
-77.400000000000546
 20
3.600000000000136
 30
0.0
 11
-84.600000000000364
 21
3.600000000000136
 31
0.0
  0
LINE
  8
DETAIL
  6
CONTINUOUS
 62
     5
 10
-75.600000000000364
 20
5.4000000000000909
 30
0.0
 11
-75.600000000000364
 21
12.60000000000014
 31
0.0
  0
LINE
  8
DETAIL
  6
CONTINUOUS
 62
     5
 10
-75.600000000000364
 20
5.4000000000000909
 30
0.0
 11
-68.400000000000546
 21
5.4000000000000909
 31
0.0
  0
LINE
  8
DETAIL
  6
CONTINUOUS
 62
     5
 10
-68.400000000000546
 20
5.4000000000000909
 30
0.0
 11
-68.400000000000546
 21
12.60000000000014
 31
0.0
  0
LINE
  8
DETAIL
  6
CONTINUOUS
 62
     5
 10
-68.400000000000546
 20
5.4000000000000909
 30
0.0
 11
-68.400000000000546
 21
12.60000000000014
 31
0.0
  0
LINE
  8
DETAIL
  6
CONTINUOUS
 62
     5
 10
-68.400000000000546
 20
5.4000000000000909
 30
0.0
 11
-75.600000000000364
 21
5.4000000000000909
 31
0.0
  0
LINE
  8
DETAIL
  6
CONTINUOUS
 62
     5
 10
-68.400000000000546
 20
12.60000000000014
 30
0.0
 11
-75.600000000000364
 21
12.60000000000014
 31
0.0
  0
LINE
  8
DETAIL
  6
CONTINUOUS
 62
     5
 10
-59.400000000000553
 20
5.4000000000000909
 30
0.0
 11
-59.400000000000553
 21
12.60000000000014
 31
0.0
  0
LINE
  8
DETAIL
  6
CONTINUOUS
 62
     5
 10
-59.400000000000553
 20
5.4000000000000909
 30
0.0
 11
-66.600000000000364
 21
5.4000000000000909
 31
0.0
  0
LINE
  8
DETAIL
  6
CONTINUOUS
 62
     5
 10
-59.400000000000553
 20
12.60000000000014
 30
0.0
 11
-66.600000000000364
 21
12.60000000000014
 31
0.0
  0
LINE
  8
DETAIL
  6
CONTINUOUS
 62
     5
 10
-66.600000000000364
 20
5.4000000000000909
 30
0.0
 11
-66.600000000000364
 21
12.60000000000014
 31
0.0
  0
LINE
  8
DETAIL
  6
CONTINUOUS
 62
     5
 10
-59.400000000000553
 20
14.400000000000089
 30
0.0
 11
-59.400000000000553
 21
21.60000000000014
 31
0.0
  0
LINE
  8
DETAIL
  6
CONTINUOUS
 62
     5
 10
-59.400000000000553
 20
14.400000000000089
 30
0.0
 11
-66.600000000000364
 21
14.400000000000089
 31
0.0
  0
LINE
  8
DETAIL
  6
CONTINUOUS
 62
     5
 10
-59.400000000000553
 20
21.60000000000014
 30
0.0
 11
-66.600000000000364
 21
21.60000000000014
 31
0.0
  0
LINE
  8
DETAIL
  6
CONTINUOUS
 62
     5
 10
-66.600000000000364
 20
14.400000000000089
 30
0.0
 11
-66.600000000000364
 21
21.60000000000014
 31
0.0
  0
LINE
  8
DETAIL
  6
CONTINUOUS
 62
     5
 10
-50.400000000000553
 20
12.60000000000014
 30
0.0
 11
-57.600000000000357
 21
12.60000000000014
 31
0.0
  0
LINE
  8
DETAIL
  6
CONTINUOUS
 62
     5
 10
-57.600000000000357
 20
5.4000000000000909
 30
0.0
 11
-50.400000000000553
 21
5.4000000000000909
 31
0.0
  0
LINE
  8
DETAIL
  6
CONTINUOUS
 62
     5
 10
-50.400000000000553
 20
5.4000000000000909
 30
0.0
 11
-50.400000000000553
 21
12.60000000000014
 31
0.0
  0
LINE
  8
DETAIL
  6
CONTINUOUS
 62
     5
 10
-50.400000000000553
 20
5.4000000000000909
 30
0.0
 11
-50.400000000000553
 21
12.60000000000014
 31
0.0
  0
LINE
  8
DETAIL
  6
CONTINUOUS
 62
     5
 10
-50.400000000000553
 20
5.4000000000000909
 30
0.0
 11
-57.600000000000357
 21
5.4000000000000909
 31
0.0
  0
LINE
  8
DETAIL
  6
CONTINUOUS
 62
     5
 10
-57.600000000000357
 20
5.4000000000000909
 30
0.0
 11
-57.600000000000357
 21
12.60000000000014
 31
0.0
  0
LINE
  8
DETAIL
  6
CONTINUOUS
 62
     5
 10
-50.400000000000553
 20
21.60000000000014
 30
0.0
 11
-57.600000000000357
 21
21.60000000000014
 31
0.0
  0
LINE
  8
DETAIL
  6
CONTINUOUS
 62
     5
 10
-57.600000000000357
 20
14.400000000000089
 30
0.0
 11
-50.400000000000553
 21
14.400000000000089
 31
0.0
  0
LINE
  8
DETAIL
  6
CONTINUOUS
 62
     5
 10
-50.400000000000553
 20
14.400000000000089
 30
0.0
 11
-50.400000000000553
 21
21.60000000000014
 31
0.0
  0
LINE
  8
DETAIL
  6
CONTINUOUS
 62
     5
 10
-50.400000000000553
 20
14.400000000000089
 30
0.0
 11
-50.400000000000553
 21
21.60000000000014
 31
0.0
  0
LINE
  8
DETAIL
  6
CONTINUOUS
 62
     5
 10
-50.400000000000553
 20
14.400000000000089
 30
0.0
 11
-57.600000000000357
 21
14.400000000000089
 31
0.0
  0
LINE
  8
DETAIL
  6
CONTINUOUS
 62
     5
 10
-57.600000000000357
 20
14.400000000000089
 30
0.0
 11
-57.600000000000357
 21
21.60000000000014
 31
0.0
  0
LINE
  8
DETAIL
  6
CONTINUOUS
 62
     5
 10
-50.400000000000553
 20
30.60000000000014
 30
0.0
 11
-57.600000000000357
 21
30.60000000000014
 31
0.0
  0
LINE
  8
DETAIL
  6
CONTINUOUS
 62
     5
 10
-57.600000000000357
 20
23.400000000000091
 30
0.0
 11
-50.400000000000553
 21
23.400000000000091
 31
0.0
  0
LINE
  8
DETAIL
  6
CONTINUOUS
 62
     5
 10
-50.400000000000553
 20
23.400000000000091
 30
0.0
 11
-50.400000000000553
 21
30.60000000000014
 31
0.0
  0
LINE
  8
DETAIL
  6
CONTINUOUS
 62
     5
 10
-50.400000000000553
 20
23.400000000000091
 30
0.0
 11
-50.400000000000553
 21
30.60000000000014
 31
0.0
  0
LINE
  8
DETAIL
  6
CONTINUOUS
 62
     5
 10
-50.400000000000553
 20
23.400000000000091
 30
0.0
 11
-57.600000000000357
 21
23.400000000000091
 31
0.0
  0
LINE
  8
DETAIL
  6
CONTINUOUS
 62
     5
 10
-57.600000000000357
 20
23.400000000000091
 30
0.0
 11
-57.600000000000357
 21
30.60000000000014
 31
0.0
  0
LINE
  8
DETAIL
  6
CONTINUOUS
 62
     5
 10
-41.400000000000553
 20
5.4000000000000909
 30
0.0
 11
-41.400000000000553
 21
12.60000000000014
 31
0.0
  0
LINE
  8
DETAIL
  6
CONTINUOUS
 62
     5
 10
-41.400000000000553
 20
5.4000000000000909
 30
0.0
 11
-48.600000000000357
 21
5.4000000000000909
 31
0.0
  0
LINE
  8
DETAIL
  6
CONTINUOUS
 62
     5
 10
-41.400000000000553
 20
12.60000000000014
 30
0.0
 11
-48.600000000000357
 21
12.60000000000014
 31
0.0
  0
LINE
  8
DETAIL
  6
CONTINUOUS
 62
     5
 10
-48.600000000000357
 20
5.4000000000000909
 30
0.0
 11
-48.600000000000357
 21
12.60000000000014
 31
0.0
  0
LINE
  8
DETAIL
  6
CONTINUOUS
 62
     5
 10
-41.400000000000553
 20
14.400000000000089
 30
0.0
 11
-41.400000000000553
 21
21.60000000000014
 31
0.0
  0
LINE
  8
DETAIL
  6
CONTINUOUS
 62
     5
 10
-41.400000000000553
 20
14.400000000000089
 30
0.0
 11
-48.600000000000357
 21
14.400000000000089
 31
0.0
  0
LINE
  8
DETAIL
  6
CONTINUOUS
 62
     5
 10
-41.400000000000553
 20
21.60000000000014
 30
0.0
 11
-48.600000000000357
 21
21.60000000000014
 31
0.0
  0
LINE
  8
DETAIL
  6
CONTINUOUS
 62
     5
 10
-48.600000000000357
 20
14.400000000000089
 30
0.0
 11
-48.600000000000357
 21
21.60000000000014
 31
0.0
  0
LINE
  8
DETAIL
  6
CONTINUOUS
 62
     5
 10
-41.400000000000553
 20
23.400000000000091
 30
0.0
 11
-41.400000000000553
 21
30.60000000000014
 31
0.0
  0
LINE
  8
DETAIL
  6
CONTINUOUS
 62
     5
 10
-41.400000000000553
 20
23.400000000000091
 30
0.0
 11
-48.600000000000357
 21
23.400000000000091
 31
0.0
  0
LINE
  8
DETAIL
  6
CONTINUOUS
 62
     5
 10
-41.400000000000553
 20
30.60000000000014
 30
0.0
 11
-48.600000000000357
 21
30.60000000000014
 31
0.0
  0
LINE
  8
DETAIL
  6
CONTINUOUS
 62
     5
 10
-48.600000000000357
 20
23.400000000000091
 30
0.0
 11
-48.600000000000357
 21
30.60000000000014
 31
0.0
  0
LINE
  8
DETAIL
  6
CONTINUOUS
 62
     5
 10
-41.400000000000553
 20
32.400000000000091
 30
0.0
 11
-41.400000000000553
 21
39.600000000000144
 31
0.0
  0
LINE
  8
DETAIL
  6
CONTINUOUS
 62
     5
 10
-41.400000000000553
 20
32.400000000000091
 30
0.0
 11
-48.600000000000357
 21
32.400000000000091
 31
0.0
  0
LINE
  8
DETAIL
  6
CONTINUOUS
 62
     5
 10
-41.400000000000553
 20
39.600000000000144
 30
0.0
 11
-48.600000000000357
 21
39.600000000000144
 31
0.0
  0
LINE
  8
DETAIL
  6
CONTINUOUS
 62
     5
 10
-48.600000000000357
 20
32.400000000000091
 30
0.0
 11
-48.600000000000357
 21
39.600000000000144
 31
0.0
  0
LINE
  8
DETAIL
  6
CONTINUOUS
 62
     5
 10
-32.400000000000553
 20
5.4000000000000909
 30
0.0
 11
-32.400000000000553
 21
12.60000000000014
 31
0.0
  0
LINE
  8
DETAIL
  6
CONTINUOUS
 62
     5
 10
-32.400000000000553
 20
5.4000000000000909
 30
0.0
 11
-39.600000000000357
 21
5.4000000000000909
 31
0.0
  0
LINE
  8
DETAIL
  6
CONTINUOUS
 62
     5
 10
-32.400000000000553
 20
12.60000000000014
 30
0.0
 11
-39.600000000000357
 21
12.60000000000014
 31
0.0
  0
LINE
  8
DETAIL
  6
CONTINUOUS
 62
     5
 10
-39.600000000000357
 20
5.4000000000000909
 30
0.0
 11
-39.600000000000357
 21
12.60000000000014
 31
0.0
  0
LINE
  8
DETAIL
  6
CONTINUOUS
 62
     5
 10
-32.400000000000553
 20
14.400000000000089
 30
0.0
 11
-32.400000000000553
 21
21.60000000000014
 31
0.0
  0
LINE
  8
DETAIL
  6
CONTINUOUS
 62
     5
 10
-32.400000000000553
 20
14.400000000000089
 30
0.0
 11
-39.600000000000357
 21
14.400000000000089
 31
0.0
  0
LINE
  8
DETAIL
  6
CONTINUOUS
 62
     5
 10
-32.400000000000553
 20
21.60000000000014
 30
0.0
 11
-39.600000000000357
 21
21.60000000000014
 31
0.0
  0
LINE
  8
DETAIL
  6
CONTINUOUS
 62
     5
 10
-39.600000000000357
 20
14.400000000000089
 30
0.0
 11
-39.600000000000357
 21
21.60000000000014
 31
0.0
  0
LINE
  8
DETAIL
  6
CONTINUOUS
 62
     5
 10
-32.400000000000553
 20
23.400000000000091
 30
0.0
 11
-32.400000000000553
 21
30.60000000000014
 31
0.0
  0
LINE
  8
DETAIL
  6
CONTINUOUS
 62
     5
 10
-32.400000000000553
 20
23.400000000000091
 30
0.0
 11
-39.600000000000357
 21
23.400000000000091
 31
0.0
  0
LINE
  8
DETAIL
  6
CONTINUOUS
 62
     5
 10
-32.400000000000553
 20
30.60000000000014
 30
0.0
 11
-39.600000000000357
 21
30.60000000000014
 31
0.0
  0
LINE
  8
DETAIL
  6
CONTINUOUS
 62
     5
 10
-39.600000000000357
 20
23.400000000000091
 30
0.0
 11
-39.600000000000357
 21
30.60000000000014
 31
0.0
  0
LINE
  8
DETAIL
  6
CONTINUOUS
 62
     5
 10
-32.400000000000553
 20
32.400000000000091
 30
0.0
 11
-32.400000000000553
 21
39.600000000000144
 31
0.0
  0
LINE
  8
DETAIL
  6
CONTINUOUS
 62
     5
 10
-32.400000000000553
 20
32.400000000000091
 30
0.0
 11
-39.600000000000357
 21
32.400000000000091
 31
0.0
  0
LINE
  8
DETAIL
  6
CONTINUOUS
 62
     5
 10
-32.400000000000553
 20
39.600000000000144
 30
0.0
 11
-39.600000000000357
 21
39.600000000000144
 31
0.0
  0
LINE
  8
DETAIL
  6
CONTINUOUS
 62
     5
 10
-39.600000000000357
 20
32.400000000000091
 30
0.0
 11
-39.600000000000357
 21
39.600000000000144
 31
0.0
  0
LINE
  8
DETAIL
  6
CONTINUOUS
 62
     5
 10
-32.400000000000553
 20
41.400000000000091
 30
0.0
 11
-32.400000000000553
 21
48.600000000000144
 31
0.0
  0
LINE
  8
DETAIL
  6
CONTINUOUS
 62
     5
 10
-32.400000000000553
 20
41.400000000000091
 30
0.0
 11
-39.600000000000357
 21
41.400000000000091
 31
0.0
  0
LINE
  8
DETAIL
  6
CONTINUOUS
 62
     5
 10
-32.400000000000553
 20
48.600000000000144
 30
0.0
 11
-39.600000000000357
 21
48.600000000000144
 31
0.0
  0
LINE
  8
DETAIL
  6
CONTINUOUS
 62
     5
 10
-39.600000000000357
 20
41.400000000000091
 30
0.0
 11
-39.600000000000357
 21
48.600000000000144
 31
0.0
  0
LINE
  8
DETAIL
  6
CONTINUOUS
 62
     5
 10
-30.60000000000036
 20
5.4000000000000909
 30
0.0
 11
-23.400000000000549
 21
5.4000000000000909
 31
0.0
  0
LINE
  8
DETAIL
  6
CONTINUOUS
 62
     5
 10
-23.400000000000549
 20
5.4000000000000909
 30
0.0
 11
-23.400000000000549
 21
12.60000000000014
 31
0.0
  0
LINE
  8
DETAIL
  6
CONTINUOUS
 62
     5
 10
-23.400000000000549
 20
5.4000000000000909
 30
0.0
 11
-23.400000000000549
 21
12.60000000000014
 31
0.0
  0
LINE
  8
DETAIL
  6
CONTINUOUS
 62
     5
 10
-23.400000000000549
 20
5.4000000000000909
 30
0.0
 11
-30.60000000000036
 21
5.4000000000000909
 31
0.0
  0
LINE
  8
DETAIL
  6
CONTINUOUS
 62
     5
 10
-23.400000000000549
 20
12.60000000000014
 30
0.0
 11
-30.60000000000036
 21
12.60000000000014
 31
0.0
  0
LINE
  8
DETAIL
  6
CONTINUOUS
 62
     5
 10
-30.60000000000036
 20
5.4000000000000909
 30
0.0
 11
-30.60000000000036
 21
12.60000000000014
 31
0.0
  0
LINE
  8
DETAIL
  6
CONTINUOUS
 62
     5
 10
-30.60000000000036
 20
14.400000000000089
 30
0.0
 11
-23.400000000000549
 21
14.400000000000089
 31
0.0
  0
LINE
  8
DETAIL
  6
CONTINUOUS
 62
     5
 10
-23.400000000000549
 20
14.400000000000089
 30
0.0
 11
-23.400000000000549
 21
21.60000000000014
 31
0.0
  0
LINE
  8
DETAIL
  6
CONTINUOUS
 62
     5
 10
-23.400000000000549
 20
14.400000000000089
 30
0.0
 11
-23.400000000000549
 21
21.60000000000014
 31
0.0
  0
LINE
  8
DETAIL
  6
CONTINUOUS
 62
     5
 10
-23.400000000000549
 20
14.400000000000089
 30
0.0
 11
-30.60000000000036
 21
14.400000000000089
 31
0.0
  0
LINE
  8
DETAIL
  6
CONTINUOUS
 62
     5
 10
-23.400000000000549
 20
21.60000000000014
 30
0.0
 11
-30.60000000000036
 21
21.60000000000014
 31
0.0
  0
LINE
  8
DETAIL
  6
CONTINUOUS
 62
     5
 10
-30.60000000000036
 20
14.400000000000089
 30
0.0
 11
-30.60000000000036
 21
21.60000000000014
 31
0.0
  0
LINE
  8
DETAIL
  6
CONTINUOUS
 62
     5
 10
-30.60000000000036
 20
23.400000000000091
 30
0.0
 11
-23.400000000000549
 21
23.400000000000091
 31
0.0
  0
LINE
  8
DETAIL
  6
CONTINUOUS
 62
     5
 10
-23.400000000000549
 20
23.400000000000091
 30
0.0
 11
-23.400000000000549
 21
30.60000000000014
 31
0.0
  0
LINE
  8
DETAIL
  6
CONTINUOUS
 62
     5
 10
-23.400000000000549
 20
23.400000000000091
 30
0.0
 11
-23.400000000000549
 21
30.60000000000014
 31
0.0
  0
LINE
  8
DETAIL
  6
CONTINUOUS
 62
     5
 10
-23.400000000000549
 20
23.400000000000091
 30
0.0
 11
-30.60000000000036
 21
23.400000000000091
 31
0.0
  0
LINE
  8
DETAIL
  6
CONTINUOUS
 62
     5
 10
-23.400000000000549
 20
30.60000000000014
 30
0.0
 11
-30.60000000000036
 21
30.60000000000014
 31
0.0
  0
LINE
  8
DETAIL
  6
CONTINUOUS
 62
     5
 10
-30.60000000000036
 20
23.400000000000091
 30
0.0
 11
-30.60000000000036
 21
30.60000000000014
 31
0.0
  0
LINE
  8
DETAIL
  6
CONTINUOUS
 62
     5
 10
-30.60000000000036
 20
32.400000000000091
 30
0.0
 11
-23.400000000000549
 21
32.400000000000091
 31
0.0
  0
LINE
  8
DETAIL
  6
CONTINUOUS
 62
     5
 10
-23.400000000000549
 20
32.400000000000091
 30
0.0
 11
-23.400000000000549
 21
39.600000000000144
 31
0.0
  0
LINE
  8
DETAIL
  6
CONTINUOUS
 62
     5
 10
-23.400000000000549
 20
32.400000000000091
 30
0.0
 11
-23.400000000000549
 21
39.600000000000144
 31
0.0
  0
LINE
  8
DETAIL
  6
CONTINUOUS
 62
     5
 10
-23.400000000000549
 20
32.400000000000091
 30
0.0
 11
-30.60000000000036
 21
32.400000000000091
 31
0.0
  0
LINE
  8
DETAIL
  6
CONTINUOUS
 62
     5
 10
-23.400000000000549
 20
39.600000000000144
 30
0.0
 11
-30.60000000000036
 21
39.600000000000144
 31
0.0
  0
LINE
  8
DETAIL
  6
CONTINUOUS
 62
     5
 10
-30.60000000000036
 20
32.400000000000091
 30
0.0
 11
-30.60000000000036
 21
39.600000000000144
 31
0.0
  0
LINE
  8
DETAIL
  6
CONTINUOUS
 62
     5
 10
-30.60000000000036
 20
41.400000000000091
 30
0.0
 11
-23.400000000000549
 21
41.400000000000091
 31
0.0
  0
LINE
  8
DETAIL
  6
CONTINUOUS
 62
     5
 10
-23.400000000000549
 20
41.400000000000091
 30
0.0
 11
-23.400000000000549
 21
48.600000000000144
 31
0.0
  0
LINE
  8
DETAIL
  6
CONTINUOUS
 62
     5
 10
-23.400000000000549
 20
41.400000000000091
 30
0.0
 11
-23.400000000000549
 21
48.600000000000144
 31
0.0
  0
LINE
  8
DETAIL
  6
CONTINUOUS
 62
     5
 10
-23.400000000000549
 20
41.400000000000091
 30
0.0
 11
-30.60000000000036
 21
41.400000000000091
 31
0.0
  0
LINE
  8
DETAIL
  6
CONTINUOUS
 62
     5
 10
-23.400000000000549
 20
48.600000000000144
 30
0.0
 11
-30.60000000000036
 21
48.600000000000144
 31
0.0
  0
LINE
  8
DETAIL
  6
CONTINUOUS
 62
     5
 10
-30.60000000000036
 20
41.400000000000091
 30
0.0
 11
-30.60000000000036
 21
48.600000000000144
 31
0.0
  0
LINE
  8
DETAIL
  6
CONTINUOUS
 62
     5
 10
-30.60000000000036
 20
50.400000000000091
 30
0.0
 11
-23.400000000000549
 21
50.400000000000091
 31
0.0
  0
LINE
  8
DETAIL
  6
CONTINUOUS
 62
     5
 10
-23.400000000000549
 20
50.400000000000091
 30
0.0
 11
-23.400000000000549
 21
57.600000000000144
 31
0.0
  0
LINE
  8
DETAIL
  6
CONTINUOUS
 62
     5
 10
-23.400000000000549
 20
50.400000000000091
 30
0.0
 11
-23.400000000000549
 21
57.600000000000144
 31
0.0
  0
LINE
  8
DETAIL
  6
CONTINUOUS
 62
     5
 10
-23.400000000000549
 20
50.400000000000091
 30
0.0
 11
-30.60000000000036
 21
50.400000000000091
 31
0.0
  0
LINE
  8
DETAIL
  6
CONTINUOUS
 62
     5
 10
-23.400000000000549
 20
57.600000000000144
 30
0.0
 11
-30.60000000000036
 21
57.600000000000144
 31
0.0
  0
LINE
  8
DETAIL
  6
CONTINUOUS
 62
     5
 10
-30.60000000000036
 20
50.400000000000091
 30
0.0
 11
-30.60000000000036
 21
57.600000000000144
 31
0.0
  0
LINE
  8
DETAIL
  6
CONTINUOUS
 62
     5
 10
-14.400000000000549
 20
5.4000000000000909
 30
0.0
 11
-14.400000000000549
 21
12.60000000000014
 31
0.0
  0
LINE
  8
DETAIL
  6
CONTINUOUS
 62
     5
 10
-14.400000000000549
 20
5.4000000000000909
 30
0.0
 11
-21.60000000000036
 21
5.4000000000000909
 31
0.0
  0
LINE
  8
DETAIL
  6
CONTINUOUS
 62
     5
 10
-14.400000000000549
 20
12.60000000000014
 30
0.0
 11
-21.60000000000036
 21
12.60000000000014
 31
0.0
  0
LINE
  8
DETAIL
  6
CONTINUOUS
 62
     5
 10
-21.60000000000036
 20
5.4000000000000909
 30
0.0
 11
-21.60000000000036
 21
12.60000000000014
 31
0.0
  0
LINE
  8
DETAIL
  6
CONTINUOUS
 62
     5
 10
-14.400000000000549
 20
14.400000000000089
 30
0.0
 11
-14.400000000000549
 21
21.60000000000014
 31
0.0
  0
LINE
  8
DETAIL
  6
CONTINUOUS
 62
     5
 10
-14.400000000000549
 20
14.400000000000089
 30
0.0
 11
-21.60000000000036
 21
14.400000000000089
 31
0.0
  0
LINE
  8
DETAIL
  6
CONTINUOUS
 62
     5
 10
-14.400000000000549
 20
21.60000000000014
 30
0.0
 11
-21.60000000000036
 21
21.60000000000014
 31
0.0
  0
LINE
  8
DETAIL
  6
CONTINUOUS
 62
     5
 10
-21.60000000000036
 20
14.400000000000089
 30
0.0
 11
-21.60000000000036
 21
21.60000000000014
 31
0.0
  0
LINE
  8
DETAIL
  6
CONTINUOUS
 62
     5
 10
-14.400000000000549
 20
23.400000000000091
 30
0.0
 11
-14.400000000000549
 21
30.60000000000014
 31
0.0
  0
LINE
  8
DETAIL
  6
CONTINUOUS
 62
     5
 10
-14.400000000000549
 20
23.400000000000091
 30
0.0
 11
-21.60000000000036
 21
23.400000000000091
 31
0.0
  0
LINE
  8
DETAIL
  6
CONTINUOUS
 62
     5
 10
-14.400000000000549
 20
30.60000000000014
 30
0.0
 11
-21.60000000000036
 21
30.60000000000014
 31
0.0
  0
LINE
  8
DETAIL
  6
CONTINUOUS
 62
     5
 10
-21.60000000000036
 20
23.400000000000091
 30
0.0
 11
-21.60000000000036
 21
30.60000000000014
 31
0.0
  0
LINE
  8
DETAIL
  6
CONTINUOUS
 62
     5
 10
-14.400000000000549
 20
32.400000000000091
 30
0.0
 11
-14.400000000000549
 21
39.600000000000144
 31
0.0
  0
LINE
  8
DETAIL
  6
CONTINUOUS
 62
     5
 10
-14.400000000000549
 20
32.400000000000091
 30
0.0
 11
-21.60000000000036
 21
32.400000000000091
 31
0.0
  0
LINE
  8
DETAIL
  6
CONTINUOUS
 62
     5
 10
-14.400000000000549
 20
39.600000000000144
 30
0.0
 11
-21.60000000000036
 21
39.600000000000144
 31
0.0
  0
LINE
  8
DETAIL
  6
CONTINUOUS
 62
     5
 10
-21.60000000000036
 20
32.400000000000091
 30
0.0
 11
-21.60000000000036
 21
39.600000000000144
 31
0.0
  0
LINE
  8
DETAIL
  6
CONTINUOUS
 62
     5
 10
-14.400000000000549
 20
41.400000000000091
 30
0.0
 11
-14.400000000000549
 21
48.600000000000144
 31
0.0
  0
LINE
  8
DETAIL
  6
CONTINUOUS
 62
     5
 10
-14.400000000000549
 20
41.400000000000091
 30
0.0
 11
-21.60000000000036
 21
41.400000000000091
 31
0.0
  0
LINE
  8
DETAIL
  6
CONTINUOUS
 62
     5
 10
-14.400000000000549
 20
48.600000000000144
 30
0.0
 11
-21.60000000000036
 21
48.600000000000144
 31
0.0
  0
LINE
  8
DETAIL
  6
CONTINUOUS
 62
     5
 10
-21.60000000000036
 20
41.400000000000091
 30
0.0
 11
-21.60000000000036
 21
48.600000000000144
 31
0.0
  0
LINE
  8
DETAIL
  6
CONTINUOUS
 62
     5
 10
-14.400000000000549
 20
50.400000000000091
 30
0.0
 11
-14.400000000000549
 21
57.600000000000144
 31
0.0
  0
LINE
  8
DETAIL
  6
CONTINUOUS
 62
     5
 10
-14.400000000000549
 20
50.400000000000091
 30
0.0
 11
-21.60000000000036
 21
50.400000000000091
 31
0.0
  0
LINE
  8
DETAIL
  6
CONTINUOUS
 62
     5
 10
-14.400000000000549
 20
57.600000000000144
 30
0.0
 11
-21.60000000000036
 21
57.600000000000144
 31
0.0
  0
LINE
  8
DETAIL
  6
CONTINUOUS
 62
     5
 10
-21.60000000000036
 20
50.400000000000091
 30
0.0
 11
-21.60000000000036
 21
57.600000000000144
 31
0.0
  0
LINE
  8
DETAIL
  6
CONTINUOUS
 62
     5
 10
-14.400000000000549
 20
59.400000000000091
 30
0.0
 11
-14.400000000000549
 21
66.600000000000136
 31
0.0
  0
LINE
  8
DETAIL
  6
CONTINUOUS
 62
     5
 10
-14.400000000000549
 20
59.400000000000091
 30
0.0
 11
-21.60000000000036
 21
59.400000000000091
 31
0.0
  0
LINE
  8
DETAIL
  6
CONTINUOUS
 62
     5
 10
-14.400000000000549
 20
66.600000000000136
 30
0.0
 11
-21.60000000000036
 21
66.600000000000136
 31
0.0
  0
LINE
  8
DETAIL
  6
CONTINUOUS
 62
     5
 10
-21.60000000000036
 20
59.400000000000091
 30
0.0
 11
-21.60000000000036
 21
66.600000000000136
 31
0.0
  0
LINE
  8
DETAIL
  6
CONTINUOUS
 62
     5
 10
-5.4000000000005457
 20
5.4000000000000909
 30
0.0
 11
-12.60000000000036
 21
5.4000000000000909
 31
0.0
  0
LINE
  8
DETAIL
  6
CONTINUOUS
 62
     5
 10
-5.4000000000005457
 20
12.60000000000014
 30
0.0
 11
-12.60000000000036
 21
12.60000000000014
 31
0.0
  0
LINE
  8
DETAIL
  6
CONTINUOUS
 62
     5
 10
-12.60000000000036
 20
5.4000000000000909
 30
0.0
 11
-12.60000000000036
 21
12.60000000000014
 31
0.0
  0
LINE
  8
DETAIL
  6
CONTINUOUS
 62
     5
 10
-5.4000000000005457
 20
5.4000000000000909
 30
0.0
 11
-5.4000000000005457
 21
12.60000000000014
 31
0.0
  0
LINE
  8
DETAIL
  6
CONTINUOUS
 62
     5
 10
-5.4000000000005457
 20
14.400000000000089
 30
0.0
 11
-12.60000000000036
 21
14.400000000000089
 31
0.0
  0
LINE
  8
DETAIL
  6
CONTINUOUS
 62
     5
 10
-5.4000000000005457
 20
21.60000000000014
 30
0.0
 11
-12.60000000000036
 21
21.60000000000014
 31
0.0
  0
LINE
  8
DETAIL
  6
CONTINUOUS
 62
     5
 10
-12.60000000000036
 20
14.400000000000089
 30
0.0
 11
-12.60000000000036
 21
21.60000000000014
 31
0.0
  0
LINE
  8
DETAIL
  6
CONTINUOUS
 62
     5
 10
-5.4000000000005457
 20
14.400000000000089
 30
0.0
 11
-5.4000000000005457
 21
21.60000000000014
 31
0.0
  0
LINE
  8
DETAIL
  6
CONTINUOUS
 62
     5
 10
-5.4000000000005457
 20
23.400000000000091
 30
0.0
 11
-12.60000000000036
 21
23.400000000000091
 31
0.0
  0
LINE
  8
DETAIL
  6
CONTINUOUS
 62
     5
 10
-5.4000000000005457
 20
30.60000000000014
 30
0.0
 11
-12.60000000000036
 21
30.60000000000014
 31
0.0
  0
LINE
  8
DETAIL
  6
CONTINUOUS
 62
     5
 10
-12.60000000000036
 20
23.400000000000091
 30
0.0
 11
-12.60000000000036
 21
30.60000000000014
 31
0.0
  0
LINE
  8
DETAIL
  6
CONTINUOUS
 62
     5
 10
-5.4000000000005457
 20
23.400000000000091
 30
0.0
 11
-5.4000000000005457
 21
30.60000000000014
 31
0.0
  0
LINE
  8
DETAIL
  6
CONTINUOUS
 62
     5
 10
-5.4000000000005457
 20
32.400000000000091
 30
0.0
 11
-12.60000000000036
 21
32.400000000000091
 31
0.0
  0
LINE
  8
DETAIL
  6
CONTINUOUS
 62
     5
 10
-5.4000000000005457
 20
39.600000000000144
 30
0.0
 11
-12.60000000000036
 21
39.600000000000144
 31
0.0
  0
LINE
  8
DETAIL
  6
CONTINUOUS
 62
     5
 10
-12.60000000000036
 20
32.400000000000091
 30
0.0
 11
-12.60000000000036
 21
39.600000000000144
 31
0.0
  0
LINE
  8
DETAIL
  6
CONTINUOUS
 62
     5
 10
-5.4000000000005457
 20
32.400000000000091
 30
0.0
 11
-5.4000000000005457
 21
39.600000000000144
 31
0.0
  0
LINE
  8
DETAIL
  6
CONTINUOUS
 62
     5
 10
-5.4000000000005457
 20
41.400000000000091
 30
0.0
 11
-12.60000000000036
 21
41.400000000000091
 31
0.0
  0
LINE
  8
DETAIL
  6
CONTINUOUS
 62
     5
 10
-5.4000000000005457
 20
48.600000000000144
 30
0.0
 11
-12.60000000000036
 21
48.600000000000144
 31
0.0
  0
LINE
  8
DETAIL
  6
CONTINUOUS
 62
     5
 10
-12.60000000000036
 20
41.400000000000091
 30
0.0
 11
-12.60000000000036
 21
48.600000000000144
 31
0.0
  0
LINE
  8
DETAIL
  6
CONTINUOUS
 62
     5
 10
-5.4000000000005457
 20
41.400000000000091
 30
0.0
 11
-5.4000000000005457
 21
48.600000000000144
 31
0.0
  0
LINE
  8
DETAIL
  6
CONTINUOUS
 62
     5
 10
-5.4000000000005457
 20
50.400000000000091
 30
0.0
 11
-12.60000000000036
 21
50.400000000000091
 31
0.0
  0
LINE
  8
DETAIL
  6
CONTINUOUS
 62
     5
 10
-5.4000000000005457
 20
57.600000000000144
 30
0.0
 11
-12.60000000000036
 21
57.600000000000144
 31
0.0
  0
LINE
  8
DETAIL
  6
CONTINUOUS
 62
     5
 10
-12.60000000000036
 20
50.400000000000091
 30
0.0
 11
-12.60000000000036
 21
57.600000000000144
 31
0.0
  0
LINE
  8
DETAIL
  6
CONTINUOUS
 62
     5
 10
-5.4000000000005457
 20
50.400000000000091
 30
0.0
 11
-5.4000000000005457
 21
57.600000000000144
 31
0.0
  0
LINE
  8
DETAIL
  6
CONTINUOUS
 62
     5
 10
-5.4000000000005457
 20
59.400000000000091
 30
0.0
 11
-12.60000000000036
 21
59.400000000000091
 31
0.0
  0
LINE
  8
DETAIL
  6
CONTINUOUS
 62
     5
 10
-5.4000000000005457
 20
66.600000000000136
 30
0.0
 11
-12.60000000000036
 21
66.600000000000136
 31
0.0
  0
LINE
  8
DETAIL
  6
CONTINUOUS
 62
     5
 10
-12.60000000000036
 20
59.400000000000091
 30
0.0
 11
-12.60000000000036
 21
66.600000000000136
 31
0.0
  0
LINE
  8
DETAIL
  6
CONTINUOUS
 62
     5
 10
-5.4000000000005457
 20
59.400000000000091
 30
0.0
 11
-5.4000000000005457
 21
66.600000000000136
 31
0.0
  0
LINE
  8
DETAIL
  6
CONTINUOUS
 62
     5
 10
-5.4000000000005457
 20
68.400000000000091
 30
0.0
 11
-12.60000000000036
 21
68.400000000000091
 31
0.0
  0
LINE
  8
DETAIL
  6
CONTINUOUS
 62
     5
 10
-5.4000000000005457
 20
75.600000000000136
 30
0.0
 11
-12.60000000000036
 21
75.600000000000136
 31
0.0
  0
LINE
  8
DETAIL
  6
CONTINUOUS
 62
     5
 10
-12.60000000000036
 20
68.400000000000091
 30
0.0
 11
-12.60000000000036
 21
75.600000000000136
 31
0.0
  0
LINE
  8
DETAIL
  6
CONTINUOUS
 62
     5
 10
-5.4000000000005457
 20
68.400000000000091
 30
0.0
 11
-5.4000000000005457
 21
75.600000000000136
 31
0.0
  0
LINE
  8
DETAIL
  6
CONTINUOUS
 62
     5
 10
-3.6000000000003638
 20
5.4000000000000909
 30
0.0
 11
-3.6000000000003638
 21
12.60000000000014
 31
0.0
  0
LINE
  8
DETAIL
  6
CONTINUOUS
 62
     5
 10
-3.6000000000003638
 20
14.400000000000089
 30
0.0
 11
-3.6000000000003638
 21
21.60000000000014
 31
0.0
  0
LINE
  8
DETAIL
  6
CONTINUOUS
 62
     5
 10
-3.6000000000003638
 20
23.400000000000091
 30
0.0
 11
-3.6000000000003638
 21
30.60000000000014
 31
0.0
  0
LINE
  8
DETAIL
  6
CONTINUOUS
 62
     5
 10
-3.6000000000003638
 20
32.400000000000091
 30
0.0
 11
-3.6000000000003638
 21
39.600000000000144
 31
0.0
  0
LINE
  8
DETAIL
  6
CONTINUOUS
 62
     5
 10
-3.6000000000003638
 20
41.400000000000091
 30
0.0
 11
-3.6000000000003638
 21
48.600000000000144
 31
0.0
  0
LINE
  8
DETAIL
  6
CONTINUOUS
 62
     5
 10
-3.6000000000003638
 20
50.400000000000091
 30
0.0
 11
-3.6000000000003638
 21
57.600000000000144
 31
0.0
  0
LINE
  8
DETAIL
  6
CONTINUOUS
 62
     5
 10
-3.6000000000003638
 20
59.400000000000091
 30
0.0
 11
-3.6000000000003638
 21
66.600000000000136
 31
0.0
  0
LINE
  8
DETAIL
  6
CONTINUOUS
 62
     5
 10
-3.6000000000003638
 20
68.400000000000091
 30
0.0
 11
-3.6000000000003638
 21
75.600000000000136
 31
0.0
  0
LINE
  8
DETAIL
  6
CONTINUOUS
 62
     5
 10
-3.6000000000003638
 20
77.400000000000091
 30
0.0
 11
-3.6000000000003638
 21
84.600000000000136
 31
0.0
  0
LINE
  8
DETAIL
  6
CONTINUOUS
 62
     5
 10
-143.0000000000006
 20
-141.99999999999989
 30
0.0
 11
-143.0000000000006
 21
142.0
 31
0.0
  0
LINE
  8
DETAIL
  6
CONTINUOUS
 62
     5
 10
-101.0
 20
97.0
 30
0.0
 11
-101.0
 21
-96.999999999999886
 31
0.0
  0
LINE
  8
DETAIL
  6
CONTINUOUS
 62
     5
 10
-99.5
 20
95.5
 30
0.0
 11
-99.5
 21
-95.499999999999886
 31
0.0
  0
LINE
  8
DETAIL
  6
CONTINUOUS
 62
     5
 10
-136.20564900000039
 20
135.20564900000011
 30
0.0
 11
-136.20564900000039
 21
-135.20564999999991
 31
0.0
  0
ARC
  8
DETAIL
  6
CONTINUOUS
 62
     5
 10
-135.20564900000039
 20
135.20564900000011
 30
0.0
 40
1.0
 50
90.0
 51
180.0
  0
LINE
  8
DETAIL
  6
CONTINUOUS
 62
     5
 10
-101.0
 20
97.0
 30
0.0
 11
-99.5
 21
95.5
 31
0.0
  0
LINE
  8
DETAIL
  6
CONTINUOUS
 62
     5
 10
-97.0
 20
101.0
 30
0.0
 11
-95.5
 21
99.5
 31
0.0
  0
ARC
  8
DETAIL
  6
CONTINUOUS
 62
     5
 10
-142.0000000000006
 20
142.0
 30
0.0
 40
1.0
 50
90.0
 51
180.0
  0
LINE
  8
DETAIL
  6
CONTINUOUS
 62
     5
 10
-30.60000000000036
 20
59.400000000000091
 30
0.0
 11
-23.400000000000549
 21
59.400000000000091
 31
0.0
  0
LINE
  8
DETAIL
  6
CONTINUOUS
 62
     5
 10
-23.400000000000549
 20
59.400000000000091
 30
0.0
 11
-23.400000000000549
 21
66.600000000000136
 31
0.0
  0
LINE
  8
DETAIL
  6
CONTINUOUS
 62
     5
 10
-86.400000000000546
 20
39.600000000000144
 30
0.0
 11
-93.600000000000364
 21
39.600000000000144
 31
0.0
  0
LINE
  8
DETAIL
  6
CONTINUOUS
 62
     5
 10
-86.400000000000546
 20
41.400000000000091
 30
0.0
 11
-86.400000000000546
 21
48.600000000000144
 31
0.0
  0
LINE
  8
DETAIL
  6
CONTINUOUS
 62
     5
 10
-86.400000000000546
 20
41.400000000000091
 30
0.0
 11
-93.600000000000364
 21
41.400000000000091
 31
0.0
  0
LINE
  8
DETAIL
  6
CONTINUOUS
 62
     5
 10
-86.400000000000546
 20
48.600000000000144
 30
0.0
 11
-93.600000000000364
 21
48.600000000000144
 31
0.0
  0
LINE
  8
DETAIL
  6
CONTINUOUS
 62
     5
 10
-93.600000000000364
 20
41.400000000000091
 30
0.0
 11
-93.600000000000364
 21
48.600000000000144
 31
0.0
  0
LINE
  8
DETAIL
  6
CONTINUOUS
 62
     5
 10
-86.400000000000546
 20
50.400000000000091
 30
0.0
 11
-86.400000000000546
 21
57.600000000000144
 31
0.0
  0
LINE
  8
DETAIL
  6
CONTINUOUS
 62
     5
 10
-86.400000000000546
 20
50.400000000000091
 30
0.0
 11
-93.600000000000364
 21
50.400000000000091
 31
0.0
  0
LINE
  8
DETAIL
  6
CONTINUOUS
 62
     5
 10
-86.400000000000546
 20
57.600000000000144
 30
0.0
 11
-93.600000000000364
 21
57.600000000000144
 31
0.0
  0
LINE
  8
DETAIL
  6
CONTINUOUS
 62
     5
 10
-93.600000000000364
 20
50.400000000000091
 30
0.0
 11
-93.600000000000364
 21
57.600000000000144
 31
0.0
  0
LINE
  8
DETAIL
  6
CONTINUOUS
 62
     5
 10
-86.400000000000546
 20
59.400000000000091
 30
0.0
 11
-86.400000000000546
 21
66.600000000000136
 31
0.0
  0
LINE
  8
DETAIL
  6
CONTINUOUS
 62
     5
 10
-86.400000000000546
 20
59.400000000000091
 30
0.0
 11
-93.600000000000364
 21
59.400000000000091
 31
0.0
  0
LINE
  8
DETAIL
  6
CONTINUOUS
 62
     5
 10
-86.400000000000546
 20
66.600000000000136
 30
0.0
 11
-93.600000000000364
 21
66.600000000000136
 31
0.0
  0
LINE
  8
DETAIL
  6
CONTINUOUS
 62
     5
 10
-93.600000000000364
 20
59.400000000000091
 30
0.0
 11
-93.600000000000364
 21
66.600000000000136
 31
0.0
  0
LINE
  8
DETAIL
  6
CONTINUOUS
 62
     5
 10
-86.400000000000546
 20
68.400000000000091
 30
0.0
 11
-86.400000000000546
 21
75.600000000000136
 31
0.0
  0
LINE
  8
DETAIL
  6
CONTINUOUS
 62
     5
 10
-86.400000000000546
 20
68.400000000000091
 30
0.0
 11
-93.600000000000364
 21
68.400000000000091
 31
0.0
  0
LINE
  8
DETAIL
  6
CONTINUOUS
 62
     5
 10
-86.400000000000546
 20
75.600000000000136
 30
0.0
 11
-93.600000000000364
 21
75.600000000000136
 31
0.0
  0
LINE
  8
DETAIL
  6
CONTINUOUS
 62
     5
 10
-93.600000000000364
 20
68.400000000000091
 30
0.0
 11
-93.600000000000364
 21
75.600000000000136
 31
0.0
  0
LINE
  8
DETAIL
  6
CONTINUOUS
 62
     5
 10
-86.400000000000546
 20
77.400000000000091
 30
0.0
 11
-86.400000000000546
 21
84.600000000000136
 31
0.0
  0
LINE
  8
DETAIL
  6
CONTINUOUS
 62
     5
 10
-86.400000000000546
 20
77.400000000000091
 30
0.0
 11
-93.600000000000364
 21
77.400000000000091
 31
0.0
  0
LINE
  8
DETAIL
  6
CONTINUOUS
 62
     5
 10
-86.400000000000546
 20
84.600000000000136
 30
0.0
 11
-93.600000000000364
 21
84.600000000000136
 31
0.0
  0
LINE
  8
DETAIL
  6
CONTINUOUS
 62
     5
 10
-93.600000000000364
 20
77.400000000000091
 30
0.0
 11
-93.600000000000364
 21
84.600000000000136
 31
0.0
  0
LINE
  8
DETAIL
  6
CONTINUOUS
 62
     5
 10
-86.400000000000546
 20
86.400000000000091
 30
0.0
 11
-86.400000000000546
 21
93.600000000000136
 31
0.0
  0
LINE
  8
DETAIL
  6
CONTINUOUS
 62
     5
 10
-86.400000000000546
 20
86.400000000000091
 30
0.0
 11
-93.600000000000364
 21
86.400000000000091
 31
0.0
  0
LINE
  8
DETAIL
  6
CONTINUOUS
 62
     5
 10
-86.400000000000546
 20
93.600000000000136
 30
0.0
 11
-93.600000000000364
 21
93.600000000000136
 31
0.0
  0
LINE
  8
DETAIL
  6
CONTINUOUS
 62
     5
 10
-93.600000000000364
 20
86.400000000000091
 30
0.0
 11
-93.600000000000364
 21
93.600000000000136
 31
0.0
  0
LINE
  8
DETAIL
  6
CONTINUOUS
 62
     5
 10
-77.400000000000546
 20
39.600000000000144
 30
0.0
 11
-84.600000000000364
 21
39.600000000000144
 31
0.0
  0
LINE
  8
DETAIL
  6
CONTINUOUS
 62
     5
 10
-77.400000000000546
 20
41.400000000000091
 30
0.0
 11
-77.400000000000546
 21
48.600000000000144
 31
0.0
  0
LINE
  8
DETAIL
  6
CONTINUOUS
 62
     5
 10
-77.400000000000546
 20
41.400000000000091
 30
0.0
 11
-84.600000000000364
 21
41.400000000000091
 31
0.0
  0
LINE
  8
DETAIL
  6
CONTINUOUS
 62
     5
 10
-77.400000000000546
 20
48.600000000000144
 30
0.0
 11
-84.600000000000364
 21
48.600000000000144
 31
0.0
  0
LINE
  8
DETAIL
  6
CONTINUOUS
 62
     5
 10
-84.600000000000364
 20
41.400000000000091
 30
0.0
 11
-84.600000000000364
 21
48.600000000000144
 31
0.0
  0
LINE
  8
DETAIL
  6
CONTINUOUS
 62
     5
 10
-77.400000000000546
 20
50.400000000000091
 30
0.0
 11
-77.400000000000546
 21
57.600000000000144
 31
0.0
  0
LINE
  8
DETAIL
  6
CONTINUOUS
 62
     5
 10
-77.400000000000546
 20
50.400000000000091
 30
0.0
 11
-84.600000000000364
 21
50.400000000000091
 31
0.0
  0
LINE
  8
DETAIL
  6
CONTINUOUS
 62
     5
 10
-77.400000000000546
 20
57.600000000000144
 30
0.0
 11
-84.600000000000364
 21
57.600000000000144
 31
0.0
  0
LINE
  8
DETAIL
  6
CONTINUOUS
 62
     5
 10
-84.600000000000364
 20
50.400000000000091
 30
0.0
 11
-84.600000000000364
 21
57.600000000000144
 31
0.0
  0
LINE
  8
DETAIL
  6
CONTINUOUS
 62
     5
 10
-77.400000000000546
 20
59.400000000000091
 30
0.0
 11
-77.400000000000546
 21
66.600000000000136
 31
0.0
  0
LINE
  8
DETAIL
  6
CONTINUOUS
 62
     5
 10
-77.400000000000546
 20
59.400000000000091
 30
0.0
 11
-84.600000000000364
 21
59.400000000000091
 31
0.0
  0
LINE
  8
DETAIL
  6
CONTINUOUS
 62
     5
 10
-77.400000000000546
 20
66.600000000000136
 30
0.0
 11
-84.600000000000364
 21
66.600000000000136
 31
0.0
  0
LINE
  8
DETAIL
  6
CONTINUOUS
 62
     5
 10
-84.600000000000364
 20
59.400000000000091
 30
0.0
 11
-84.600000000000364
 21
66.600000000000136
 31
0.0
  0
LINE
  8
DETAIL
  6
CONTINUOUS
 62
     5
 10
-77.400000000000546
 20
68.400000000000091
 30
0.0
 11
-77.400000000000546
 21
75.600000000000136
 31
0.0
  0
LINE
  8
DETAIL
  6
CONTINUOUS
 62
     5
 10
-77.400000000000546
 20
68.400000000000091
 30
0.0
 11
-84.600000000000364
 21
68.400000000000091
 31
0.0
  0
LINE
  8
DETAIL
  6
CONTINUOUS
 62
     5
 10
-77.400000000000546
 20
75.600000000000136
 30
0.0
 11
-84.600000000000364
 21
75.600000000000136
 31
0.0
  0
LINE
  8
DETAIL
  6
CONTINUOUS
 62
     5
 10
-84.600000000000364
 20
68.400000000000091
 30
0.0
 11
-84.600000000000364
 21
75.600000000000136
 31
0.0
  0
LINE
  8
DETAIL
  6
CONTINUOUS
 62
     5
 10
-77.400000000000546
 20
77.400000000000091
 30
0.0
 11
-77.400000000000546
 21
84.600000000000136
 31
0.0
  0
LINE
  8
DETAIL
  6
CONTINUOUS
 62
     5
 10
-77.400000000000546
 20
77.400000000000091
 30
0.0
 11
-84.600000000000364
 21
77.400000000000091
 31
0.0
  0
LINE
  8
DETAIL
  6
CONTINUOUS
 62
     5
 10
-77.400000000000546
 20
84.600000000000136
 30
0.0
 11
-84.600000000000364
 21
84.600000000000136
 31
0.0
  0
LINE
  8
DETAIL
  6
CONTINUOUS
 62
     5
 10
-84.600000000000364
 20
77.400000000000091
 30
0.0
 11
-84.600000000000364
 21
84.600000000000136
 31
0.0
  0
LINE
  8
DETAIL
  6
CONTINUOUS
 62
     5
 10
-77.400000000000546
 20
86.400000000000091
 30
0.0
 11
-77.400000000000546
 21
93.600000000000136
 31
0.0
  0
LINE
  8
DETAIL
  6
CONTINUOUS
 62
     5
 10
-77.400000000000546
 20
86.400000000000091
 30
0.0
 11
-84.600000000000364
 21
86.400000000000091
 31
0.0
  0
LINE
  8
DETAIL
  6
CONTINUOUS
 62
     5
 10
-77.400000000000546
 20
93.600000000000136
 30
0.0
 11
-84.600000000000364
 21
93.600000000000136
 31
0.0
  0
LINE
  8
DETAIL
  6
CONTINUOUS
 62
     5
 10
-84.600000000000364
 20
86.400000000000091
 30
0.0
 11
-84.600000000000364
 21
93.600000000000136
 31
0.0
  0
LINE
  8
DETAIL
  6
CONTINUOUS
 62
     5
 10
-68.400000000000546
 20
39.600000000000144
 30
0.0
 11
-75.600000000000364
 21
39.600000000000144
 31
0.0
  0
LINE
  8
DETAIL
  6
CONTINUOUS
 62
     5
 10
-68.400000000000546
 20
41.400000000000091
 30
0.0
 11
-68.400000000000546
 21
48.600000000000144
 31
0.0
  0
LINE
  8
DETAIL
  6
CONTINUOUS
 62
     5
 10
-68.400000000000546
 20
41.400000000000091
 30
0.0
 11
-75.600000000000364
 21
41.400000000000091
 31
0.0
  0
LINE
  8
DETAIL
  6
CONTINUOUS
 62
     5
 10
-68.400000000000546
 20
48.600000000000144
 30
0.0
 11
-75.600000000000364
 21
48.600000000000144
 31
0.0
  0
LINE
  8
DETAIL
  6
CONTINUOUS
 62
     5
 10
-75.600000000000364
 20
41.400000000000091
 30
0.0
 11
-75.600000000000364
 21
48.600000000000144
 31
0.0
  0
LINE
  8
DETAIL
  6
CONTINUOUS
 62
     5
 10
-68.400000000000546
 20
50.400000000000091
 30
0.0
 11
-68.400000000000546
 21
57.600000000000144
 31
0.0
  0
LINE
  8
DETAIL
  6
CONTINUOUS
 62
     5
 10
-68.400000000000546
 20
50.400000000000091
 30
0.0
 11
-75.600000000000364
 21
50.400000000000091
 31
0.0
  0
LINE
  8
DETAIL
  6
CONTINUOUS
 62
     5
 10
-68.400000000000546
 20
57.600000000000144
 30
0.0
 11
-75.600000000000364
 21
57.600000000000144
 31
0.0
  0
LINE
  8
DETAIL
  6
CONTINUOUS
 62
     5
 10
-75.600000000000364
 20
50.400000000000091
 30
0.0
 11
-75.600000000000364
 21
57.600000000000144
 31
0.0
  0
LINE
  8
DETAIL
  6
CONTINUOUS
 62
     5
 10
-68.400000000000546
 20
59.400000000000091
 30
0.0
 11
-68.400000000000546
 21
66.600000000000136
 31
0.0
  0
LINE
  8
DETAIL
  6
CONTINUOUS
 62
     5
 10
-68.400000000000546
 20
59.400000000000091
 30
0.0
 11
-75.600000000000364
 21
59.400000000000091
 31
0.0
  0
LINE
  8
DETAIL
  6
CONTINUOUS
 62
     5
 10
-68.400000000000546
 20
66.600000000000136
 30
0.0
 11
-75.600000000000364
 21
66.600000000000136
 31
0.0
  0
LINE
  8
DETAIL
  6
CONTINUOUS
 62
     5
 10
-75.600000000000364
 20
59.400000000000091
 30
0.0
 11
-75.600000000000364
 21
66.600000000000136
 31
0.0
  0
LINE
  8
DETAIL
  6
CONTINUOUS
 62
     5
 10
-68.400000000000546
 20
68.400000000000091
 30
0.0
 11
-68.400000000000546
 21
75.600000000000136
 31
0.0
  0
LINE
  8
DETAIL
  6
CONTINUOUS
 62
     5
 10
-68.400000000000546
 20
68.400000000000091
 30
0.0
 11
-75.600000000000364
 21
68.400000000000091
 31
0.0
  0
LINE
  8
DETAIL
  6
CONTINUOUS
 62
     5
 10
-68.400000000000546
 20
75.600000000000136
 30
0.0
 11
-75.600000000000364
 21
75.600000000000136
 31
0.0
  0
LINE
  8
DETAIL
  6
CONTINUOUS
 62
     5
 10
-75.600000000000364
 20
68.400000000000091
 30
0.0
 11
-75.600000000000364
 21
75.600000000000136
 31
0.0
  0
LINE
  8
DETAIL
  6
CONTINUOUS
 62
     5
 10
-68.400000000000546
 20
77.400000000000091
 30
0.0
 11
-68.400000000000546
 21
84.600000000000136
 31
0.0
  0
LINE
  8
DETAIL
  6
CONTINUOUS
 62
     5
 10
-68.400000000000546
 20
77.400000000000091
 30
0.0
 11
-75.600000000000364
 21
77.400000000000091
 31
0.0
  0
LINE
  8
DETAIL
  6
CONTINUOUS
 62
     5
 10
-68.400000000000546
 20
84.600000000000136
 30
0.0
 11
-75.600000000000364
 21
84.600000000000136
 31
0.0
  0
LINE
  8
DETAIL
  6
CONTINUOUS
 62
     5
 10
-75.600000000000364
 20
77.400000000000091
 30
0.0
 11
-75.600000000000364
 21
84.600000000000136
 31
0.0
  0
LINE
  8
DETAIL
  6
CONTINUOUS
 62
     5
 10
-68.400000000000546
 20
86.400000000000091
 30
0.0
 11
-68.400000000000546
 21
93.600000000000136
 31
0.0
  0
LINE
  8
DETAIL
  6
CONTINUOUS
 62
     5
 10
-68.400000000000546
 20
86.400000000000091
 30
0.0
 11
-75.600000000000364
 21
86.400000000000091
 31
0.0
  0
LINE
  8
DETAIL
  6
CONTINUOUS
 62
     5
 10
-68.400000000000546
 20
93.600000000000136
 30
0.0
 11
-75.600000000000364
 21
93.600000000000136
 31
0.0
  0
LINE
  8
DETAIL
  6
CONTINUOUS
 62
     5
 10
-75.600000000000364
 20
86.400000000000091
 30
0.0
 11
-75.600000000000364
 21
93.600000000000136
 31
0.0
  0
LINE
  8
DETAIL
  6
CONTINUOUS
 62
     5
 10
-59.400000000000553
 20
39.600000000000144
 30
0.0
 11
-66.600000000000364
 21
39.600000000000144
 31
0.0
  0
LINE
  8
DETAIL
  6
CONTINUOUS
 62
     5
 10
-59.400000000000553
 20
41.400000000000091
 30
0.0
 11
-59.400000000000553
 21
48.600000000000144
 31
0.0
  0
LINE
  8
DETAIL
  6
CONTINUOUS
 62
     5
 10
-59.400000000000553
 20
41.400000000000091
 30
0.0
 11
-66.600000000000364
 21
41.400000000000091
 31
0.0
  0
LINE
  8
DETAIL
  6
CONTINUOUS
 62
     5
 10
-59.400000000000553
 20
48.600000000000144
 30
0.0
 11
-66.600000000000364
 21
48.600000000000144
 31
0.0
  0
LINE
  8
DETAIL
  6
CONTINUOUS
 62
     5
 10
-66.600000000000364
 20
41.400000000000091
 30
0.0
 11
-66.600000000000364
 21
48.600000000000144
 31
0.0
  0
LINE
  8
DETAIL
  6
CONTINUOUS
 62
     5
 10
-59.400000000000553
 20
50.400000000000091
 30
0.0
 11
-59.400000000000553
 21
57.600000000000144
 31
0.0
  0
LINE
  8
DETAIL
  6
CONTINUOUS
 62
     5
 10
-59.400000000000553
 20
50.400000000000091
 30
0.0
 11
-66.600000000000364
 21
50.400000000000091
 31
0.0
  0
LINE
  8
DETAIL
  6
CONTINUOUS
 62
     5
 10
-59.400000000000553
 20
57.600000000000144
 30
0.0
 11
-66.600000000000364
 21
57.600000000000144
 31
0.0
  0
LINE
  8
DETAIL
  6
CONTINUOUS
 62
     5
 10
-66.600000000000364
 20
50.400000000000091
 30
0.0
 11
-66.600000000000364
 21
57.600000000000144
 31
0.0
  0
LINE
  8
DETAIL
  6
CONTINUOUS
 62
     5
 10
-59.400000000000553
 20
59.400000000000091
 30
0.0
 11
-59.400000000000553
 21
66.600000000000136
 31
0.0
  0
LINE
  8
DETAIL
  6
CONTINUOUS
 62
     5
 10
-59.400000000000553
 20
59.400000000000091
 30
0.0
 11
-66.600000000000364
 21
59.400000000000091
 31
0.0
  0
LINE
  8
DETAIL
  6
CONTINUOUS
 62
     5
 10
-59.400000000000553
 20
66.600000000000136
 30
0.0
 11
-66.600000000000364
 21
66.600000000000136
 31
0.0
  0
LINE
  8
DETAIL
  6
CONTINUOUS
 62
     5
 10
-66.600000000000364
 20
59.400000000000091
 30
0.0
 11
-66.600000000000364
 21
66.600000000000136
 31
0.0
  0
LINE
  8
DETAIL
  6
CONTINUOUS
 62
     5
 10
-59.400000000000553
 20
68.400000000000091
 30
0.0
 11
-59.400000000000553
 21
75.600000000000136
 31
0.0
  0
LINE
  8
DETAIL
  6
CONTINUOUS
 62
     5
 10
-59.400000000000553
 20
68.400000000000091
 30
0.0
 11
-66.600000000000364
 21
68.400000000000091
 31
0.0
  0
LINE
  8
DETAIL
  6
CONTINUOUS
 62
     5
 10
-59.400000000000553
 20
75.600000000000136
 30
0.0
 11
-66.600000000000364
 21
75.600000000000136
 31
0.0
  0
LINE
  8
DETAIL
  6
CONTINUOUS
 62
     5
 10
-66.600000000000364
 20
68.400000000000091
 30
0.0
 11
-66.600000000000364
 21
75.600000000000136
 31
0.0
  0
LINE
  8
DETAIL
  6
CONTINUOUS
 62
     5
 10
-59.400000000000553
 20
77.400000000000091
 30
0.0
 11
-59.400000000000553
 21
84.600000000000136
 31
0.0
  0
LINE
  8
DETAIL
  6
CONTINUOUS
 62
     5
 10
-59.400000000000553
 20
77.400000000000091
 30
0.0
 11
-66.600000000000364
 21
77.400000000000091
 31
0.0
  0
LINE
  8
DETAIL
  6
CONTINUOUS
 62
     5
 10
-59.400000000000553
 20
84.600000000000136
 30
0.0
 11
-66.600000000000364
 21
84.600000000000136
 31
0.0
  0
LINE
  8
DETAIL
  6
CONTINUOUS
 62
     5
 10
-66.600000000000364
 20
77.400000000000091
 30
0.0
 11
-66.600000000000364
 21
84.600000000000136
 31
0.0
  0
LINE
  8
DETAIL
  6
CONTINUOUS
 62
     5
 10
-59.400000000000553
 20
86.400000000000091
 30
0.0
 11
-59.400000000000553
 21
93.600000000000136
 31
0.0
  0
LINE
  8
DETAIL
  6
CONTINUOUS
 62
     5
 10
-59.400000000000553
 20
86.400000000000091
 30
0.0
 11
-66.600000000000364
 21
86.400000000000091
 31
0.0
  0
LINE
  8
DETAIL
  6
CONTINUOUS
 62
     5
 10
-59.400000000000553
 20
93.600000000000136
 30
0.0
 11
-66.600000000000364
 21
93.600000000000136
 31
0.0
  0
LINE
  8
DETAIL
  6
CONTINUOUS
 62
     5
 10
-66.600000000000364
 20
86.400000000000091
 30
0.0
 11
-66.600000000000364
 21
93.600000000000136
 31
0.0
  0
LINE
  8
DETAIL
  6
CONTINUOUS
 62
     5
 10
-50.400000000000553
 20
39.600000000000144
 30
0.0
 11
-57.600000000000357
 21
39.600000000000144
 31
0.0
  0
LINE
  8
DETAIL
  6
CONTINUOUS
 62
     5
 10
-50.400000000000553
 20
41.400000000000091
 30
0.0
 11
-50.400000000000553
 21
48.600000000000144
 31
0.0
  0
LINE
  8
DETAIL
  6
CONTINUOUS
 62
     5
 10
-50.400000000000553
 20
41.400000000000091
 30
0.0
 11
-57.600000000000357
 21
41.400000000000091
 31
0.0
  0
LINE
  8
DETAIL
  6
CONTINUOUS
 62
     5
 10
-50.400000000000553
 20
48.600000000000144
 30
0.0
 11
-57.600000000000357
 21
48.600000000000144
 31
0.0
  0
LINE
  8
DETAIL
  6
CONTINUOUS
 62
     5
 10
-57.600000000000357
 20
41.400000000000091
 30
0.0
 11
-57.600000000000357
 21
48.600000000000144
 31
0.0
  0
LINE
  8
DETAIL
  6
CONTINUOUS
 62
     5
 10
-50.400000000000553
 20
50.400000000000091
 30
0.0
 11
-50.400000000000553
 21
57.600000000000144
 31
0.0
  0
LINE
  8
DETAIL
  6
CONTINUOUS
 62
     5
 10
-50.400000000000553
 20
50.400000000000091
 30
0.0
 11
-57.600000000000357
 21
50.400000000000091
 31
0.0
  0
LINE
  8
DETAIL
  6
CONTINUOUS
 62
     5
 10
-50.400000000000553
 20
57.600000000000144
 30
0.0
 11
-57.600000000000357
 21
57.600000000000144
 31
0.0
  0
LINE
  8
DETAIL
  6
CONTINUOUS
 62
     5
 10
-57.600000000000357
 20
50.400000000000091
 30
0.0
 11
-57.600000000000357
 21
57.600000000000144
 31
0.0
  0
LINE
  8
DETAIL
  6
CONTINUOUS
 62
     5
 10
-50.400000000000553
 20
59.400000000000091
 30
0.0
 11
-50.400000000000553
 21
66.600000000000136
 31
0.0
  0
LINE
  8
DETAIL
  6
CONTINUOUS
 62
     5
 10
-50.400000000000553
 20
59.400000000000091
 30
0.0
 11
-57.600000000000357
 21
59.400000000000091
 31
0.0
  0
LINE
  8
DETAIL
  6
CONTINUOUS
 62
     5
 10
-50.400000000000553
 20
66.600000000000136
 30
0.0
 11
-57.600000000000357
 21
66.600000000000136
 31
0.0
  0
LINE
  8
DETAIL
  6
CONTINUOUS
 62
     5
 10
-57.600000000000357
 20
59.400000000000091
 30
0.0
 11
-57.600000000000357
 21
66.600000000000136
 31
0.0
  0
LINE
  8
DETAIL
  6
CONTINUOUS
 62
     5
 10
-50.400000000000553
 20
68.400000000000091
 30
0.0
 11
-50.400000000000553
 21
75.600000000000136
 31
0.0
  0
LINE
  8
DETAIL
  6
CONTINUOUS
 62
     5
 10
-50.400000000000553
 20
68.400000000000091
 30
0.0
 11
-57.600000000000357
 21
68.400000000000091
 31
0.0
  0
LINE
  8
DETAIL
  6
CONTINUOUS
 62
     5
 10
-50.400000000000553
 20
75.600000000000136
 30
0.0
 11
-57.600000000000357
 21
75.600000000000136
 31
0.0
  0
LINE
  8
DETAIL
  6
CONTINUOUS
 62
     5
 10
-57.600000000000357
 20
68.400000000000091
 30
0.0
 11
-57.600000000000357
 21
75.600000000000136
 31
0.0
  0
LINE
  8
DETAIL
  6
CONTINUOUS
 62
     5
 10
-50.400000000000553
 20
77.400000000000091
 30
0.0
 11
-50.400000000000553
 21
84.600000000000136
 31
0.0
  0
LINE
  8
DETAIL
  6
CONTINUOUS
 62
     5
 10
-50.400000000000553
 20
77.400000000000091
 30
0.0
 11
-57.600000000000357
 21
77.400000000000091
 31
0.0
  0
LINE
  8
DETAIL
  6
CONTINUOUS
 62
     5
 10
-50.400000000000553
 20
84.600000000000136
 30
0.0
 11
-57.600000000000357
 21
84.600000000000136
 31
0.0
  0
LINE
  8
DETAIL
  6
CONTINUOUS
 62
     5
 10
-57.600000000000357
 20
77.400000000000091
 30
0.0
 11
-57.600000000000357
 21
84.600000000000136
 31
0.0
  0
LINE
  8
DETAIL
  6
CONTINUOUS
 62
     5
 10
-50.400000000000553
 20
86.400000000000091
 30
0.0
 11
-50.400000000000553
 21
93.600000000000136
 31
0.0
  0
LINE
  8
DETAIL
  6
CONTINUOUS
 62
     5
 10
-50.400000000000553
 20
86.400000000000091
 30
0.0
 11
-57.600000000000357
 21
86.400000000000091
 31
0.0
  0
LINE
  8
DETAIL
  6
CONTINUOUS
 62
     5
 10
-50.400000000000553
 20
93.600000000000136
 30
0.0
 11
-57.600000000000357
 21
93.600000000000136
 31
0.0
  0
LINE
  8
DETAIL
  6
CONTINUOUS
 62
     5
 10
-57.600000000000357
 20
86.400000000000091
 30
0.0
 11
-57.600000000000357
 21
93.600000000000136
 31
0.0
  0
LINE
  8
DETAIL
  6
CONTINUOUS
 62
     5
 10
-41.400000000000553
 20
41.400000000000091
 30
0.0
 11
-41.400000000000553
 21
48.600000000000144
 31
0.0
  0
LINE
  8
DETAIL
  6
CONTINUOUS
 62
     5
 10
-41.400000000000553
 20
41.400000000000091
 30
0.0
 11
-48.600000000000357
 21
41.400000000000091
 31
0.0
  0
LINE
  8
DETAIL
  6
CONTINUOUS
 62
     5
 10
-41.400000000000553
 20
48.600000000000144
 30
0.0
 11
-48.600000000000357
 21
48.600000000000144
 31
0.0
  0
LINE
  8
DETAIL
  6
CONTINUOUS
 62
     5
 10
-48.600000000000357
 20
41.400000000000091
 30
0.0
 11
-48.600000000000357
 21
48.600000000000144
 31
0.0
  0
LINE
  8
DETAIL
  6
CONTINUOUS
 62
     5
 10
-41.400000000000553
 20
50.400000000000091
 30
0.0
 11
-41.400000000000553
 21
57.600000000000144
 31
0.0
  0
LINE
  8
DETAIL
  6
CONTINUOUS
 62
     5
 10
-41.400000000000553
 20
50.400000000000091
 30
0.0
 11
-48.600000000000357
 21
50.400000000000091
 31
0.0
  0
LINE
  8
DETAIL
  6
CONTINUOUS
 62
     5
 10
-41.400000000000553
 20
57.600000000000144
 30
0.0
 11
-48.600000000000357
 21
57.600000000000144
 31
0.0
  0
LINE
  8
DETAIL
  6
CONTINUOUS
 62
     5
 10
-48.600000000000357
 20
50.400000000000091
 30
0.0
 11
-48.600000000000357
 21
57.600000000000144
 31
0.0
  0
LINE
  8
DETAIL
  6
CONTINUOUS
 62
     5
 10
-41.400000000000553
 20
59.400000000000091
 30
0.0
 11
-41.400000000000553
 21
66.600000000000136
 31
0.0
  0
LINE
  8
DETAIL
  6
CONTINUOUS
 62
     5
 10
-41.400000000000553
 20
59.400000000000091
 30
0.0
 11
-48.600000000000357
 21
59.400000000000091
 31
0.0
  0
LINE
  8
DETAIL
  6
CONTINUOUS
 62
     5
 10
-41.400000000000553
 20
66.600000000000136
 30
0.0
 11
-48.600000000000357
 21
66.600000000000136
 31
0.0
  0
LINE
  8
DETAIL
  6
CONTINUOUS
 62
     5
 10
-48.600000000000357
 20
59.400000000000091
 30
0.0
 11
-48.600000000000357
 21
66.600000000000136
 31
0.0
  0
LINE
  8
DETAIL
  6
CONTINUOUS
 62
     5
 10
-41.400000000000553
 20
68.400000000000091
 30
0.0
 11
-41.400000000000553
 21
75.600000000000136
 31
0.0
  0
LINE
  8
DETAIL
  6
CONTINUOUS
 62
     5
 10
-41.400000000000553
 20
68.400000000000091
 30
0.0
 11
-48.600000000000357
 21
68.400000000000091
 31
0.0
  0
LINE
  8
DETAIL
  6
CONTINUOUS
 62
     5
 10
-41.400000000000553
 20
75.600000000000136
 30
0.0
 11
-48.600000000000357
 21
75.600000000000136
 31
0.0
  0
LINE
  8
DETAIL
  6
CONTINUOUS
 62
     5
 10
-48.600000000000357
 20
68.400000000000091
 30
0.0
 11
-48.600000000000357
 21
75.600000000000136
 31
0.0
  0
LINE
  8
DETAIL
  6
CONTINUOUS
 62
     5
 10
-41.400000000000553
 20
77.400000000000091
 30
0.0
 11
-41.400000000000553
 21
84.600000000000136
 31
0.0
  0
LINE
  8
DETAIL
  6
CONTINUOUS
 62
     5
 10
-41.400000000000553
 20
77.400000000000091
 30
0.0
 11
-48.600000000000357
 21
77.400000000000091
 31
0.0
  0
LINE
  8
DETAIL
  6
CONTINUOUS
 62
     5
 10
-41.400000000000553
 20
84.600000000000136
 30
0.0
 11
-48.600000000000357
 21
84.600000000000136
 31
0.0
  0
LINE
  8
DETAIL
  6
CONTINUOUS
 62
     5
 10
-48.600000000000357
 20
77.400000000000091
 30
0.0
 11
-48.600000000000357
 21
84.600000000000136
 31
0.0
  0
LINE
  8
DETAIL
  6
CONTINUOUS
 62
     5
 10
-41.400000000000553
 20
86.400000000000091
 30
0.0
 11
-41.400000000000553
 21
93.600000000000136
 31
0.0
  0
LINE
  8
DETAIL
  6
CONTINUOUS
 62
     5
 10
-41.400000000000553
 20
86.400000000000091
 30
0.0
 11
-48.600000000000357
 21
86.400000000000091
 31
0.0
  0
LINE
  8
DETAIL
  6
CONTINUOUS
 62
     5
 10
-41.400000000000553
 20
93.600000000000136
 30
0.0
 11
-48.600000000000357
 21
93.600000000000136
 31
0.0
  0
LINE
  8
DETAIL
  6
CONTINUOUS
 62
     5
 10
-48.600000000000357
 20
86.400000000000091
 30
0.0
 11
-48.600000000000357
 21
93.600000000000136
 31
0.0
  0
LINE
  8
DETAIL
  6
CONTINUOUS
 62
     5
 10
-32.400000000000553
 20
50.400000000000091
 30
0.0
 11
-32.400000000000553
 21
57.600000000000144
 31
0.0
  0
LINE
  8
DETAIL
  6
CONTINUOUS
 62
     5
 10
-32.400000000000553
 20
50.400000000000091
 30
0.0
 11
-39.600000000000357
 21
50.400000000000091
 31
0.0
  0
LINE
  8
DETAIL
  6
CONTINUOUS
 62
     5
 10
-32.400000000000553
 20
57.600000000000144
 30
0.0
 11
-39.600000000000357
 21
57.600000000000144
 31
0.0
  0
LINE
  8
DETAIL
  6
CONTINUOUS
 62
     5
 10
-39.600000000000357
 20
50.400000000000091
 30
0.0
 11
-39.600000000000357
 21
57.600000000000144
 31
0.0
  0
LINE
  8
DETAIL
  6
CONTINUOUS
 62
     5
 10
-32.400000000000553
 20
59.400000000000091
 30
0.0
 11
-32.400000000000553
 21
66.600000000000136
 31
0.0
  0
LINE
  8
DETAIL
  6
CONTINUOUS
 62
     5
 10
-32.400000000000553
 20
59.400000000000091
 30
0.0
 11
-39.600000000000357
 21
59.400000000000091
 31
0.0
  0
LINE
  8
DETAIL
  6
CONTINUOUS
 62
     5
 10
-32.400000000000553
 20
66.600000000000136
 30
0.0
 11
-39.600000000000357
 21
66.600000000000136
 31
0.0
  0
LINE
  8
DETAIL
  6
CONTINUOUS
 62
     5
 10
-39.600000000000357
 20
59.400000000000091
 30
0.0
 11
-39.600000000000357
 21
66.600000000000136
 31
0.0
  0
LINE
  8
DETAIL
  6
CONTINUOUS
 62
     5
 10
-32.400000000000553
 20
68.400000000000091
 30
0.0
 11
-32.400000000000553
 21
75.600000000000136
 31
0.0
  0
LINE
  8
DETAIL
  6
CONTINUOUS
 62
     5
 10
-32.400000000000553
 20
68.400000000000091
 30
0.0
 11
-39.600000000000357
 21
68.400000000000091
 31
0.0
  0
LINE
  8
DETAIL
  6
CONTINUOUS
 62
     5
 10
-32.400000000000553
 20
75.600000000000136
 30
0.0
 11
-39.600000000000357
 21
75.600000000000136
 31
0.0
  0
LINE
  8
DETAIL
  6
CONTINUOUS
 62
     5
 10
-39.600000000000357
 20
68.400000000000091
 30
0.0
 11
-39.600000000000357
 21
75.600000000000136
 31
0.0
  0
LINE
  8
DETAIL
  6
CONTINUOUS
 62
     5
 10
-32.400000000000553
 20
77.400000000000091
 30
0.0
 11
-32.400000000000553
 21
84.600000000000136
 31
0.0
  0
LINE
  8
DETAIL
  6
CONTINUOUS
 62
     5
 10
-32.400000000000553
 20
77.400000000000091
 30
0.0
 11
-39.600000000000357
 21
77.400000000000091
 31
0.0
  0
LINE
  8
DETAIL
  6
CONTINUOUS
 62
     5
 10
-32.400000000000553
 20
84.600000000000136
 30
0.0
 11
-39.600000000000357
 21
84.600000000000136
 31
0.0
  0
LINE
  8
DETAIL
  6
CONTINUOUS
 62
     5
 10
-39.600000000000357
 20
77.400000000000091
 30
0.0
 11
-39.600000000000357
 21
84.600000000000136
 31
0.0
  0
LINE
  8
DETAIL
  6
CONTINUOUS
 62
     5
 10
-32.400000000000553
 20
86.400000000000091
 30
0.0
 11
-32.400000000000553
 21
93.600000000000136
 31
0.0
  0
LINE
  8
DETAIL
  6
CONTINUOUS
 62
     5
 10
-32.400000000000553
 20
86.400000000000091
 30
0.0
 11
-39.600000000000357
 21
86.400000000000091
 31
0.0
  0
LINE
  8
DETAIL
  6
CONTINUOUS
 62
     5
 10
-32.400000000000553
 20
93.600000000000136
 30
0.0
 11
-39.600000000000357
 21
93.600000000000136
 31
0.0
  0
LINE
  8
DETAIL
  6
CONTINUOUS
 62
     5
 10
-39.600000000000357
 20
86.400000000000091
 30
0.0
 11
-39.600000000000357
 21
93.600000000000136
 31
0.0
  0
LINE
  8
DETAIL
  6
CONTINUOUS
 62
     5
 10
-23.400000000000549
 20
59.400000000000091
 30
0.0
 11
-23.400000000000549
 21
66.600000000000136
 31
0.0
  0
LINE
  8
DETAIL
  6
CONTINUOUS
 62
     5
 10
-23.400000000000549
 20
59.400000000000091
 30
0.0
 11
-30.60000000000036
 21
59.400000000000091
 31
0.0
  0
LINE
  8
DETAIL
  6
CONTINUOUS
 62
     5
 10
-23.400000000000549
 20
66.600000000000136
 30
0.0
 11
-30.60000000000036
 21
66.600000000000136
 31
0.0
  0
LINE
  8
DETAIL
  6
CONTINUOUS
 62
     5
 10
-30.60000000000036
 20
59.400000000000091
 30
0.0
 11
-30.60000000000036
 21
66.600000000000136
 31
0.0
  0
LINE
  8
DETAIL
  6
CONTINUOUS
 62
     5
 10
-23.400000000000549
 20
68.400000000000091
 30
0.0
 11
-23.400000000000549
 21
75.600000000000136
 31
0.0
  0
LINE
  8
DETAIL
  6
CONTINUOUS
 62
     5
 10
-23.400000000000549
 20
68.400000000000091
 30
0.0
 11
-30.60000000000036
 21
68.400000000000091
 31
0.0
  0
LINE
  8
DETAIL
  6
CONTINUOUS
 62
     5
 10
-23.400000000000549
 20
75.600000000000136
 30
0.0
 11
-30.60000000000036
 21
75.600000000000136
 31
0.0
  0
LINE
  8
DETAIL
  6
CONTINUOUS
 62
     5
 10
-30.60000000000036
 20
68.400000000000091
 30
0.0
 11
-30.60000000000036
 21
75.600000000000136
 31
0.0
  0
LINE
  8
DETAIL
  6
CONTINUOUS
 62
     5
 10
-23.400000000000549
 20
77.400000000000091
 30
0.0
 11
-23.400000000000549
 21
84.600000000000136
 31
0.0
  0
LINE
  8
DETAIL
  6
CONTINUOUS
 62
     5
 10
-23.400000000000549
 20
77.400000000000091
 30
0.0
 11
-30.60000000000036
 21
77.400000000000091
 31
0.0
  0
LINE
  8
DETAIL
  6
CONTINUOUS
 62
     5
 10
-23.400000000000549
 20
84.600000000000136
 30
0.0
 11
-30.60000000000036
 21
84.600000000000136
 31
0.0
  0
LINE
  8
DETAIL
  6
CONTINUOUS
 62
     5
 10
-30.60000000000036
 20
77.400000000000091
 30
0.0
 11
-30.60000000000036
 21
84.600000000000136
 31
0.0
  0
LINE
  8
DETAIL
  6
CONTINUOUS
 62
     5
 10
-23.400000000000549
 20
86.400000000000091
 30
0.0
 11
-23.400000000000549
 21
93.600000000000136
 31
0.0
  0
LINE
  8
DETAIL
  6
CONTINUOUS
 62
     5
 10
-23.400000000000549
 20
86.400000000000091
 30
0.0
 11
-30.60000000000036
 21
86.400000000000091
 31
0.0
  0
LINE
  8
DETAIL
  6
CONTINUOUS
 62
     5
 10
-23.400000000000549
 20
93.600000000000136
 30
0.0
 11
-30.60000000000036
 21
93.600000000000136
 31
0.0
  0
LINE
  8
DETAIL
  6
CONTINUOUS
 62
     5
 10
-30.60000000000036
 20
86.400000000000091
 30
0.0
 11
-30.60000000000036
 21
93.600000000000136
 31
0.0
  0
LINE
  8
DETAIL
  6
CONTINUOUS
 62
     5
 10
-14.400000000000549
 20
68.400000000000091
 30
0.0
 11
-14.400000000000549
 21
75.600000000000136
 31
0.0
  0
LINE
  8
DETAIL
  6
CONTINUOUS
 62
     5
 10
-14.400000000000549
 20
68.400000000000091
 30
0.0
 11
-21.60000000000036
 21
68.400000000000091
 31
0.0
  0
LINE
  8
DETAIL
  6
CONTINUOUS
 62
     5
 10
-14.400000000000549
 20
75.600000000000136
 30
0.0
 11
-21.60000000000036
 21
75.600000000000136
 31
0.0
  0
LINE
  8
DETAIL
  6
CONTINUOUS
 62
     5
 10
-21.60000000000036
 20
68.400000000000091
 30
0.0
 11
-21.60000000000036
 21
75.600000000000136
 31
0.0
  0
LINE
  8
DETAIL
  6
CONTINUOUS
 62
     5
 10
-14.400000000000549
 20
77.400000000000091
 30
0.0
 11
-14.400000000000549
 21
84.600000000000136
 31
0.0
  0
LINE
  8
DETAIL
  6
CONTINUOUS
 62
     5
 10
-14.400000000000549
 20
77.400000000000091
 30
0.0
 11
-21.60000000000036
 21
77.400000000000091
 31
0.0
  0
LINE
  8
DETAIL
  6
CONTINUOUS
 62
     5
 10
-14.400000000000549
 20
84.600000000000136
 30
0.0
 11
-21.60000000000036
 21
84.600000000000136
 31
0.0
  0
LINE
  8
DETAIL
  6
CONTINUOUS
 62
     5
 10
-21.60000000000036
 20
77.400000000000091
 30
0.0
 11
-21.60000000000036
 21
84.600000000000136
 31
0.0
  0
LINE
  8
DETAIL
  6
CONTINUOUS
 62
     5
 10
-14.400000000000549
 20
86.400000000000091
 30
0.0
 11
-14.400000000000549
 21
93.600000000000136
 31
0.0
  0
LINE
  8
DETAIL
  6
CONTINUOUS
 62
     5
 10
-14.400000000000549
 20
86.400000000000091
 30
0.0
 11
-21.60000000000036
 21
86.400000000000091
 31
0.0
  0
LINE
  8
DETAIL
  6
CONTINUOUS
 62
     5
 10
-14.400000000000549
 20
93.600000000000136
 30
0.0
 11
-21.60000000000036
 21
93.600000000000136
 31
0.0
  0
LINE
  8
DETAIL
  6
CONTINUOUS
 62
     5
 10
-21.60000000000036
 20
86.400000000000091
 30
0.0
 11
-21.60000000000036
 21
93.600000000000136
 31
0.0
  0
LINE
  8
DETAIL
  6
CONTINUOUS
 62
     5
 10
-5.4000000000005457
 20
77.400000000000091
 30
0.0
 11
-5.4000000000005457
 21
84.600000000000136
 31
0.0
  0
LINE
  8
DETAIL
  6
CONTINUOUS
 62
     5
 10
-5.4000000000005457
 20
77.400000000000091
 30
0.0
 11
-12.60000000000036
 21
77.400000000000091
 31
0.0
  0
LINE
  8
DETAIL
  6
CONTINUOUS
 62
     5
 10
-5.4000000000005457
 20
84.600000000000136
 30
0.0
 11
-12.60000000000036
 21
84.600000000000136
 31
0.0
  0
LINE
  8
DETAIL
  6
CONTINUOUS
 62
     5
 10
-12.60000000000036
 20
77.400000000000091
 30
0.0
 11
-12.60000000000036
 21
84.600000000000136
 31
0.0
  0
LINE
  8
DETAIL
  6
CONTINUOUS
 62
     5
 10
-5.4000000000005457
 20
86.400000000000091
 30
0.0
 11
-5.4000000000005457
 21
93.600000000000136
 31
0.0
  0
LINE
  8
DETAIL
  6
CONTINUOUS
 62
     5
 10
-5.4000000000005457
 20
86.400000000000091
 30
0.0
 11
-12.60000000000036
 21
86.400000000000091
 31
0.0
  0
LINE
  8
DETAIL
  6
CONTINUOUS
 62
     5
 10
-5.4000000000005457
 20
93.600000000000136
 30
0.0
 11
-12.60000000000036
 21
93.600000000000136
 31
0.0
  0
LINE
  8
DETAIL
  6
CONTINUOUS
 62
     5
 10
-12.60000000000036
 20
86.400000000000091
 30
0.0
 11
-12.60000000000036
 21
93.600000000000136
 31
0.0
  0
LINE
  8
DETAIL
  6
CONTINUOUS
 62
     5
 10
-3.6000000000003638
 20
86.400000000000091
 30
0.0
 11
-3.6000000000003638
 21
93.600000000000136
 31
0.0
  0
LINE
  8
DETAIL
  6
CONTINUOUS
 62
     5
 10
-57.600000000000357
 20
32.400000000000091
 30
0.0
 11
-50.400000000000553
 21
32.400000000000091
 31
0.0
  0
LINE
  8
DETAIL
  6
CONTINUOUS
 62
     5
 10
-50.400000000000553
 20
32.400000000000091
 30
0.0
 11
-50.400000000000553
 21
39.600000000000144
 31
0.0
  0
LINE
  8
DETAIL
  6
CONTINUOUS
 62
     5
 10
-59.400000000000553
 20
32.400000000000091
 30
0.0
 11
-59.400000000000553
 21
39.600000000000144
 31
0.0
  0
LINE
  8
DETAIL
  6
CONTINUOUS
 62
     5
 10
-75.600000000000364
 20
14.400000000000089
 30
0.0
 11
-68.400000000000546
 21
14.400000000000089
 31
0.0
  0
LINE
  8
DETAIL
  6
CONTINUOUS
 62
     5
 10
-68.400000000000546
 20
14.400000000000089
 30
0.0
 11
-68.400000000000546
 21
21.60000000000014
 31
0.0
  0
LINE
  8
DETAIL
  6
CONTINUOUS
 62
     5
 10
-86.400000000000546
 20
3.600000000000136
 30
0.0
 11
-93.600000000000364
 21
3.600000000000136
 31
0.0
  0
LINE
  8
DETAIL
  6
CONTINUOUS
 62
     5
 10
-86.400000000000546
 20
5.4000000000000909
 30
0.0
 11
-86.400000000000546
 21
12.60000000000014
 31
0.0
  0
LINE
  8
DETAIL
  6
CONTINUOUS
 62
     5
 10
-86.400000000000546
 20
5.4000000000000909
 30
0.0
 11
-93.600000000000364
 21
5.4000000000000909
 31
0.0
  0
LINE
  8
DETAIL
  6
CONTINUOUS
 62
     5
 10
-86.400000000000546
 20
12.60000000000014
 30
0.0
 11
-93.600000000000364
 21
12.60000000000014
 31
0.0
  0
LINE
  8
DETAIL
  6
CONTINUOUS
 62
     5
 10
-93.600000000000364
 20
5.4000000000000909
 30
0.0
 11
-93.600000000000364
 21
12.60000000000014
 31
0.0
  0
LINE
  8
DETAIL
  6
CONTINUOUS
 62
     5
 10
-86.400000000000546
 20
14.400000000000089
 30
0.0
 11
-86.400000000000546
 21
21.60000000000014
 31
0.0
  0
LINE
  8
DETAIL
  6
CONTINUOUS
 62
     5
 10
-86.400000000000546
 20
14.400000000000089
 30
0.0
 11
-93.600000000000364
 21
14.400000000000089
 31
0.0
  0
LINE
  8
DETAIL
  6
CONTINUOUS
 62
     5
 10
-86.400000000000546
 20
21.60000000000014
 30
0.0
 11
-93.600000000000364
 21
21.60000000000014
 31
0.0
  0
LINE
  8
DETAIL
  6
CONTINUOUS
 62
     5
 10
-93.600000000000364
 20
14.400000000000089
 30
0.0
 11
-93.600000000000364
 21
21.60000000000014
 31
0.0
  0
LINE
  8
DETAIL
  6
CONTINUOUS
 62
     5
 10
-86.400000000000546
 20
23.400000000000091
 30
0.0
 11
-86.400000000000546
 21
30.60000000000014
 31
0.0
  0
LINE
  8
DETAIL
  6
CONTINUOUS
 62
     5
 10
-86.400000000000546
 20
23.400000000000091
 30
0.0
 11
-93.600000000000364
 21
23.400000000000091
 31
0.0
  0
LINE
  8
DETAIL
  6
CONTINUOUS
 62
     5
 10
-86.400000000000546
 20
30.60000000000014
 30
0.0
 11
-93.600000000000364
 21
30.60000000000014
 31
0.0
  0
LINE
  8
DETAIL
  6
CONTINUOUS
 62
     5
 10
-93.600000000000364
 20
23.400000000000091
 30
0.0
 11
-93.600000000000364
 21
30.60000000000014
 31
0.0
  0
LINE
  8
DETAIL
  6
CONTINUOUS
 62
     5
 10
-86.400000000000546
 20
32.400000000000091
 30
0.0
 11
-86.400000000000546
 21
39.600000000000144
 31
0.0
  0
LINE
  8
DETAIL
  6
CONTINUOUS
 62
     5
 10
-86.400000000000546
 20
32.400000000000091
 30
0.0
 11
-93.600000000000364
 21
32.400000000000091
 31
0.0
  0
LINE
  8
DETAIL
  6
CONTINUOUS
 62
     5
 10
-93.600000000000364
 20
32.400000000000091
 30
0.0
 11
-93.600000000000364
 21
39.600000000000144
 31
0.0
  0
LINE
  8
DETAIL
  6
CONTINUOUS
 62
     5
 10
-77.400000000000546
 20
5.4000000000000909
 30
0.0
 11
-77.400000000000546
 21
12.60000000000014
 31
0.0
  0
LINE
  8
DETAIL
  6
CONTINUOUS
 62
     5
 10
-77.400000000000546
 20
5.4000000000000909
 30
0.0
 11
-84.600000000000364
 21
5.4000000000000909
 31
0.0
  0
LINE
  8
DETAIL
  6
CONTINUOUS
 62
     5
 10
-77.400000000000546
 20
12.60000000000014
 30
0.0
 11
-84.600000000000364
 21
12.60000000000014
 31
0.0
  0
LINE
  8
DETAIL
  6
CONTINUOUS
 62
     5
 10
-84.600000000000364
 20
5.4000000000000909
 30
0.0
 11
-84.600000000000364
 21
12.60000000000014
 31
0.0
  0
LINE
  8
DETAIL
  6
CONTINUOUS
 62
     5
 10
-77.400000000000546
 20
14.400000000000089
 30
0.0
 11
-77.400000000000546
 21
21.60000000000014
 31
0.0
  0
LINE
  8
DETAIL
  6
CONTINUOUS
 62
     5
 10
-77.400000000000546
 20
14.400000000000089
 30
0.0
 11
-84.600000000000364
 21
14.400000000000089
 31
0.0
  0
LINE
  8
DETAIL
  6
CONTINUOUS
 62
     5
 10
-77.400000000000546
 20
21.60000000000014
 30
0.0
 11
-84.600000000000364
 21
21.60000000000014
 31
0.0
  0
LINE
  8
DETAIL
  6
CONTINUOUS
 62
     5
 10
-84.600000000000364
 20
14.400000000000089
 30
0.0
 11
-84.600000000000364
 21
21.60000000000014
 31
0.0
  0
LINE
  8
DETAIL
  6
CONTINUOUS
 62
     5
 10
-77.400000000000546
 20
23.400000000000091
 30
0.0
 11
-77.400000000000546
 21
30.60000000000014
 31
0.0
  0
LINE
  8
DETAIL
  6
CONTINUOUS
 62
     5
 10
-77.400000000000546
 20
23.400000000000091
 30
0.0
 11
-84.600000000000364
 21
23.400000000000091
 31
0.0
  0
LINE
  8
DETAIL
  6
CONTINUOUS
 62
     5
 10
-77.400000000000546
 20
30.60000000000014
 30
0.0
 11
-84.600000000000364
 21
30.60000000000014
 31
0.0
  0
LINE
  8
DETAIL
  6
CONTINUOUS
 62
     5
 10
-84.600000000000364
 20
23.400000000000091
 30
0.0
 11
-84.600000000000364
 21
30.60000000000014
 31
0.0
  0
LINE
  8
DETAIL
  6
CONTINUOUS
 62
     5
 10
-77.400000000000546
 20
32.400000000000091
 30
0.0
 11
-77.400000000000546
 21
39.600000000000144
 31
0.0
  0
LINE
  8
DETAIL
  6
CONTINUOUS
 62
     5
 10
-77.400000000000546
 20
32.400000000000091
 30
0.0
 11
-84.600000000000364
 21
32.400000000000091
 31
0.0
  0
LINE
  8
DETAIL
  6
CONTINUOUS
 62
     5
 10
-84.600000000000364
 20
32.400000000000091
 30
0.0
 11
-84.600000000000364
 21
39.600000000000144
 31
0.0
  0
LINE
  8
DETAIL
  6
CONTINUOUS
 62
     5
 10
-68.400000000000546
 20
14.400000000000089
 30
0.0
 11
-68.400000000000546
 21
21.60000000000014
 31
0.0
  0
LINE
  8
DETAIL
  6
CONTINUOUS
 62
     5
 10
-68.400000000000546
 20
14.400000000000089
 30
0.0
 11
-75.600000000000364
 21
14.400000000000089
 31
0.0
  0
LINE
  8
DETAIL
  6
CONTINUOUS
 62
     5
 10
-68.400000000000546
 20
21.60000000000014
 30
0.0
 11
-75.600000000000364
 21
21.60000000000014
 31
0.0
  0
LINE
  8
DETAIL
  6
CONTINUOUS
 62
     5
 10
-75.600000000000364
 20
14.400000000000089
 30
0.0
 11
-75.600000000000364
 21
21.60000000000014
 31
0.0
  0
LINE
  8
DETAIL
  6
CONTINUOUS
 62
     5
 10
-68.400000000000546
 20
23.400000000000091
 30
0.0
 11
-68.400000000000546
 21
30.60000000000014
 31
0.0
  0
LINE
  8
DETAIL
  6
CONTINUOUS
 62
     5
 10
-68.400000000000546
 20
23.400000000000091
 30
0.0
 11
-75.600000000000364
 21
23.400000000000091
 31
0.0
  0
LINE
  8
DETAIL
  6
CONTINUOUS
 62
     5
 10
-68.400000000000546
 20
30.60000000000014
 30
0.0
 11
-75.600000000000364
 21
30.60000000000014
 31
0.0
  0
LINE
  8
DETAIL
  6
CONTINUOUS
 62
     5
 10
-75.600000000000364
 20
23.400000000000091
 30
0.0
 11
-75.600000000000364
 21
30.60000000000014
 31
0.0
  0
LINE
  8
DETAIL
  6
CONTINUOUS
 62
     5
 10
-68.400000000000546
 20
32.400000000000091
 30
0.0
 11
-68.400000000000546
 21
39.600000000000144
 31
0.0
  0
LINE
  8
DETAIL
  6
CONTINUOUS
 62
     5
 10
-68.400000000000546
 20
32.400000000000091
 30
0.0
 11
-75.600000000000364
 21
32.400000000000091
 31
0.0
  0
LINE
  8
DETAIL
  6
CONTINUOUS
 62
     5
 10
-75.600000000000364
 20
32.400000000000091
 30
0.0
 11
-75.600000000000364
 21
39.600000000000144
 31
0.0
  0
LINE
  8
DETAIL
  6
CONTINUOUS
 62
     5
 10
-59.400000000000553
 20
23.400000000000091
 30
0.0
 11
-59.400000000000553
 21
30.60000000000014
 31
0.0
  0
LINE
  8
DETAIL
  6
CONTINUOUS
 62
     5
 10
-59.400000000000553
 20
23.400000000000091
 30
0.0
 11
-66.600000000000364
 21
23.400000000000091
 31
0.0
  0
LINE
  8
DETAIL
  6
CONTINUOUS
 62
     5
 10
-59.400000000000553
 20
30.60000000000014
 30
0.0
 11
-66.600000000000364
 21
30.60000000000014
 31
0.0
  0
LINE
  8
DETAIL
  6
CONTINUOUS
 62
     5
 10
-66.600000000000364
 20
23.400000000000091
 30
0.0
 11
-66.600000000000364
 21
30.60000000000014
 31
0.0
  0
LINE
  8
DETAIL
  6
CONTINUOUS
 62
     5
 10
-59.400000000000553
 20
32.400000000000091
 30
0.0
 11
-59.400000000000553
 21
39.600000000000144
 31
0.0
  0
LINE
  8
DETAIL
  6
CONTINUOUS
 62
     5
 10
-59.400000000000553
 20
32.400000000000091
 30
0.0
 11
-66.600000000000364
 21
32.400000000000091
 31
0.0
  0
LINE
  8
DETAIL
  6
CONTINUOUS
 62
     5
 10
-66.600000000000364
 20
32.400000000000091
 30
0.0
 11
-66.600000000000364
 21
39.600000000000144
 31
0.0
  0
LINE
  8
DETAIL
  6
CONTINUOUS
 62
     5
 10
-57.600000000000357
 20
23.400000000000091
 30
0.0
 11
-57.600000000000357
 21
30.60000000000014
 31
0.0
  0
LINE
  8
DETAIL
  6
CONTINUOUS
 62
     5
 10
-50.400000000000553
 20
32.400000000000091
 30
0.0
 11
-50.400000000000553
 21
39.600000000000144
 31
0.0
  0
LINE
  8
DETAIL
  6
CONTINUOUS
 62
     5
 10
-50.400000000000553
 20
32.400000000000091
 30
0.0
 11
-57.600000000000357
 21
32.400000000000091
 31
0.0
  0
LINE
  8
DETAIL
  6
CONTINUOUS
 62
     5
 10
-57.600000000000357
 20
32.400000000000091
 30
0.0
 11
-57.600000000000357
 21
39.600000000000144
 31
0.0
  0
LINE
  8
DETAIL
  6
CONTINUOUS
 62
     5
 10
-142.0000000000006
 20
143.0
 30
0.0
 11
0.0
 21
143.0
 31
0.0
  0
LINE
  8
DETAIL
  6
CONTINUOUS
 62
     5
 10
0.0
 20
136.20564900000011
 30
0.0
 11
-135.20564900000039
 21
136.20564900000011
 31
0.0
  0
LINE
  8
DETAIL
  6
CONTINUOUS
 62
     5
 10
-95.5
 20
99.5
 30
0.0
 11
0.0
 21
99.5
 31
0.0
  0
LINE
  8
DETAIL
  6
CONTINUOUS
 62
     5
 10
-97.0
 20
101.0
 30
0.0
 11
0.0
 21
101.0
 31
0.0
  0
LINE
  8
DETAIL
  6
CONTINUOUS
 62
     5
 10
0.0
 20
93.600000000000136
 30
0.0
 11
-3.6000000000003638
 21
93.600000000000136
 31
0.0
  0
LINE
  8
DETAIL
  6
CONTINUOUS
 62
     5
 10
0.0
 20
86.400000000000091
 30
0.0
 11
-3.6000000000003638
 21
86.400000000000091
 31
0.0
  0
LINE
  8
DETAIL
  6
CONTINUOUS
 62
     5
 10
0.0
 20
84.600000000000136
 30
0.0
 11
-3.6000000000003638
 21
84.600000000000136
 31
0.0
  0
LINE
  8
DETAIL
  6
CONTINUOUS
 62
     5
 10
0.0
 20
77.400000000000091
 30
0.0
 11
-3.6000000000003638
 21
77.400000000000091
 31
0.0
  0
LINE
  8
DETAIL
  6
CONTINUOUS
 62
     5
 10
0.0
 20
75.600000000000136
 30
0.0
 11
-3.6000000000003638
 21
75.600000000000136
 31
0.0
  0
LINE
  8
DETAIL
  6
CONTINUOUS
 62
     5
 10
0.0
 20
68.400000000000091
 30
0.0
 11
-3.6000000000003638
 21
68.400000000000091
 31
0.0
  0
LINE
  8
DETAIL
  6
CONTINUOUS
 62
     5
 10
0.0
 20
66.600000000000136
 30
0.0
 11
-3.6000000000003638
 21
66.600000000000136
 31
0.0
  0
LINE
  8
DETAIL
  6
CONTINUOUS
 62
     5
 10
0.0
 20
59.400000000000091
 30
0.0
 11
-3.6000000000003638
 21
59.400000000000091
 31
0.0
  0
LINE
  8
DETAIL
  6
CONTINUOUS
 62
     5
 10
0.0
 20
57.600000000000144
 30
0.0
 11
-3.6000000000003638
 21
57.600000000000144
 31
0.0
  0
LINE
  8
DETAIL
  6
CONTINUOUS
 62
     5
 10
0.0
 20
50.400000000000091
 30
0.0
 11
-3.6000000000003638
 21
50.400000000000091
 31
0.0
  0
LINE
  8
DETAIL
  6
CONTINUOUS
 62
     5
 10
0.0
 20
48.600000000000144
 30
0.0
 11
-3.6000000000003638
 21
48.600000000000144
 31
0.0
  0
LINE
  8
DETAIL
  6
CONTINUOUS
 62
     5
 10
0.0
 20
41.400000000000091
 30
0.0
 11
-3.6000000000003638
 21
41.400000000000091
 31
0.0
  0
LINE
  8
DETAIL
  6
CONTINUOUS
 62
     5
 10
0.0
 20
39.600000000000144
 30
0.0
 11
-3.6000000000003638
 21
39.600000000000144
 31
0.0
  0
LINE
  8
DETAIL
  6
CONTINUOUS
 62
     5
 10
0.0
 20
32.400000000000091
 30
0.0
 11
-3.6000000000003638
 21
32.400000000000091
 31
0.0
  0
LINE
  8
DETAIL
  6
CONTINUOUS
 62
     5
 10
0.0
 20
30.60000000000014
 30
0.0
 11
-3.6000000000003638
 21
30.60000000000014
 31
0.0
  0
LINE
  8
DETAIL
  6
CONTINUOUS
 62
     5
 10
0.0
 20
23.400000000000091
 30
0.0
 11
-3.6000000000003638
 21
23.400000000000091
 31
0.0
  0
LINE
  8
DETAIL
  6
CONTINUOUS
 62
     5
 10
0.0
 20
21.60000000000014
 30
0.0
 11
-3.6000000000003638
 21
21.60000000000014
 31
0.0
  0
LINE
  8
DETAIL
  6
CONTINUOUS
 62
     5
 10
0.0
 20
14.400000000000089
 30
0.0
 11
-3.6000000000003638
 21
14.400000000000089
 31
0.0
  0
LINE
  8
DETAIL
  6
CONTINUOUS
 62
     5
 10
0.0
 20
12.60000000000014
 30
0.0
 11
-3.6000000000003638
 21
12.60000000000014
 31
0.0
  0
LINE
  8
DETAIL
  6
CONTINUOUS
 62
     5
 10
0.0
 20
5.4000000000000909
 30
0.0
 11
-3.6000000000003638
 21
5.4000000000000909
 31
0.0
  0
LINE
  8
DETAIL
  6
CONTINUOUS
 62
     5
 10
0.0
 20
3.600000000000136
 30
0.0
 11
-3.6000000000003638
 21
3.600000000000136
 31
0.0
  0
LINE
  8
DETAIL
  6
CONTINUOUS
 62
     5
 10
-97.0
 20
-100.9999999999999
 30
0.0
 11
0.0
 21
-100.9999999999999
 31
0.0
  0
LINE
  8
DETAIL
  6
CONTINUOUS
 62
     5
 10
-95.5
 20
-99.499999999999886
 30
0.0
 11
0.0
 21
-99.499999999999886
 31
0.0
  0
LINE
  8
DETAIL
  6
CONTINUOUS
 62
     5
 10
0.0
 20
-93.599999999999909
 30
0.0
 11
-3.6000000000003638
 21
-93.599999999999909
 31
0.0
  0
LINE
  8
DETAIL
  6
CONTINUOUS
 62
     5
 10
0.0
 20
-86.399999999999864
 30
0.0
 11
-3.6000000000003638
 21
-86.399999999999864
 31
0.0
  0
LINE
  8
DETAIL
  6
CONTINUOUS
 62
     5
 10
0.0
 20
-84.599999999999909
 30
0.0
 11
-3.6000000000003638
 21
-84.599999999999909
 31
0.0
  0
LINE
  8
DETAIL
  6
CONTINUOUS
 62
     5
 10
0.0
 20
-77.399999999999864
 30
0.0
 11
-3.6000000000003638
 21
-77.399999999999864
 31
0.0
  0
LINE
  8
DETAIL
  6
CONTINUOUS
 62
     5
 10
0.0
 20
-75.599999999999909
 30
0.0
 11
-3.6000000000003638
 21
-75.599999999999909
 31
0.0
  0
LINE
  8
DETAIL
  6
CONTINUOUS
 62
     5
 10
0.0
 20
-68.399999999999864
 30
0.0
 11
-3.6000000000003638
 21
-68.399999999999864
 31
0.0
  0
LINE
  8
DETAIL
  6
CONTINUOUS
 62
     5
 10
0.0
 20
-66.599999999999909
 30
0.0
 11
-3.6000000000003638
 21
-66.599999999999909
 31
0.0
  0
LINE
  8
DETAIL
  6
CONTINUOUS
 62
     5
 10
0.0
 20
-59.399999999999856
 30
0.0
 11
-3.6000000000003638
 21
-59.399999999999856
 31
0.0
  0
LINE
  8
DETAIL
  6
CONTINUOUS
 62
     5
 10
0.0
 20
-57.599999999999909
 30
0.0
 11
-3.6000000000003638
 21
-57.599999999999909
 31
0.0
  0
LINE
  8
DETAIL
  6
CONTINUOUS
 62
     5
 10
0.0
 20
-50.399999999999856
 30
0.0
 11
-3.6000000000003638
 21
-50.399999999999856
 31
0.0
  0
LINE
  8
DETAIL
  6
CONTINUOUS
 62
     5
 10
0.0
 20
-48.599999999999909
 30
0.0
 11
-3.6000000000003638
 21
-48.599999999999909
 31
0.0
  0
LINE
  8
DETAIL
  6
CONTINUOUS
 62
     5
 10
0.0
 20
-41.399999999999856
 30
0.0
 11
-3.6000000000003638
 21
-41.399999999999856
 31
0.0
  0
LINE
  8
DETAIL
  6
CONTINUOUS
 62
     5
 10
0.0
 20
-39.599999999999909
 30
0.0
 11
-3.6000000000003638
 21
-39.599999999999909
 31
0.0
  0
LINE
  8
DETAIL
  6
CONTINUOUS
 62
     5
 10
0.0
 20
-32.399999999999856
 30
0.0
 11
-3.6000000000003638
 21
-32.399999999999856
 31
0.0
  0
LINE
  8
DETAIL
  6
CONTINUOUS
 62
     5
 10
0.0
 20
-30.599999999999909
 30
0.0
 11
-3.6000000000003638
 21
-30.599999999999909
 31
0.0
  0
LINE
  8
DETAIL
  6
CONTINUOUS
 62
     5
 10
0.0
 20
-23.39999999999986
 30
0.0
 11
-3.6000000000003638
 21
-23.39999999999986
 31
0.0
  0
LINE
  8
DETAIL
  6
CONTINUOUS
 62
     5
 10
0.0
 20
-21.599999999999909
 30
0.0
 11
-3.6000000000003638
 21
-21.599999999999909
 31
0.0
  0
LINE
  8
DETAIL
  6
CONTINUOUS
 62
     5
 10
0.0
 20
-14.39999999999986
 30
0.0
 11
-3.6000000000003638
 21
-14.39999999999986
 31
0.0
  0
LINE
  8
DETAIL
  6
CONTINUOUS
 62
     5
 10
0.0
 20
-12.599999999999911
 30
0.0
 11
-3.6000000000003638
 21
-12.599999999999911
 31
0.0
  0
LINE
  8
DETAIL
  6
CONTINUOUS
 62
     5
 10
0.0
 20
-5.3999999999998636
 30
0.0
 11
-3.6000000000003638
 21
-5.3999999999998636
 31
0.0
  0
LINE
  8
DETAIL
  6
CONTINUOUS
 62
     5
 10
0.0
 20
-3.5999999999999091
 30
0.0
 11
-3.6000000000003638
 21
-3.5999999999999091
 31
0.0
  0
LINE
  8
DETAIL
  6
CONTINUOUS
 62
     5
 10
-142.0000000000006
 20
-142.99999999999989
 30
0.0
 11
0.0
 21
-142.99999999999989
 31
0.0
  0
LINE
  8
DETAIL
  6
CONTINUOUS
 62
     5
 10
0.0
 20
-136.20564999999991
 30
0.0
 11
-135.20564900000039
 21
-136.20564999999991
 31
0.0
  0
LINE
  8
DETAIL
  6
CONTINUOUS
 62
     5
 10
3.5999999999994539
 20
3.600000000000136
 30
0.0
 11
3.5999999999994539
 21
-3.5999999999999091
 31
0.0
  0
LINE
  8
DETAIL
  6
CONTINUOUS
 62
     5
 10
12.599999999999451
 20
3.600000000000136
 30
0.0
 11
12.599999999999451
 21
-3.5999999999999091
 31
0.0
  0
LINE
  8
DETAIL
  6
CONTINUOUS
 62
     5
 10
5.3999999999996362
 20
3.600000000000136
 30
0.0
 11
5.3999999999996362
 21
-3.5999999999999091
 31
0.0
  0
LINE
  8
DETAIL
  6
CONTINUOUS
 62
     5
 10
5.3999999999996362
 20
-3.5999999999999091
 30
0.0
 11
12.599999999999451
 21
-3.5999999999999091
 31
0.0
  0
LINE
  8
DETAIL
  6
CONTINUOUS
 62
     5
 10
21.599999999999451
 20
3.600000000000136
 30
0.0
 11
21.599999999999451
 21
-3.5999999999999091
 31
0.0
  0
LINE
  8
DETAIL
  6
CONTINUOUS
 62
     5
 10
14.39999999999964
 20
3.600000000000136
 30
0.0
 11
14.39999999999964
 21
-3.5999999999999091
 31
0.0
  0
LINE
  8
DETAIL
  6
CONTINUOUS
 62
     5
 10
14.39999999999964
 20
-3.5999999999999091
 30
0.0
 11
21.599999999999451
 21
-3.5999999999999091
 31
0.0
  0
LINE
  8
DETAIL
  6
CONTINUOUS
 62
     5
 10
30.599999999999451
 20
3.600000000000136
 30
0.0
 11
30.599999999999451
 21
-3.5999999999999091
 31
0.0
  0
LINE
  8
DETAIL
  6
CONTINUOUS
 62
     5
 10
23.39999999999964
 20
3.600000000000136
 30
0.0
 11
23.39999999999964
 21
-3.5999999999999091
 31
0.0
  0
LINE
  8
DETAIL
  6
CONTINUOUS
 62
     5
 10
23.39999999999964
 20
-3.5999999999999091
 30
0.0
 11
30.599999999999451
 21
-3.5999999999999091
 31
0.0
  0
LINE
  8
DETAIL
  6
CONTINUOUS
 62
     5
 10
39.599999999999447
 20
3.600000000000136
 30
0.0
 11
39.599999999999447
 21
-3.5999999999999091
 31
0.0
  0
LINE
  8
DETAIL
  6
CONTINUOUS
 62
     5
 10
32.399999999999643
 20
3.600000000000136
 30
0.0
 11
32.399999999999643
 21
-3.5999999999999091
 31
0.0
  0
LINE
  8
DETAIL
  6
CONTINUOUS
 62
     5
 10
32.399999999999643
 20
-3.5999999999999091
 30
0.0
 11
39.599999999999447
 21
-3.5999999999999091
 31
0.0
  0
LINE
  8
DETAIL
  6
CONTINUOUS
 62
     5
 10
48.599999999999447
 20
3.600000000000136
 30
0.0
 11
48.599999999999447
 21
-3.5999999999999091
 31
0.0
  0
LINE
  8
DETAIL
  6
CONTINUOUS
 62
     5
 10
41.399999999999643
 20
3.600000000000136
 30
0.0
 11
41.399999999999643
 21
-3.5999999999999091
 31
0.0
  0
LINE
  8
DETAIL
  6
CONTINUOUS
 62
     5
 10
41.399999999999643
 20
-3.5999999999999091
 30
0.0
 11
48.599999999999447
 21
-3.5999999999999091
 31
0.0
  0
LINE
  8
DETAIL
  6
CONTINUOUS
 62
     5
 10
57.599999999999447
 20
3.600000000000136
 30
0.0
 11
57.599999999999447
 21
-3.5999999999999091
 31
0.0
  0
LINE
  8
DETAIL
  6
CONTINUOUS
 62
     5
 10
50.399999999999643
 20
3.600000000000136
 30
0.0
 11
50.399999999999643
 21
-3.5999999999999091
 31
0.0
  0
LINE
  8
DETAIL
  6
CONTINUOUS
 62
     5
 10
50.399999999999643
 20
-3.5999999999999091
 30
0.0
 11
57.599999999999447
 21
-3.5999999999999091
 31
0.0
  0
LINE
  8
DETAIL
  6
CONTINUOUS
 62
     5
 10
66.599999999999454
 20
3.600000000000136
 30
0.0
 11
66.599999999999454
 21
-3.5999999999999091
 31
0.0
  0
LINE
  8
DETAIL
  6
CONTINUOUS
 62
     5
 10
59.399999999999643
 20
3.600000000000136
 30
0.0
 11
59.399999999999643
 21
-3.5999999999999091
 31
0.0
  0
LINE
  8
DETAIL
  6
CONTINUOUS
 62
     5
 10
59.399999999999643
 20
-3.5999999999999091
 30
0.0
 11
66.599999999999454
 21
-3.5999999999999091
 31
0.0
  0
LINE
  8
DETAIL
  6
CONTINUOUS
 62
     5
 10
75.599999999999454
 20
3.600000000000136
 30
0.0
 11
75.599999999999454
 21
-3.5999999999999091
 31
0.0
  0
LINE
  8
DETAIL
  6
CONTINUOUS
 62
     5
 10
68.399999999999636
 20
3.600000000000136
 30
0.0
 11
68.399999999999636
 21
-3.5999999999999091
 31
0.0
  0
LINE
  8
DETAIL
  6
CONTINUOUS
 62
     5
 10
68.399999999999636
 20
-3.5999999999999091
 30
0.0
 11
75.599999999999454
 21
-3.5999999999999091
 31
0.0
  0
LINE
  8
DETAIL
  6
CONTINUOUS
 62
     5
 10
84.599999999999454
 20
3.600000000000136
 30
0.0
 11
84.599999999999454
 21
-3.5999999999999091
 31
0.0
  0
LINE
  8
DETAIL
  6
CONTINUOUS
 62
     5
 10
77.399999999999636
 20
3.600000000000136
 30
0.0
 11
77.399999999999636
 21
-3.5999999999999091
 31
0.0
  0
LINE
  8
DETAIL
  6
CONTINUOUS
 62
     5
 10
77.399999999999636
 20
-3.5999999999999091
 30
0.0
 11
84.599999999999454
 21
-3.5999999999999091
 31
0.0
  0
LINE
  8
DETAIL
  6
CONTINUOUS
 62
     5
 10
75.599999999999454
 20
-5.3999999999998636
 30
0.0
 11
75.599999999999454
 21
-12.599999999999911
 31
0.0
  0
LINE
  8
DETAIL
  6
CONTINUOUS
 62
     5
 10
75.599999999999454
 20
-5.3999999999998636
 30
0.0
 11
68.399999999999636
 21
-5.3999999999998636
 31
0.0
  0
LINE
  8
DETAIL
  6
CONTINUOUS
 62
     5
 10
68.399999999999636
 20
-5.3999999999998636
 30
0.0
 11
68.399999999999636
 21
-12.599999999999911
 31
0.0
  0
LINE
  8
DETAIL
  6
CONTINUOUS
 62
     5
 10
68.399999999999636
 20
-5.3999999999998636
 30
0.0
 11
68.399999999999636
 21
-12.599999999999911
 31
0.0
  0
LINE
  8
DETAIL
  6
CONTINUOUS
 62
     5
 10
68.399999999999636
 20
-5.3999999999998636
 30
0.0
 11
75.599999999999454
 21
-5.3999999999998636
 31
0.0
  0
LINE
  8
DETAIL
  6
CONTINUOUS
 62
     5
 10
68.399999999999636
 20
-12.599999999999911
 30
0.0
 11
75.599999999999454
 21
-12.599999999999911
 31
0.0
  0
LINE
  8
DETAIL
  6
CONTINUOUS
 62
     5
 10
59.399999999999643
 20
-5.3999999999998636
 30
0.0
 11
59.399999999999643
 21
-12.599999999999911
 31
0.0
  0
LINE
  8
DETAIL
  6
CONTINUOUS
 62
     5
 10
59.399999999999643
 20
-5.3999999999998636
 30
0.0
 11
66.599999999999454
 21
-5.3999999999998636
 31
0.0
  0
LINE
  8
DETAIL
  6
CONTINUOUS
 62
     5
 10
59.399999999999643
 20
-12.599999999999911
 30
0.0
 11
66.599999999999454
 21
-12.599999999999911
 31
0.0
  0
LINE
  8
DETAIL
  6
CONTINUOUS
 62
     5
 10
66.599999999999454
 20
-5.3999999999998636
 30
0.0
 11
66.599999999999454
 21
-12.599999999999911
 31
0.0
  0
LINE
  8
DETAIL
  6
CONTINUOUS
 62
     5
 10
59.399999999999643
 20
-14.39999999999986
 30
0.0
 11
59.399999999999643
 21
-21.599999999999909
 31
0.0
  0
LINE
  8
DETAIL
  6
CONTINUOUS
 62
     5
 10
59.399999999999643
 20
-14.39999999999986
 30
0.0
 11
66.599999999999454
 21
-14.39999999999986
 31
0.0
  0
LINE
  8
DETAIL
  6
CONTINUOUS
 62
     5
 10
59.399999999999643
 20
-21.599999999999909
 30
0.0
 11
66.599999999999454
 21
-21.599999999999909
 31
0.0
  0
LINE
  8
DETAIL
  6
CONTINUOUS
 62
     5
 10
66.599999999999454
 20
-14.39999999999986
 30
0.0
 11
66.599999999999454
 21
-21.599999999999909
 31
0.0
  0
LINE
  8
DETAIL
  6
CONTINUOUS
 62
     5
 10
50.399999999999643
 20
-12.599999999999911
 30
0.0
 11
57.599999999999447
 21
-12.599999999999911
 31
0.0
  0
LINE
  8
DETAIL
  6
CONTINUOUS
 62
     5
 10
57.599999999999447
 20
-5.3999999999998636
 30
0.0
 11
50.399999999999643
 21
-5.3999999999998636
 31
0.0
  0
LINE
  8
DETAIL
  6
CONTINUOUS
 62
     5
 10
50.399999999999643
 20
-5.3999999999998636
 30
0.0
 11
50.399999999999643
 21
-12.599999999999911
 31
0.0
  0
LINE
  8
DETAIL
  6
CONTINUOUS
 62
     5
 10
50.399999999999643
 20
-5.3999999999998636
 30
0.0
 11
50.399999999999643
 21
-12.599999999999911
 31
0.0
  0
LINE
  8
DETAIL
  6
CONTINUOUS
 62
     5
 10
50.399999999999643
 20
-5.3999999999998636
 30
0.0
 11
57.599999999999447
 21
-5.3999999999998636
 31
0.0
  0
LINE
  8
DETAIL
  6
CONTINUOUS
 62
     5
 10
57.599999999999447
 20
-5.3999999999998636
 30
0.0
 11
57.599999999999447
 21
-12.599999999999911
 31
0.0
  0
LINE
  8
DETAIL
  6
CONTINUOUS
 62
     5
 10
50.399999999999643
 20
-21.599999999999909
 30
0.0
 11
57.599999999999447
 21
-21.599999999999909
 31
0.0
  0
LINE
  8
DETAIL
  6
CONTINUOUS
 62
     5
 10
57.599999999999447
 20
-14.39999999999986
 30
0.0
 11
50.399999999999643
 21
-14.39999999999986
 31
0.0
  0
LINE
  8
DETAIL
  6
CONTINUOUS
 62
     5
 10
50.399999999999643
 20
-14.39999999999986
 30
0.0
 11
50.399999999999643
 21
-21.599999999999909
 31
0.0
  0
LINE
  8
DETAIL
  6
CONTINUOUS
 62
     5
 10
50.399999999999643
 20
-14.39999999999986
 30
0.0
 11
50.399999999999643
 21
-21.599999999999909
 31
0.0
  0
LINE
  8
DETAIL
  6
CONTINUOUS
 62
     5
 10
50.399999999999643
 20
-14.39999999999986
 30
0.0
 11
57.599999999999447
 21
-14.39999999999986
 31
0.0
  0
LINE
  8
DETAIL
  6
CONTINUOUS
 62
     5
 10
57.599999999999447
 20
-14.39999999999986
 30
0.0
 11
57.599999999999447
 21
-21.599999999999909
 31
0.0
  0
LINE
  8
DETAIL
  6
CONTINUOUS
 62
     5
 10
50.399999999999643
 20
-30.599999999999909
 30
0.0
 11
57.599999999999447
 21
-30.599999999999909
 31
0.0
  0
LINE
  8
DETAIL
  6
CONTINUOUS
 62
     5
 10
57.599999999999447
 20
-23.39999999999986
 30
0.0
 11
50.399999999999643
 21
-23.39999999999986
 31
0.0
  0
LINE
  8
DETAIL
  6
CONTINUOUS
 62
     5
 10
50.399999999999643
 20
-23.39999999999986
 30
0.0
 11
50.399999999999643
 21
-30.599999999999909
 31
0.0
  0
LINE
  8
DETAIL
  6
CONTINUOUS
 62
     5
 10
50.399999999999643
 20
-23.39999999999986
 30
0.0
 11
50.399999999999643
 21
-30.599999999999909
 31
0.0
  0
LINE
  8
DETAIL
  6
CONTINUOUS
 62
     5
 10
50.399999999999643
 20
-23.39999999999986
 30
0.0
 11
57.599999999999447
 21
-23.39999999999986
 31
0.0
  0
LINE
  8
DETAIL
  6
CONTINUOUS
 62
     5
 10
57.599999999999447
 20
-23.39999999999986
 30
0.0
 11
57.599999999999447
 21
-30.599999999999909
 31
0.0
  0
LINE
  8
DETAIL
  6
CONTINUOUS
 62
     5
 10
41.399999999999643
 20
-5.3999999999998636
 30
0.0
 11
41.399999999999643
 21
-12.599999999999911
 31
0.0
  0
LINE
  8
DETAIL
  6
CONTINUOUS
 62
     5
 10
41.399999999999643
 20
-5.3999999999998636
 30
0.0
 11
48.599999999999447
 21
-5.3999999999998636
 31
0.0
  0
LINE
  8
DETAIL
  6
CONTINUOUS
 62
     5
 10
41.399999999999643
 20
-12.599999999999911
 30
0.0
 11
48.599999999999447
 21
-12.599999999999911
 31
0.0
  0
LINE
  8
DETAIL
  6
CONTINUOUS
 62
     5
 10
48.599999999999447
 20
-5.3999999999998636
 30
0.0
 11
48.599999999999447
 21
-12.599999999999911
 31
0.0
  0
LINE
  8
DETAIL
  6
CONTINUOUS
 62
     5
 10
41.399999999999643
 20
-14.39999999999986
 30
0.0
 11
41.399999999999643
 21
-21.599999999999909
 31
0.0
  0
LINE
  8
DETAIL
  6
CONTINUOUS
 62
     5
 10
41.399999999999643
 20
-14.39999999999986
 30
0.0
 11
48.599999999999447
 21
-14.39999999999986
 31
0.0
  0
LINE
  8
DETAIL
  6
CONTINUOUS
 62
     5
 10
41.399999999999643
 20
-21.599999999999909
 30
0.0
 11
48.599999999999447
 21
-21.599999999999909
 31
0.0
  0
LINE
  8
DETAIL
  6
CONTINUOUS
 62
     5
 10
48.599999999999447
 20
-14.39999999999986
 30
0.0
 11
48.599999999999447
 21
-21.599999999999909
 31
0.0
  0
LINE
  8
DETAIL
  6
CONTINUOUS
 62
     5
 10
41.399999999999643
 20
-23.39999999999986
 30
0.0
 11
41.399999999999643
 21
-30.599999999999909
 31
0.0
  0
LINE
  8
DETAIL
  6
CONTINUOUS
 62
     5
 10
41.399999999999643
 20
-23.39999999999986
 30
0.0
 11
48.599999999999447
 21
-23.39999999999986
 31
0.0
  0
LINE
  8
DETAIL
  6
CONTINUOUS
 62
     5
 10
41.399999999999643
 20
-30.599999999999909
 30
0.0
 11
48.599999999999447
 21
-30.599999999999909
 31
0.0
  0
LINE
  8
DETAIL
  6
CONTINUOUS
 62
     5
 10
48.599999999999447
 20
-23.39999999999986
 30
0.0
 11
48.599999999999447
 21
-30.599999999999909
 31
0.0
  0
LINE
  8
DETAIL
  6
CONTINUOUS
 62
     5
 10
41.399999999999643
 20
-32.399999999999856
 30
0.0
 11
41.399999999999643
 21
-39.599999999999909
 31
0.0
  0
LINE
  8
DETAIL
  6
CONTINUOUS
 62
     5
 10
41.399999999999643
 20
-32.399999999999856
 30
0.0
 11
48.599999999999447
 21
-32.399999999999856
 31
0.0
  0
LINE
  8
DETAIL
  6
CONTINUOUS
 62
     5
 10
41.399999999999643
 20
-39.599999999999909
 30
0.0
 11
48.599999999999447
 21
-39.599999999999909
 31
0.0
  0
LINE
  8
DETAIL
  6
CONTINUOUS
 62
     5
 10
48.599999999999447
 20
-32.399999999999856
 30
0.0
 11
48.599999999999447
 21
-39.599999999999909
 31
0.0
  0
LINE
  8
DETAIL
  6
CONTINUOUS
 62
     5
 10
32.399999999999643
 20
-5.3999999999998636
 30
0.0
 11
32.399999999999643
 21
-12.599999999999911
 31
0.0
  0
LINE
  8
DETAIL
  6
CONTINUOUS
 62
     5
 10
32.399999999999643
 20
-5.3999999999998636
 30
0.0
 11
39.599999999999447
 21
-5.3999999999998636
 31
0.0
  0
LINE
  8
DETAIL
  6
CONTINUOUS
 62
     5
 10
32.399999999999643
 20
-12.599999999999911
 30
0.0
 11
39.599999999999447
 21
-12.599999999999911
 31
0.0
  0
LINE
  8
DETAIL
  6
CONTINUOUS
 62
     5
 10
39.599999999999447
 20
-5.3999999999998636
 30
0.0
 11
39.599999999999447
 21
-12.599999999999911
 31
0.0
  0
LINE
  8
DETAIL
  6
CONTINUOUS
 62
     5
 10
32.399999999999643
 20
-14.39999999999986
 30
0.0
 11
32.399999999999643
 21
-21.599999999999909
 31
0.0
  0
LINE
  8
DETAIL
  6
CONTINUOUS
 62
     5
 10
32.399999999999643
 20
-14.39999999999986
 30
0.0
 11
39.599999999999447
 21
-14.39999999999986
 31
0.0
  0
LINE
  8
DETAIL
  6
CONTINUOUS
 62
     5
 10
32.399999999999643
 20
-21.599999999999909
 30
0.0
 11
39.599999999999447
 21
-21.599999999999909
 31
0.0
  0
LINE
  8
DETAIL
  6
CONTINUOUS
 62
     5
 10
39.599999999999447
 20
-14.39999999999986
 30
0.0
 11
39.599999999999447
 21
-21.599999999999909
 31
0.0
  0
LINE
  8
DETAIL
  6
CONTINUOUS
 62
     5
 10
32.399999999999643
 20
-23.39999999999986
 30
0.0
 11
32.399999999999643
 21
-30.599999999999909
 31
0.0
  0
LINE
  8
DETAIL
  6
CONTINUOUS
 62
     5
 10
32.399999999999643
 20
-23.39999999999986
 30
0.0
 11
39.599999999999447
 21
-23.39999999999986
 31
0.0
  0
LINE
  8
DETAIL
  6
CONTINUOUS
 62
     5
 10
32.399999999999643
 20
-30.599999999999909
 30
0.0
 11
39.599999999999447
 21
-30.599999999999909
 31
0.0
  0
LINE
  8
DETAIL
  6
CONTINUOUS
 62
     5
 10
39.599999999999447
 20
-23.39999999999986
 30
0.0
 11
39.599999999999447
 21
-30.599999999999909
 31
0.0
  0
LINE
  8
DETAIL
  6
CONTINUOUS
 62
     5
 10
32.399999999999643
 20
-32.399999999999856
 30
0.0
 11
32.399999999999643
 21
-39.599999999999909
 31
0.0
  0
LINE
  8
DETAIL
  6
CONTINUOUS
 62
     5
 10
32.399999999999643
 20
-32.399999999999856
 30
0.0
 11
39.599999999999447
 21
-32.399999999999856
 31
0.0
  0
LINE
  8
DETAIL
  6
CONTINUOUS
 62
     5
 10
32.399999999999643
 20
-39.599999999999909
 30
0.0
 11
39.599999999999447
 21
-39.599999999999909
 31
0.0
  0
LINE
  8
DETAIL
  6
CONTINUOUS
 62
     5
 10
39.599999999999447
 20
-32.399999999999856
 30
0.0
 11
39.599999999999447
 21
-39.599999999999909
 31
0.0
  0
LINE
  8
DETAIL
  6
CONTINUOUS
 62
     5
 10
32.399999999999643
 20
-41.399999999999856
 30
0.0
 11
32.399999999999643
 21
-48.599999999999909
 31
0.0
  0
LINE
  8
DETAIL
  6
CONTINUOUS
 62
     5
 10
32.399999999999643
 20
-41.399999999999856
 30
0.0
 11
39.599999999999447
 21
-41.399999999999856
 31
0.0
  0
LINE
  8
DETAIL
  6
CONTINUOUS
 62
     5
 10
32.399999999999643
 20
-48.599999999999909
 30
0.0
 11
39.599999999999447
 21
-48.599999999999909
 31
0.0
  0
LINE
  8
DETAIL
  6
CONTINUOUS
 62
     5
 10
39.599999999999447
 20
-41.399999999999856
 30
0.0
 11
39.599999999999447
 21
-48.599999999999909
 31
0.0
  0
LINE
  8
DETAIL
  6
CONTINUOUS
 62
     5
 10
30.599999999999451
 20
-5.3999999999998636
 30
0.0
 11
23.39999999999964
 21
-5.3999999999998636
 31
0.0
  0
LINE
  8
DETAIL
  6
CONTINUOUS
 62
     5
 10
23.39999999999964
 20
-5.3999999999998636
 30
0.0
 11
23.39999999999964
 21
-12.599999999999911
 31
0.0
  0
LINE
  8
DETAIL
  6
CONTINUOUS
 62
     5
 10
23.39999999999964
 20
-5.3999999999998636
 30
0.0
 11
23.39999999999964
 21
-12.599999999999911
 31
0.0
  0
LINE
  8
DETAIL
  6
CONTINUOUS
 62
     5
 10
23.39999999999964
 20
-5.3999999999998636
 30
0.0
 11
30.599999999999451
 21
-5.3999999999998636
 31
0.0
  0
LINE
  8
DETAIL
  6
CONTINUOUS
 62
     5
 10
23.39999999999964
 20
-12.599999999999911
 30
0.0
 11
30.599999999999451
 21
-12.599999999999911
 31
0.0
  0
LINE
  8
DETAIL
  6
CONTINUOUS
 62
     5
 10
30.599999999999451
 20
-5.3999999999998636
 30
0.0
 11
30.599999999999451
 21
-12.599999999999911
 31
0.0
  0
LINE
  8
DETAIL
  6
CONTINUOUS
 62
     5
 10
30.599999999999451
 20
-14.39999999999986
 30
0.0
 11
23.39999999999964
 21
-14.39999999999986
 31
0.0
  0
LINE
  8
DETAIL
  6
CONTINUOUS
 62
     5
 10
23.39999999999964
 20
-14.39999999999986
 30
0.0
 11
23.39999999999964
 21
-21.599999999999909
 31
0.0
  0
LINE
  8
DETAIL
  6
CONTINUOUS
 62
     5
 10
23.39999999999964
 20
-14.39999999999986
 30
0.0
 11
23.39999999999964
 21
-21.599999999999909
 31
0.0
  0
LINE
  8
DETAIL
  6
CONTINUOUS
 62
     5
 10
23.39999999999964
 20
-14.39999999999986
 30
0.0
 11
30.599999999999451
 21
-14.39999999999986
 31
0.0
  0
LINE
  8
DETAIL
  6
CONTINUOUS
 62
     5
 10
23.39999999999964
 20
-21.599999999999909
 30
0.0
 11
30.599999999999451
 21
-21.599999999999909
 31
0.0
  0
LINE
  8
DETAIL
  6
CONTINUOUS
 62
     5
 10
30.599999999999451
 20
-14.39999999999986
 30
0.0
 11
30.599999999999451
 21
-21.599999999999909
 31
0.0
  0
LINE
  8
DETAIL
  6
CONTINUOUS
 62
     5
 10
30.599999999999451
 20
-23.39999999999986
 30
0.0
 11
23.39999999999964
 21
-23.39999999999986
 31
0.0
  0
LINE
  8
DETAIL
  6
CONTINUOUS
 62
     5
 10
23.39999999999964
 20
-23.39999999999986
 30
0.0
 11
23.39999999999964
 21
-30.599999999999909
 31
0.0
  0
LINE
  8
DETAIL
  6
CONTINUOUS
 62
     5
 10
23.39999999999964
 20
-23.39999999999986
 30
0.0
 11
23.39999999999964
 21
-30.599999999999909
 31
0.0
  0
LINE
  8
DETAIL
  6
CONTINUOUS
 62
     5
 10
23.39999999999964
 20
-23.39999999999986
 30
0.0
 11
30.599999999999451
 21
-23.39999999999986
 31
0.0
  0
LINE
  8
DETAIL
  6
CONTINUOUS
 62
     5
 10
23.39999999999964
 20
-30.599999999999909
 30
0.0
 11
30.599999999999451
 21
-30.599999999999909
 31
0.0
  0
LINE
  8
DETAIL
  6
CONTINUOUS
 62
     5
 10
30.599999999999451
 20
-23.39999999999986
 30
0.0
 11
30.599999999999451
 21
-30.599999999999909
 31
0.0
  0
LINE
  8
DETAIL
  6
CONTINUOUS
 62
     5
 10
30.599999999999451
 20
-32.399999999999856
 30
0.0
 11
23.39999999999964
 21
-32.399999999999856
 31
0.0
  0
LINE
  8
DETAIL
  6
CONTINUOUS
 62
     5
 10
23.39999999999964
 20
-32.399999999999856
 30
0.0
 11
23.39999999999964
 21
-39.599999999999909
 31
0.0
  0
LINE
  8
DETAIL
  6
CONTINUOUS
 62
     5
 10
23.39999999999964
 20
-32.399999999999856
 30
0.0
 11
23.39999999999964
 21
-39.599999999999909
 31
0.0
  0
LINE
  8
DETAIL
  6
CONTINUOUS
 62
     5
 10
23.39999999999964
 20
-32.399999999999856
 30
0.0
 11
30.599999999999451
 21
-32.399999999999856
 31
0.0
  0
LINE
  8
DETAIL
  6
CONTINUOUS
 62
     5
 10
23.39999999999964
 20
-39.599999999999909
 30
0.0
 11
30.599999999999451
 21
-39.599999999999909
 31
0.0
  0
LINE
  8
DETAIL
  6
CONTINUOUS
 62
     5
 10
30.599999999999451
 20
-32.399999999999856
 30
0.0
 11
30.599999999999451
 21
-39.599999999999909
 31
0.0
  0
LINE
  8
DETAIL
  6
CONTINUOUS
 62
     5
 10
30.599999999999451
 20
-41.399999999999856
 30
0.0
 11
23.39999999999964
 21
-41.399999999999856
 31
0.0
  0
LINE
  8
DETAIL
  6
CONTINUOUS
 62
     5
 10
23.39999999999964
 20
-41.399999999999856
 30
0.0
 11
23.39999999999964
 21
-48.599999999999909
 31
0.0
  0
LINE
  8
DETAIL
  6
CONTINUOUS
 62
     5
 10
23.39999999999964
 20
-41.399999999999856
 30
0.0
 11
23.39999999999964
 21
-48.599999999999909
 31
0.0
  0
LINE
  8
DETAIL
  6
CONTINUOUS
 62
     5
 10
23.39999999999964
 20
-41.399999999999856
 30
0.0
 11
30.599999999999451
 21
-41.399999999999856
 31
0.0
  0
LINE
  8
DETAIL
  6
CONTINUOUS
 62
     5
 10
23.39999999999964
 20
-48.599999999999909
 30
0.0
 11
30.599999999999451
 21
-48.599999999999909
 31
0.0
  0
LINE
  8
DETAIL
  6
CONTINUOUS
 62
     5
 10
30.599999999999451
 20
-41.399999999999856
 30
0.0
 11
30.599999999999451
 21
-48.599999999999909
 31
0.0
  0
LINE
  8
DETAIL
  6
CONTINUOUS
 62
     5
 10
30.599999999999451
 20
-50.399999999999856
 30
0.0
 11
23.39999999999964
 21
-50.399999999999856
 31
0.0
  0
LINE
  8
DETAIL
  6
CONTINUOUS
 62
     5
 10
23.39999999999964
 20
-50.399999999999856
 30
0.0
 11
23.39999999999964
 21
-57.599999999999909
 31
0.0
  0
LINE
  8
DETAIL
  6
CONTINUOUS
 62
     5
 10
23.39999999999964
 20
-50.399999999999856
 30
0.0
 11
23.39999999999964
 21
-57.599999999999909
 31
0.0
  0
LINE
  8
DETAIL
  6
CONTINUOUS
 62
     5
 10
23.39999999999964
 20
-50.399999999999856
 30
0.0
 11
30.599999999999451
 21
-50.399999999999856
 31
0.0
  0
LINE
  8
DETAIL
  6
CONTINUOUS
 62
     5
 10
23.39999999999964
 20
-57.599999999999909
 30
0.0
 11
30.599999999999451
 21
-57.599999999999909
 31
0.0
  0
LINE
  8
DETAIL
  6
CONTINUOUS
 62
     5
 10
30.599999999999451
 20
-50.399999999999856
 30
0.0
 11
30.599999999999451
 21
-57.599999999999909
 31
0.0
  0
LINE
  8
DETAIL
  6
CONTINUOUS
 62
     5
 10
14.39999999999964
 20
-5.3999999999998636
 30
0.0
 11
14.39999999999964
 21
-12.599999999999911
 31
0.0
  0
LINE
  8
DETAIL
  6
CONTINUOUS
 62
     5
 10
14.39999999999964
 20
-5.3999999999998636
 30
0.0
 11
21.599999999999451
 21
-5.3999999999998636
 31
0.0
  0
LINE
  8
DETAIL
  6
CONTINUOUS
 62
     5
 10
14.39999999999964
 20
-12.599999999999911
 30
0.0
 11
21.599999999999451
 21
-12.599999999999911
 31
0.0
  0
LINE
  8
DETAIL
  6
CONTINUOUS
 62
     5
 10
21.599999999999451
 20
-5.3999999999998636
 30
0.0
 11
21.599999999999451
 21
-12.599999999999911
 31
0.0
  0
LINE
  8
DETAIL
  6
CONTINUOUS
 62
     5
 10
14.39999999999964
 20
-14.39999999999986
 30
0.0
 11
14.39999999999964
 21
-21.599999999999909
 31
0.0
  0
LINE
  8
DETAIL
  6
CONTINUOUS
 62
     5
 10
14.39999999999964
 20
-14.39999999999986
 30
0.0
 11
21.599999999999451
 21
-14.39999999999986
 31
0.0
  0
LINE
  8
DETAIL
  6
CONTINUOUS
 62
     5
 10
14.39999999999964
 20
-21.599999999999909
 30
0.0
 11
21.599999999999451
 21
-21.599999999999909
 31
0.0
  0
LINE
  8
DETAIL
  6
CONTINUOUS
 62
     5
 10
21.599999999999451
 20
-14.39999999999986
 30
0.0
 11
21.599999999999451
 21
-21.599999999999909
 31
0.0
  0
LINE
  8
DETAIL
  6
CONTINUOUS
 62
     5
 10
14.39999999999964
 20
-23.39999999999986
 30
0.0
 11
14.39999999999964
 21
-30.599999999999909
 31
0.0
  0
LINE
  8
DETAIL
  6
CONTINUOUS
 62
     5
 10
14.39999999999964
 20
-23.39999999999986
 30
0.0
 11
21.599999999999451
 21
-23.39999999999986
 31
0.0
  0
LINE
  8
DETAIL
  6
CONTINUOUS
 62
     5
 10
14.39999999999964
 20
-30.599999999999909
 30
0.0
 11
21.599999999999451
 21
-30.599999999999909
 31
0.0
  0
LINE
  8
DETAIL
  6
CONTINUOUS
 62
     5
 10
21.599999999999451
 20
-23.39999999999986
 30
0.0
 11
21.599999999999451
 21
-30.599999999999909
 31
0.0
  0
LINE
  8
DETAIL
  6
CONTINUOUS
 62
     5
 10
14.39999999999964
 20
-32.399999999999856
 30
0.0
 11
14.39999999999964
 21
-39.599999999999909
 31
0.0
  0
LINE
  8
DETAIL
  6
CONTINUOUS
 62
     5
 10
14.39999999999964
 20
-32.399999999999856
 30
0.0
 11
21.599999999999451
 21
-32.399999999999856
 31
0.0
  0
LINE
  8
DETAIL
  6
CONTINUOUS
 62
     5
 10
14.39999999999964
 20
-39.599999999999909
 30
0.0
 11
21.599999999999451
 21
-39.599999999999909
 31
0.0
  0
LINE
  8
DETAIL
  6
CONTINUOUS
 62
     5
 10
21.599999999999451
 20
-32.399999999999856
 30
0.0
 11
21.599999999999451
 21
-39.599999999999909
 31
0.0
  0
LINE
  8
DETAIL
  6
CONTINUOUS
 62
     5
 10
14.39999999999964
 20
-41.399999999999856
 30
0.0
 11
14.39999999999964
 21
-48.599999999999909
 31
0.0
  0
LINE
  8
DETAIL
  6
CONTINUOUS
 62
     5
 10
14.39999999999964
 20
-41.399999999999856
 30
0.0
 11
21.599999999999451
 21
-41.399999999999856
 31
0.0
  0
LINE
  8
DETAIL
  6
CONTINUOUS
 62
     5
 10
14.39999999999964
 20
-48.599999999999909
 30
0.0
 11
21.599999999999451
 21
-48.599999999999909
 31
0.0
  0
LINE
  8
DETAIL
  6
CONTINUOUS
 62
     5
 10
21.599999999999451
 20
-41.399999999999856
 30
0.0
 11
21.599999999999451
 21
-48.599999999999909
 31
0.0
  0
LINE
  8
DETAIL
  6
CONTINUOUS
 62
     5
 10
14.39999999999964
 20
-50.399999999999856
 30
0.0
 11
14.39999999999964
 21
-57.599999999999909
 31
0.0
  0
LINE
  8
DETAIL
  6
CONTINUOUS
 62
     5
 10
14.39999999999964
 20
-50.399999999999856
 30
0.0
 11
21.599999999999451
 21
-50.399999999999856
 31
0.0
  0
LINE
  8
DETAIL
  6
CONTINUOUS
 62
     5
 10
14.39999999999964
 20
-57.599999999999909
 30
0.0
 11
21.599999999999451
 21
-57.599999999999909
 31
0.0
  0
LINE
  8
DETAIL
  6
CONTINUOUS
 62
     5
 10
21.599999999999451
 20
-50.399999999999856
 30
0.0
 11
21.599999999999451
 21
-57.599999999999909
 31
0.0
  0
LINE
  8
DETAIL
  6
CONTINUOUS
 62
     5
 10
14.39999999999964
 20
-59.399999999999856
 30
0.0
 11
14.39999999999964
 21
-66.599999999999909
 31
0.0
  0
LINE
  8
DETAIL
  6
CONTINUOUS
 62
     5
 10
14.39999999999964
 20
-59.399999999999856
 30
0.0
 11
21.599999999999451
 21
-59.399999999999856
 31
0.0
  0
LINE
  8
DETAIL
  6
CONTINUOUS
 62
     5
 10
14.39999999999964
 20
-66.599999999999909
 30
0.0
 11
21.599999999999451
 21
-66.599999999999909
 31
0.0
  0
LINE
  8
DETAIL
  6
CONTINUOUS
 62
     5
 10
21.599999999999451
 20
-59.399999999999856
 30
0.0
 11
21.599999999999451
 21
-66.599999999999909
 31
0.0
  0
LINE
  8
DETAIL
  6
CONTINUOUS
 62
     5
 10
5.3999999999996362
 20
-5.3999999999998636
 30
0.0
 11
12.599999999999451
 21
-5.3999999999998636
 31
0.0
  0
LINE
  8
DETAIL
  6
CONTINUOUS
 62
     5
 10
5.3999999999996362
 20
-12.599999999999911
 30
0.0
 11
12.599999999999451
 21
-12.599999999999911
 31
0.0
  0
LINE
  8
DETAIL
  6
CONTINUOUS
 62
     5
 10
12.599999999999451
 20
-5.3999999999998636
 30
0.0
 11
12.599999999999451
 21
-12.599999999999911
 31
0.0
  0
LINE
  8
DETAIL
  6
CONTINUOUS
 62
     5
 10
5.3999999999996362
 20
-5.3999999999998636
 30
0.0
 11
5.3999999999996362
 21
-12.599999999999911
 31
0.0
  0
LINE
  8
DETAIL
  6
CONTINUOUS
 62
     5
 10
5.3999999999996362
 20
-14.39999999999986
 30
0.0
 11
12.599999999999451
 21
-14.39999999999986
 31
0.0
  0
LINE
  8
DETAIL
  6
CONTINUOUS
 62
     5
 10
5.3999999999996362
 20
-21.599999999999909
 30
0.0
 11
12.599999999999451
 21
-21.599999999999909
 31
0.0
  0
LINE
  8
DETAIL
  6
CONTINUOUS
 62
     5
 10
12.599999999999451
 20
-14.39999999999986
 30
0.0
 11
12.599999999999451
 21
-21.599999999999909
 31
0.0
  0
LINE
  8
DETAIL
  6
CONTINUOUS
 62
     5
 10
5.3999999999996362
 20
-14.39999999999986
 30
0.0
 11
5.3999999999996362
 21
-21.599999999999909
 31
0.0
  0
LINE
  8
DETAIL
  6
CONTINUOUS
 62
     5
 10
5.3999999999996362
 20
-23.39999999999986
 30
0.0
 11
12.599999999999451
 21
-23.39999999999986
 31
0.0
  0
LINE
  8
DETAIL
  6
CONTINUOUS
 62
     5
 10
5.3999999999996362
 20
-30.599999999999909
 30
0.0
 11
12.599999999999451
 21
-30.599999999999909
 31
0.0
  0
LINE
  8
DETAIL
  6
CONTINUOUS
 62
     5
 10
12.599999999999451
 20
-23.39999999999986
 30
0.0
 11
12.599999999999451
 21
-30.599999999999909
 31
0.0
  0
LINE
  8
DETAIL
  6
CONTINUOUS
 62
     5
 10
5.3999999999996362
 20
-23.39999999999986
 30
0.0
 11
5.3999999999996362
 21
-30.599999999999909
 31
0.0
  0
LINE
  8
DETAIL
  6
CONTINUOUS
 62
     5
 10
5.3999999999996362
 20
-32.399999999999856
 30
0.0
 11
12.599999999999451
 21
-32.399999999999856
 31
0.0
  0
LINE
  8
DETAIL
  6
CONTINUOUS
 62
     5
 10
5.3999999999996362
 20
-39.599999999999909
 30
0.0
 11
12.599999999999451
 21
-39.599999999999909
 31
0.0
  0
LINE
  8
DETAIL
  6
CONTINUOUS
 62
     5
 10
12.599999999999451
 20
-32.399999999999856
 30
0.0
 11
12.599999999999451
 21
-39.599999999999909
 31
0.0
  0
LINE
  8
DETAIL
  6
CONTINUOUS
 62
     5
 10
5.3999999999996362
 20
-32.399999999999856
 30
0.0
 11
5.3999999999996362
 21
-39.599999999999909
 31
0.0
  0
LINE
  8
DETAIL
  6
CONTINUOUS
 62
     5
 10
5.3999999999996362
 20
-41.399999999999856
 30
0.0
 11
12.599999999999451
 21
-41.399999999999856
 31
0.0
  0
LINE
  8
DETAIL
  6
CONTINUOUS
 62
     5
 10
5.3999999999996362
 20
-48.599999999999909
 30
0.0
 11
12.599999999999451
 21
-48.599999999999909
 31
0.0
  0
LINE
  8
DETAIL
  6
CONTINUOUS
 62
     5
 10
12.599999999999451
 20
-41.399999999999856
 30
0.0
 11
12.599999999999451
 21
-48.599999999999909
 31
0.0
  0
LINE
  8
DETAIL
  6
CONTINUOUS
 62
     5
 10
5.3999999999996362
 20
-41.399999999999856
 30
0.0
 11
5.3999999999996362
 21
-48.599999999999909
 31
0.0
  0
LINE
  8
DETAIL
  6
CONTINUOUS
 62
     5
 10
5.3999999999996362
 20
-50.399999999999856
 30
0.0
 11
12.599999999999451
 21
-50.399999999999856
 31
0.0
  0
LINE
  8
DETAIL
  6
CONTINUOUS
 62
     5
 10
5.3999999999996362
 20
-57.599999999999909
 30
0.0
 11
12.599999999999451
 21
-57.599999999999909
 31
0.0
  0
LINE
  8
DETAIL
  6
CONTINUOUS
 62
     5
 10
12.599999999999451
 20
-50.399999999999856
 30
0.0
 11
12.599999999999451
 21
-57.599999999999909
 31
0.0
  0
LINE
  8
DETAIL
  6
CONTINUOUS
 62
     5
 10
5.3999999999996362
 20
-50.399999999999856
 30
0.0
 11
5.3999999999996362
 21
-57.599999999999909
 31
0.0
  0
LINE
  8
DETAIL
  6
CONTINUOUS
 62
     5
 10
5.3999999999996362
 20
-59.399999999999856
 30
0.0
 11
12.599999999999451
 21
-59.399999999999856
 31
0.0
  0
LINE
  8
DETAIL
  6
CONTINUOUS
 62
     5
 10
5.3999999999996362
 20
-66.599999999999909
 30
0.0
 11
12.599999999999451
 21
-66.599999999999909
 31
0.0
  0
LINE
  8
DETAIL
  6
CONTINUOUS
 62
     5
 10
12.599999999999451
 20
-59.399999999999856
 30
0.0
 11
12.599999999999451
 21
-66.599999999999909
 31
0.0
  0
LINE
  8
DETAIL
  6
CONTINUOUS
 62
     5
 10
5.3999999999996362
 20
-59.399999999999856
 30
0.0
 11
5.3999999999996362
 21
-66.599999999999909
 31
0.0
  0
LINE
  8
DETAIL
  6
CONTINUOUS
 62
     5
 10
5.3999999999996362
 20
-68.399999999999864
 30
0.0
 11
12.599999999999451
 21
-68.399999999999864
 31
0.0
  0
LINE
  8
DETAIL
  6
CONTINUOUS
 62
     5
 10
5.3999999999996362
 20
-75.599999999999909
 30
0.0
 11
12.599999999999451
 21
-75.599999999999909
 31
0.0
  0
LINE
  8
DETAIL
  6
CONTINUOUS
 62
     5
 10
12.599999999999451
 20
-68.399999999999864
 30
0.0
 11
12.599999999999451
 21
-75.599999999999909
 31
0.0
  0
LINE
  8
DETAIL
  6
CONTINUOUS
 62
     5
 10
5.3999999999996362
 20
-68.399999999999864
 30
0.0
 11
5.3999999999996362
 21
-75.599999999999909
 31
0.0
  0
LINE
  8
DETAIL
  6
CONTINUOUS
 62
     5
 10
3.5999999999994539
 20
-5.3999999999998636
 30
0.0
 11
3.5999999999994539
 21
-12.599999999999911
 31
0.0
  0
LINE
  8
DETAIL
  6
CONTINUOUS
 62
     5
 10
3.5999999999994539
 20
-14.39999999999986
 30
0.0
 11
3.5999999999994539
 21
-21.599999999999909
 31
0.0
  0
LINE
  8
DETAIL
  6
CONTINUOUS
 62
     5
 10
3.5999999999994539
 20
-23.39999999999986
 30
0.0
 11
3.5999999999994539
 21
-30.599999999999909
 31
0.0
  0
LINE
  8
DETAIL
  6
CONTINUOUS
 62
     5
 10
3.5999999999994539
 20
-32.399999999999856
 30
0.0
 11
3.5999999999994539
 21
-39.599999999999909
 31
0.0
  0
LINE
  8
DETAIL
  6
CONTINUOUS
 62
     5
 10
3.5999999999994539
 20
-41.399999999999856
 30
0.0
 11
3.5999999999994539
 21
-48.599999999999909
 31
0.0
  0
LINE
  8
DETAIL
  6
CONTINUOUS
 62
     5
 10
3.5999999999994539
 20
-50.399999999999856
 30
0.0
 11
3.5999999999994539
 21
-57.599999999999909
 31
0.0
  0
LINE
  8
DETAIL
  6
CONTINUOUS
 62
     5
 10
3.5999999999994539
 20
-59.399999999999856
 30
0.0
 11
3.5999999999994539
 21
-66.599999999999909
 31
0.0
  0
LINE
  8
DETAIL
  6
CONTINUOUS
 62
     5
 10
3.5999999999994539
 20
-68.399999999999864
 30
0.0
 11
3.5999999999994539
 21
-75.599999999999909
 31
0.0
  0
LINE
  8
DETAIL
  6
CONTINUOUS
 62
     5
 10
3.5999999999994539
 20
-77.399999999999864
 30
0.0
 11
3.5999999999994539
 21
-84.599999999999909
 31
0.0
  0
LINE
  8
DETAIL
  6
CONTINUOUS
 62
     5
 10
93.599999999999454
 20
3.600000000000136
 30
0.0
 11
93.599999999999454
 21
-3.5999999999999091
 31
0.0
  0
LINE
  8
DETAIL
  6
CONTINUOUS
 62
     5
 10
86.399999999999636
 20
3.600000000000136
 30
0.0
 11
86.399999999999636
 21
-3.5999999999999091
 31
0.0
  0
ARC
  8
DETAIL
  6
CONTINUOUS
 62
     5
 10
135.20564899999951
 20
-135.20564999999991
 30
0.0
 40
1.0
 50
270.0
 51
0.0
  0
LINE
  8
DETAIL
  6
CONTINUOUS
 62
     5
 10
101.0
 20
-96.999999999999886
 30
0.0
 11
99.5
 21
-95.499999999999886
 31
0.0
  0
LINE
  8
DETAIL
  6
CONTINUOUS
 62
     5
 10
97.0
 20
-100.9999999999999
 30
0.0
 11
95.5
 21
-99.499999999999886
 31
0.0
  0
ARC
  8
DETAIL
  6
CONTINUOUS
 62
     5
 10
142.0
 20
-141.99999999999989
 30
0.0
 40
1.0
 50
270.0
 51
0.0
  0
LINE
  8
DETAIL
  6
CONTINUOUS
 62
     5
 10
30.599999999999451
 20
-59.399999999999856
 30
0.0
 11
23.39999999999964
 21
-59.399999999999856
 31
0.0
  0
LINE
  8
DETAIL
  6
CONTINUOUS
 62
     5
 10
23.39999999999964
 20
-59.399999999999856
 30
0.0
 11
23.39999999999964
 21
-66.599999999999909
 31
0.0
  0
LINE
  8
DETAIL
  6
CONTINUOUS
 62
     5
 10
86.399999999999636
 20
-39.599999999999909
 30
0.0
 11
93.599999999999454
 21
-39.599999999999909
 31
0.0
  0
LINE
  8
DETAIL
  6
CONTINUOUS
 62
     5
 10
86.399999999999636
 20
-41.399999999999856
 30
0.0
 11
86.399999999999636
 21
-48.599999999999909
 31
0.0
  0
LINE
  8
DETAIL
  6
CONTINUOUS
 62
     5
 10
86.399999999999636
 20
-41.399999999999856
 30
0.0
 11
93.599999999999454
 21
-41.399999999999856
 31
0.0
  0
LINE
  8
DETAIL
  6
CONTINUOUS
 62
     5
 10
86.399999999999636
 20
-48.599999999999909
 30
0.0
 11
93.599999999999454
 21
-48.599999999999909
 31
0.0
  0
LINE
  8
DETAIL
  6
CONTINUOUS
 62
     5
 10
93.599999999999454
 20
-41.399999999999856
 30
0.0
 11
93.599999999999454
 21
-48.599999999999909
 31
0.0
  0
LINE
  8
DETAIL
  6
CONTINUOUS
 62
     5
 10
86.399999999999636
 20
-50.399999999999856
 30
0.0
 11
86.399999999999636
 21
-57.599999999999909
 31
0.0
  0
LINE
  8
DETAIL
  6
CONTINUOUS
 62
     5
 10
86.399999999999636
 20
-50.399999999999856
 30
0.0
 11
93.599999999999454
 21
-50.399999999999856
 31
0.0
  0
LINE
  8
DETAIL
  6
CONTINUOUS
 62
     5
 10
86.399999999999636
 20
-57.599999999999909
 30
0.0
 11
93.599999999999454
 21
-57.599999999999909
 31
0.0
  0
LINE
  8
DETAIL
  6
CONTINUOUS
 62
     5
 10
93.599999999999454
 20
-50.399999999999856
 30
0.0
 11
93.599999999999454
 21
-57.599999999999909
 31
0.0
  0
LINE
  8
DETAIL
  6
CONTINUOUS
 62
     5
 10
86.399999999999636
 20
-59.399999999999856
 30
0.0
 11
86.399999999999636
 21
-66.599999999999909
 31
0.0
  0
LINE
  8
DETAIL
  6
CONTINUOUS
 62
     5
 10
86.399999999999636
 20
-59.399999999999856
 30
0.0
 11
93.599999999999454
 21
-59.399999999999856
 31
0.0
  0
LINE
  8
DETAIL
  6
CONTINUOUS
 62
     5
 10
86.399999999999636
 20
-66.599999999999909
 30
0.0
 11
93.599999999999454
 21
-66.599999999999909
 31
0.0
  0
LINE
  8
DETAIL
  6
CONTINUOUS
 62
     5
 10
93.599999999999454
 20
-59.399999999999856
 30
0.0
 11
93.599999999999454
 21
-66.599999999999909
 31
0.0
  0
LINE
  8
DETAIL
  6
CONTINUOUS
 62
     5
 10
86.399999999999636
 20
-68.399999999999864
 30
0.0
 11
86.399999999999636
 21
-75.599999999999909
 31
0.0
  0
LINE
  8
DETAIL
  6
CONTINUOUS
 62
     5
 10
86.399999999999636
 20
-68.399999999999864
 30
0.0
 11
93.599999999999454
 21
-68.399999999999864
 31
0.0
  0
LINE
  8
DETAIL
  6
CONTINUOUS
 62
     5
 10
86.399999999999636
 20
-75.599999999999909
 30
0.0
 11
93.599999999999454
 21
-75.599999999999909
 31
0.0
  0
LINE
  8
DETAIL
  6
CONTINUOUS
 62
     5
 10
93.599999999999454
 20
-68.399999999999864
 30
0.0
 11
93.599999999999454
 21
-75.599999999999909
 31
0.0
  0
LINE
  8
DETAIL
  6
CONTINUOUS
 62
     5
 10
86.399999999999636
 20
-77.399999999999864
 30
0.0
 11
86.399999999999636
 21
-84.599999999999909
 31
0.0
  0
LINE
  8
DETAIL
  6
CONTINUOUS
 62
     5
 10
86.399999999999636
 20
-77.399999999999864
 30
0.0
 11
93.599999999999454
 21
-77.399999999999864
 31
0.0
  0
LINE
  8
DETAIL
  6
CONTINUOUS
 62
     5
 10
86.399999999999636
 20
-84.599999999999909
 30
0.0
 11
93.599999999999454
 21
-84.599999999999909
 31
0.0
  0
LINE
  8
DETAIL
  6
CONTINUOUS
 62
     5
 10
93.599999999999454
 20
-77.399999999999864
 30
0.0
 11
93.599999999999454
 21
-84.599999999999909
 31
0.0
  0
LINE
  8
DETAIL
  6
CONTINUOUS
 62
     5
 10
86.399999999999636
 20
-86.399999999999864
 30
0.0
 11
86.399999999999636
 21
-93.599999999999909
 31
0.0
  0
LINE
  8
DETAIL
  6
CONTINUOUS
 62
     5
 10
86.399999999999636
 20
-86.399999999999864
 30
0.0
 11
93.599999999999454
 21
-86.399999999999864
 31
0.0
  0
LINE
  8
DETAIL
  6
CONTINUOUS
 62
     5
 10
86.399999999999636
 20
-93.599999999999909
 30
0.0
 11
93.599999999999454
 21
-93.599999999999909
 31
0.0
  0
LINE
  8
DETAIL
  6
CONTINUOUS
 62
     5
 10
93.599999999999454
 20
-86.399999999999864
 30
0.0
 11
93.599999999999454
 21
-93.599999999999909
 31
0.0
  0
LINE
  8
DETAIL
  6
CONTINUOUS
 62
     5
 10
77.399999999999636
 20
-39.599999999999909
 30
0.0
 11
84.599999999999454
 21
-39.599999999999909
 31
0.0
  0
LINE
  8
DETAIL
  6
CONTINUOUS
 62
     5
 10
77.399999999999636
 20
-41.399999999999856
 30
0.0
 11
77.399999999999636
 21
-48.599999999999909
 31
0.0
  0
LINE
  8
DETAIL
  6
CONTINUOUS
 62
     5
 10
77.399999999999636
 20
-41.399999999999856
 30
0.0
 11
84.599999999999454
 21
-41.399999999999856
 31
0.0
  0
LINE
  8
DETAIL
  6
CONTINUOUS
 62
     5
 10
77.399999999999636
 20
-48.599999999999909
 30
0.0
 11
84.599999999999454
 21
-48.599999999999909
 31
0.0
  0
LINE
  8
DETAIL
  6
CONTINUOUS
 62
     5
 10
84.599999999999454
 20
-41.399999999999856
 30
0.0
 11
84.599999999999454
 21
-48.599999999999909
 31
0.0
  0
LINE
  8
DETAIL
  6
CONTINUOUS
 62
     5
 10
77.399999999999636
 20
-50.399999999999856
 30
0.0
 11
77.399999999999636
 21
-57.599999999999909
 31
0.0
  0
LINE
  8
DETAIL
  6
CONTINUOUS
 62
     5
 10
77.399999999999636
 20
-50.399999999999856
 30
0.0
 11
84.599999999999454
 21
-50.399999999999856
 31
0.0
  0
LINE
  8
DETAIL
  6
CONTINUOUS
 62
     5
 10
77.399999999999636
 20
-57.599999999999909
 30
0.0
 11
84.599999999999454
 21
-57.599999999999909
 31
0.0
  0
LINE
  8
DETAIL
  6
CONTINUOUS
 62
     5
 10
84.599999999999454
 20
-50.399999999999856
 30
0.0
 11
84.599999999999454
 21
-57.599999999999909
 31
0.0
  0
LINE
  8
DETAIL
  6
CONTINUOUS
 62
     5
 10
77.399999999999636
 20
-59.399999999999856
 30
0.0
 11
77.399999999999636
 21
-66.599999999999909
 31
0.0
  0
LINE
  8
DETAIL
  6
CONTINUOUS
 62
     5
 10
77.399999999999636
 20
-59.399999999999856
 30
0.0
 11
84.599999999999454
 21
-59.399999999999856
 31
0.0
  0
LINE
  8
DETAIL
  6
CONTINUOUS
 62
     5
 10
77.399999999999636
 20
-66.599999999999909
 30
0.0
 11
84.599999999999454
 21
-66.599999999999909
 31
0.0
  0
LINE
  8
DETAIL
  6
CONTINUOUS
 62
     5
 10
84.599999999999454
 20
-59.399999999999856
 30
0.0
 11
84.599999999999454
 21
-66.599999999999909
 31
0.0
  0
LINE
  8
DETAIL
  6
CONTINUOUS
 62
     5
 10
77.399999999999636
 20
-68.399999999999864
 30
0.0
 11
77.399999999999636
 21
-75.599999999999909
 31
0.0
  0
LINE
  8
DETAIL
  6
CONTINUOUS
 62
     5
 10
77.399999999999636
 20
-68.399999999999864
 30
0.0
 11
84.599999999999454
 21
-68.399999999999864
 31
0.0
  0
LINE
  8
DETAIL
  6
CONTINUOUS
 62
     5
 10
77.399999999999636
 20
-75.599999999999909
 30
0.0
 11
84.599999999999454
 21
-75.599999999999909
 31
0.0
  0
LINE
  8
DETAIL
  6
CONTINUOUS
 62
     5
 10
84.599999999999454
 20
-68.399999999999864
 30
0.0
 11
84.599999999999454
 21
-75.599999999999909
 31
0.0
  0
LINE
  8
DETAIL
  6
CONTINUOUS
 62
     5
 10
77.399999999999636
 20
-77.399999999999864
 30
0.0
 11
77.399999999999636
 21
-84.599999999999909
 31
0.0
  0
LINE
  8
DETAIL
  6
CONTINUOUS
 62
     5
 10
77.399999999999636
 20
-77.399999999999864
 30
0.0
 11
84.599999999999454
 21
-77.399999999999864
 31
0.0
  0
LINE
  8
DETAIL
  6
CONTINUOUS
 62
     5
 10
77.399999999999636
 20
-84.599999999999909
 30
0.0
 11
84.599999999999454
 21
-84.599999999999909
 31
0.0
  0
LINE
  8
DETAIL
  6
CONTINUOUS
 62
     5
 10
84.599999999999454
 20
-77.399999999999864
 30
0.0
 11
84.599999999999454
 21
-84.599999999999909
 31
0.0
  0
LINE
  8
DETAIL
  6
CONTINUOUS
 62
     5
 10
77.399999999999636
 20
-86.399999999999864
 30
0.0
 11
77.399999999999636
 21
-93.599999999999909
 31
0.0
  0
LINE
  8
DETAIL
  6
CONTINUOUS
 62
     5
 10
77.399999999999636
 20
-86.399999999999864
 30
0.0
 11
84.599999999999454
 21
-86.399999999999864
 31
0.0
  0
LINE
  8
DETAIL
  6
CONTINUOUS
 62
     5
 10
77.399999999999636
 20
-93.599999999999909
 30
0.0
 11
84.599999999999454
 21
-93.599999999999909
 31
0.0
  0
LINE
  8
DETAIL
  6
CONTINUOUS
 62
     5
 10
84.599999999999454
 20
-86.399999999999864
 30
0.0
 11
84.599999999999454
 21
-93.599999999999909
 31
0.0
  0
LINE
  8
DETAIL
  6
CONTINUOUS
 62
     5
 10
68.399999999999636
 20
-39.599999999999909
 30
0.0
 11
75.599999999999454
 21
-39.599999999999909
 31
0.0
  0
LINE
  8
DETAIL
  6
CONTINUOUS
 62
     5
 10
68.399999999999636
 20
-41.399999999999856
 30
0.0
 11
68.399999999999636
 21
-48.599999999999909
 31
0.0
  0
LINE
  8
DETAIL
  6
CONTINUOUS
 62
     5
 10
68.399999999999636
 20
-41.399999999999856
 30
0.0
 11
75.599999999999454
 21
-41.399999999999856
 31
0.0
  0
LINE
  8
DETAIL
  6
CONTINUOUS
 62
     5
 10
68.399999999999636
 20
-48.599999999999909
 30
0.0
 11
75.599999999999454
 21
-48.599999999999909
 31
0.0
  0
LINE
  8
DETAIL
  6
CONTINUOUS
 62
     5
 10
75.599999999999454
 20
-41.399999999999856
 30
0.0
 11
75.599999999999454
 21
-48.599999999999909
 31
0.0
  0
LINE
  8
DETAIL
  6
CONTINUOUS
 62
     5
 10
68.399999999999636
 20
-50.399999999999856
 30
0.0
 11
68.399999999999636
 21
-57.599999999999909
 31
0.0
  0
LINE
  8
DETAIL
  6
CONTINUOUS
 62
     5
 10
68.399999999999636
 20
-50.399999999999856
 30
0.0
 11
75.599999999999454
 21
-50.399999999999856
 31
0.0
  0
LINE
  8
DETAIL
  6
CONTINUOUS
 62
     5
 10
68.399999999999636
 20
-57.599999999999909
 30
0.0
 11
75.599999999999454
 21
-57.599999999999909
 31
0.0
  0
LINE
  8
DETAIL
  6
CONTINUOUS
 62
     5
 10
75.599999999999454
 20
-50.399999999999856
 30
0.0
 11
75.599999999999454
 21
-57.599999999999909
 31
0.0
  0
LINE
  8
DETAIL
  6
CONTINUOUS
 62
     5
 10
68.399999999999636
 20
-59.399999999999856
 30
0.0
 11
68.399999999999636
 21
-66.599999999999909
 31
0.0
  0
LINE
  8
DETAIL
  6
CONTINUOUS
 62
     5
 10
68.399999999999636
 20
-59.399999999999856
 30
0.0
 11
75.599999999999454
 21
-59.399999999999856
 31
0.0
  0
LINE
  8
DETAIL
  6
CONTINUOUS
 62
     5
 10
68.399999999999636
 20
-66.599999999999909
 30
0.0
 11
75.599999999999454
 21
-66.599999999999909
 31
0.0
  0
LINE
  8
DETAIL
  6
CONTINUOUS
 62
     5
 10
75.599999999999454
 20
-59.399999999999856
 30
0.0
 11
75.599999999999454
 21
-66.599999999999909
 31
0.0
  0
LINE
  8
DETAIL
  6
CONTINUOUS
 62
     5
 10
68.399999999999636
 20
-68.399999999999864
 30
0.0
 11
68.399999999999636
 21
-75.599999999999909
 31
0.0
  0
LINE
  8
DETAIL
  6
CONTINUOUS
 62
     5
 10
68.399999999999636
 20
-68.399999999999864
 30
0.0
 11
75.599999999999454
 21
-68.399999999999864
 31
0.0
  0
LINE
  8
DETAIL
  6
CONTINUOUS
 62
     5
 10
68.399999999999636
 20
-75.599999999999909
 30
0.0
 11
75.599999999999454
 21
-75.599999999999909
 31
0.0
  0
LINE
  8
DETAIL
  6
CONTINUOUS
 62
     5
 10
75.599999999999454
 20
-68.399999999999864
 30
0.0
 11
75.599999999999454
 21
-75.599999999999909
 31
0.0
  0
LINE
  8
DETAIL
  6
CONTINUOUS
 62
     5
 10
68.399999999999636
 20
-77.399999999999864
 30
0.0
 11
68.399999999999636
 21
-84.599999999999909
 31
0.0
  0
LINE
  8
DETAIL
  6
CONTINUOUS
 62
     5
 10
68.399999999999636
 20
-77.399999999999864
 30
0.0
 11
75.599999999999454
 21
-77.399999999999864
 31
0.0
  0
LINE
  8
DETAIL
  6
CONTINUOUS
 62
     5
 10
68.399999999999636
 20
-84.599999999999909
 30
0.0
 11
75.599999999999454
 21
-84.599999999999909
 31
0.0
  0
LINE
  8
DETAIL
  6
CONTINUOUS
 62
     5
 10
75.599999999999454
 20
-77.399999999999864
 30
0.0
 11
75.599999999999454
 21
-84.599999999999909
 31
0.0
  0
LINE
  8
DETAIL
  6
CONTINUOUS
 62
     5
 10
68.399999999999636
 20
-86.399999999999864
 30
0.0
 11
68.399999999999636
 21
-93.599999999999909
 31
0.0
  0
LINE
  8
DETAIL
  6
CONTINUOUS
 62
     5
 10
68.399999999999636
 20
-86.399999999999864
 30
0.0
 11
75.599999999999454
 21
-86.399999999999864
 31
0.0
  0
LINE
  8
DETAIL
  6
CONTINUOUS
 62
     5
 10
68.399999999999636
 20
-93.599999999999909
 30
0.0
 11
75.599999999999454
 21
-93.599999999999909
 31
0.0
  0
LINE
  8
DETAIL
  6
CONTINUOUS
 62
     5
 10
75.599999999999454
 20
-86.399999999999864
 30
0.0
 11
75.599999999999454
 21
-93.599999999999909
 31
0.0
  0
LINE
  8
DETAIL
  6
CONTINUOUS
 62
     5
 10
59.399999999999643
 20
-39.599999999999909
 30
0.0
 11
66.599999999999454
 21
-39.599999999999909
 31
0.0
  0
LINE
  8
DETAIL
  6
CONTINUOUS
 62
     5
 10
59.399999999999643
 20
-41.399999999999856
 30
0.0
 11
59.399999999999643
 21
-48.599999999999909
 31
0.0
  0
LINE
  8
DETAIL
  6
CONTINUOUS
 62
     5
 10
59.399999999999643
 20
-41.399999999999856
 30
0.0
 11
66.599999999999454
 21
-41.399999999999856
 31
0.0
  0
LINE
  8
DETAIL
  6
CONTINUOUS
 62
     5
 10
59.399999999999643
 20
-48.599999999999909
 30
0.0
 11
66.599999999999454
 21
-48.599999999999909
 31
0.0
  0
LINE
  8
DETAIL
  6
CONTINUOUS
 62
     5
 10
66.599999999999454
 20
-41.399999999999856
 30
0.0
 11
66.599999999999454
 21
-48.599999999999909
 31
0.0
  0
LINE
  8
DETAIL
  6
CONTINUOUS
 62
     5
 10
59.399999999999643
 20
-50.399999999999856
 30
0.0
 11
59.399999999999643
 21
-57.599999999999909
 31
0.0
  0
LINE
  8
DETAIL
  6
CONTINUOUS
 62
     5
 10
59.399999999999643
 20
-50.399999999999856
 30
0.0
 11
66.599999999999454
 21
-50.399999999999856
 31
0.0
  0
LINE
  8
DETAIL
  6
CONTINUOUS
 62
     5
 10
59.399999999999643
 20
-57.599999999999909
 30
0.0
 11
66.599999999999454
 21
-57.599999999999909
 31
0.0
  0
LINE
  8
DETAIL
  6
CONTINUOUS
 62
     5
 10
66.599999999999454
 20
-50.399999999999856
 30
0.0
 11
66.599999999999454
 21
-57.599999999999909
 31
0.0
  0
LINE
  8
DETAIL
  6
CONTINUOUS
 62
     5
 10
59.399999999999643
 20
-59.399999999999856
 30
0.0
 11
59.399999999999643
 21
-66.599999999999909
 31
0.0
  0
LINE
  8
DETAIL
  6
CONTINUOUS
 62
     5
 10
59.399999999999643
 20
-59.399999999999856
 30
0.0
 11
66.599999999999454
 21
-59.399999999999856
 31
0.0
  0
LINE
  8
DETAIL
  6
CONTINUOUS
 62
     5
 10
59.399999999999643
 20
-66.599999999999909
 30
0.0
 11
66.599999999999454
 21
-66.599999999999909
 31
0.0
  0
LINE
  8
DETAIL
  6
CONTINUOUS
 62
     5
 10
66.599999999999454
 20
-59.399999999999856
 30
0.0
 11
66.599999999999454
 21
-66.599999999999909
 31
0.0
  0
LINE
  8
DETAIL
  6
CONTINUOUS
 62
     5
 10
59.399999999999643
 20
-68.399999999999864
 30
0.0
 11
59.399999999999643
 21
-75.599999999999909
 31
0.0
  0
LINE
  8
DETAIL
  6
CONTINUOUS
 62
     5
 10
59.399999999999643
 20
-68.399999999999864
 30
0.0
 11
66.599999999999454
 21
-68.399999999999864
 31
0.0
  0
LINE
  8
DETAIL
  6
CONTINUOUS
 62
     5
 10
59.399999999999643
 20
-75.599999999999909
 30
0.0
 11
66.599999999999454
 21
-75.599999999999909
 31
0.0
  0
LINE
  8
DETAIL
  6
CONTINUOUS
 62
     5
 10
66.599999999999454
 20
-68.399999999999864
 30
0.0
 11
66.599999999999454
 21
-75.599999999999909
 31
0.0
  0
LINE
  8
DETAIL
  6
CONTINUOUS
 62
     5
 10
59.399999999999643
 20
-77.399999999999864
 30
0.0
 11
59.399999999999643
 21
-84.599999999999909
 31
0.0
  0
LINE
  8
DETAIL
  6
CONTINUOUS
 62
     5
 10
59.399999999999643
 20
-77.399999999999864
 30
0.0
 11
66.599999999999454
 21
-77.399999999999864
 31
0.0
  0
LINE
  8
DETAIL
  6
CONTINUOUS
 62
     5
 10
59.399999999999643
 20
-84.599999999999909
 30
0.0
 11
66.599999999999454
 21
-84.599999999999909
 31
0.0
  0
LINE
  8
DETAIL
  6
CONTINUOUS
 62
     5
 10
66.599999999999454
 20
-77.399999999999864
 30
0.0
 11
66.599999999999454
 21
-84.599999999999909
 31
0.0
  0
LINE
  8
DETAIL
  6
CONTINUOUS
 62
     5
 10
59.399999999999643
 20
-86.399999999999864
 30
0.0
 11
59.399999999999643
 21
-93.599999999999909
 31
0.0
  0
LINE
  8
DETAIL
  6
CONTINUOUS
 62
     5
 10
59.399999999999643
 20
-86.399999999999864
 30
0.0
 11
66.599999999999454
 21
-86.399999999999864
 31
0.0
  0
LINE
  8
DETAIL
  6
CONTINUOUS
 62
     5
 10
59.399999999999643
 20
-93.599999999999909
 30
0.0
 11
66.599999999999454
 21
-93.599999999999909
 31
0.0
  0
LINE
  8
DETAIL
  6
CONTINUOUS
 62
     5
 10
66.599999999999454
 20
-86.399999999999864
 30
0.0
 11
66.599999999999454
 21
-93.599999999999909
 31
0.0
  0
LINE
  8
DETAIL
  6
CONTINUOUS
 62
     5
 10
50.399999999999643
 20
-39.599999999999909
 30
0.0
 11
57.599999999999447
 21
-39.599999999999909
 31
0.0
  0
LINE
  8
DETAIL
  6
CONTINUOUS
 62
     5
 10
50.399999999999643
 20
-41.399999999999856
 30
0.0
 11
50.399999999999643
 21
-48.599999999999909
 31
0.0
  0
LINE
  8
DETAIL
  6
CONTINUOUS
 62
     5
 10
50.399999999999643
 20
-41.399999999999856
 30
0.0
 11
57.599999999999447
 21
-41.399999999999856
 31
0.0
  0
LINE
  8
DETAIL
  6
CONTINUOUS
 62
     5
 10
50.399999999999643
 20
-48.599999999999909
 30
0.0
 11
57.599999999999447
 21
-48.599999999999909
 31
0.0
  0
LINE
  8
DETAIL
  6
CONTINUOUS
 62
     5
 10
57.599999999999447
 20
-41.399999999999856
 30
0.0
 11
57.599999999999447
 21
-48.599999999999909
 31
0.0
  0
LINE
  8
DETAIL
  6
CONTINUOUS
 62
     5
 10
50.399999999999643
 20
-50.399999999999856
 30
0.0
 11
50.399999999999643
 21
-57.599999999999909
 31
0.0
  0
LINE
  8
DETAIL
  6
CONTINUOUS
 62
     5
 10
50.399999999999643
 20
-50.399999999999856
 30
0.0
 11
57.599999999999447
 21
-50.399999999999856
 31
0.0
  0
LINE
  8
DETAIL
  6
CONTINUOUS
 62
     5
 10
50.399999999999643
 20
-57.599999999999909
 30
0.0
 11
57.599999999999447
 21
-57.599999999999909
 31
0.0
  0
LINE
  8
DETAIL
  6
CONTINUOUS
 62
     5
 10
57.599999999999447
 20
-50.399999999999856
 30
0.0
 11
57.599999999999447
 21
-57.599999999999909
 31
0.0
  0
LINE
  8
DETAIL
  6
CONTINUOUS
 62
     5
 10
50.399999999999643
 20
-59.399999999999856
 30
0.0
 11
50.399999999999643
 21
-66.599999999999909
 31
0.0
  0
LINE
  8
DETAIL
  6
CONTINUOUS
 62
     5
 10
50.399999999999643
 20
-59.399999999999856
 30
0.0
 11
57.599999999999447
 21
-59.399999999999856
 31
0.0
  0
LINE
  8
DETAIL
  6
CONTINUOUS
 62
     5
 10
50.399999999999643
 20
-66.599999999999909
 30
0.0
 11
57.599999999999447
 21
-66.599999999999909
 31
0.0
  0
LINE
  8
DETAIL
  6
CONTINUOUS
 62
     5
 10
57.599999999999447
 20
-59.399999999999856
 30
0.0
 11
57.599999999999447
 21
-66.599999999999909
 31
0.0
  0
LINE
  8
DETAIL
  6
CONTINUOUS
 62
     5
 10
50.399999999999643
 20
-68.399999999999864
 30
0.0
 11
50.399999999999643
 21
-75.599999999999909
 31
0.0
  0
LINE
  8
DETAIL
  6
CONTINUOUS
 62
     5
 10
50.399999999999643
 20
-68.399999999999864
 30
0.0
 11
57.599999999999447
 21
-68.399999999999864
 31
0.0
  0
LINE
  8
DETAIL
  6
CONTINUOUS
 62
     5
 10
50.399999999999643
 20
-75.599999999999909
 30
0.0
 11
57.599999999999447
 21
-75.599999999999909
 31
0.0
  0
LINE
  8
DETAIL
  6
CONTINUOUS
 62
     5
 10
57.599999999999447
 20
-68.399999999999864
 30
0.0
 11
57.599999999999447
 21
-75.599999999999909
 31
0.0
  0
LINE
  8
DETAIL
  6
CONTINUOUS
 62
     5
 10
50.399999999999643
 20
-77.399999999999864
 30
0.0
 11
50.399999999999643
 21
-84.599999999999909
 31
0.0
  0
LINE
  8
DETAIL
  6
CONTINUOUS
 62
     5
 10
50.399999999999643
 20
-77.399999999999864
 30
0.0
 11
57.599999999999447
 21
-77.399999999999864
 31
0.0
  0
LINE
  8
DETAIL
  6
CONTINUOUS
 62
     5
 10
50.399999999999643
 20
-84.599999999999909
 30
0.0
 11
57.599999999999447
 21
-84.599999999999909
 31
0.0
  0
LINE
  8
DETAIL
  6
CONTINUOUS
 62
     5
 10
57.599999999999447
 20
-77.399999999999864
 30
0.0
 11
57.599999999999447
 21
-84.599999999999909
 31
0.0
  0
LINE
  8
DETAIL
  6
CONTINUOUS
 62
     5
 10
50.399999999999643
 20
-86.399999999999864
 30
0.0
 11
50.399999999999643
 21
-93.599999999999909
 31
0.0
  0
LINE
  8
DETAIL
  6
CONTINUOUS
 62
     5
 10
50.399999999999643
 20
-86.399999999999864
 30
0.0
 11
57.599999999999447
 21
-86.399999999999864
 31
0.0
  0
LINE
  8
DETAIL
  6
CONTINUOUS
 62
     5
 10
50.399999999999643
 20
-93.599999999999909
 30
0.0
 11
57.599999999999447
 21
-93.599999999999909
 31
0.0
  0
LINE
  8
DETAIL
  6
CONTINUOUS
 62
     5
 10
57.599999999999447
 20
-86.399999999999864
 30
0.0
 11
57.599999999999447
 21
-93.599999999999909
 31
0.0
  0
LINE
  8
DETAIL
  6
CONTINUOUS
 62
     5
 10
41.399999999999643
 20
-41.399999999999856
 30
0.0
 11
41.399999999999643
 21
-48.599999999999909
 31
0.0
  0
LINE
  8
DETAIL
  6
CONTINUOUS
 62
     5
 10
41.399999999999643
 20
-41.399999999999856
 30
0.0
 11
48.599999999999447
 21
-41.399999999999856
 31
0.0
  0
LINE
  8
DETAIL
  6
CONTINUOUS
 62
     5
 10
41.399999999999643
 20
-48.599999999999909
 30
0.0
 11
48.599999999999447
 21
-48.599999999999909
 31
0.0
  0
LINE
  8
DETAIL
  6
CONTINUOUS
 62
     5
 10
48.599999999999447
 20
-41.399999999999856
 30
0.0
 11
48.599999999999447
 21
-48.599999999999909
 31
0.0
  0
LINE
  8
DETAIL
  6
CONTINUOUS
 62
     5
 10
41.399999999999643
 20
-50.399999999999856
 30
0.0
 11
41.399999999999643
 21
-57.599999999999909
 31
0.0
  0
LINE
  8
DETAIL
  6
CONTINUOUS
 62
     5
 10
41.399999999999643
 20
-50.399999999999856
 30
0.0
 11
48.599999999999447
 21
-50.399999999999856
 31
0.0
  0
LINE
  8
DETAIL
  6
CONTINUOUS
 62
     5
 10
41.399999999999643
 20
-57.599999999999909
 30
0.0
 11
48.599999999999447
 21
-57.599999999999909
 31
0.0
  0
LINE
  8
DETAIL
  6
CONTINUOUS
 62
     5
 10
48.599999999999447
 20
-50.399999999999856
 30
0.0
 11
48.599999999999447
 21
-57.599999999999909
 31
0.0
  0
LINE
  8
DETAIL
  6
CONTINUOUS
 62
     5
 10
41.399999999999643
 20
-59.399999999999856
 30
0.0
 11
41.399999999999643
 21
-66.599999999999909
 31
0.0
  0
LINE
  8
DETAIL
  6
CONTINUOUS
 62
     5
 10
41.399999999999643
 20
-59.399999999999856
 30
0.0
 11
48.599999999999447
 21
-59.399999999999856
 31
0.0
  0
LINE
  8
DETAIL
  6
CONTINUOUS
 62
     5
 10
41.399999999999643
 20
-66.599999999999909
 30
0.0
 11
48.599999999999447
 21
-66.599999999999909
 31
0.0
  0
LINE
  8
DETAIL
  6
CONTINUOUS
 62
     5
 10
48.599999999999447
 20
-59.399999999999856
 30
0.0
 11
48.599999999999447
 21
-66.599999999999909
 31
0.0
  0
LINE
  8
DETAIL
  6
CONTINUOUS
 62
     5
 10
41.399999999999643
 20
-68.399999999999864
 30
0.0
 11
41.399999999999643
 21
-75.599999999999909
 31
0.0
  0
LINE
  8
DETAIL
  6
CONTINUOUS
 62
     5
 10
41.399999999999643
 20
-68.399999999999864
 30
0.0
 11
48.599999999999447
 21
-68.399999999999864
 31
0.0
  0
LINE
  8
DETAIL
  6
CONTINUOUS
 62
     5
 10
41.399999999999643
 20
-75.599999999999909
 30
0.0
 11
48.599999999999447
 21
-75.599999999999909
 31
0.0
  0
LINE
  8
DETAIL
  6
CONTINUOUS
 62
     5
 10
48.599999999999447
 20
-68.399999999999864
 30
0.0
 11
48.599999999999447
 21
-75.599999999999909
 31
0.0
  0
LINE
  8
DETAIL
  6
CONTINUOUS
 62
     5
 10
41.399999999999643
 20
-77.399999999999864
 30
0.0
 11
41.399999999999643
 21
-84.599999999999909
 31
0.0
  0
LINE
  8
DETAIL
  6
CONTINUOUS
 62
     5
 10
41.399999999999643
 20
-77.399999999999864
 30
0.0
 11
48.599999999999447
 21
-77.399999999999864
 31
0.0
  0
LINE
  8
DETAIL
  6
CONTINUOUS
 62
     5
 10
41.399999999999643
 20
-84.599999999999909
 30
0.0
 11
48.599999999999447
 21
-84.599999999999909
 31
0.0
  0
LINE
  8
DETAIL
  6
CONTINUOUS
 62
     5
 10
48.599999999999447
 20
-77.399999999999864
 30
0.0
 11
48.599999999999447
 21
-84.599999999999909
 31
0.0
  0
LINE
  8
DETAIL
  6
CONTINUOUS
 62
     5
 10
41.399999999999643
 20
-86.399999999999864
 30
0.0
 11
41.399999999999643
 21
-93.599999999999909
 31
0.0
  0
LINE
  8
DETAIL
  6
CONTINUOUS
 62
     5
 10
41.399999999999643
 20
-86.399999999999864
 30
0.0
 11
48.599999999999447
 21
-86.399999999999864
 31
0.0
  0
LINE
  8
DETAIL
  6
CONTINUOUS
 62
     5
 10
41.399999999999643
 20
-93.599999999999909
 30
0.0
 11
48.599999999999447
 21
-93.599999999999909
 31
0.0
  0
LINE
  8
DETAIL
  6
CONTINUOUS
 62
     5
 10
48.599999999999447
 20
-86.399999999999864
 30
0.0
 11
48.599999999999447
 21
-93.599999999999909
 31
0.0
  0
LINE
  8
DETAIL
  6
CONTINUOUS
 62
     5
 10
32.399999999999643
 20
-50.399999999999856
 30
0.0
 11
32.399999999999643
 21
-57.599999999999909
 31
0.0
  0
LINE
  8
DETAIL
  6
CONTINUOUS
 62
     5
 10
32.399999999999643
 20
-50.399999999999856
 30
0.0
 11
39.599999999999447
 21
-50.399999999999856
 31
0.0
  0
LINE
  8
DETAIL
  6
CONTINUOUS
 62
     5
 10
32.399999999999643
 20
-57.599999999999909
 30
0.0
 11
39.599999999999447
 21
-57.599999999999909
 31
0.0
  0
LINE
  8
DETAIL
  6
CONTINUOUS
 62
     5
 10
39.599999999999447
 20
-50.399999999999856
 30
0.0
 11
39.599999999999447
 21
-57.599999999999909
 31
0.0
  0
LINE
  8
DETAIL
  6
CONTINUOUS
 62
     5
 10
32.399999999999643
 20
-59.399999999999856
 30
0.0
 11
32.399999999999643
 21
-66.599999999999909
 31
0.0
  0
LINE
  8
DETAIL
  6
CONTINUOUS
 62
     5
 10
32.399999999999643
 20
-59.399999999999856
 30
0.0
 11
39.599999999999447
 21
-59.399999999999856
 31
0.0
  0
LINE
  8
DETAIL
  6
CONTINUOUS
 62
     5
 10
32.399999999999643
 20
-66.599999999999909
 30
0.0
 11
39.599999999999447
 21
-66.599999999999909
 31
0.0
  0
LINE
  8
DETAIL
  6
CONTINUOUS
 62
     5
 10
39.599999999999447
 20
-59.399999999999856
 30
0.0
 11
39.599999999999447
 21
-66.599999999999909
 31
0.0
  0
LINE
  8
DETAIL
  6
CONTINUOUS
 62
     5
 10
32.399999999999643
 20
-68.399999999999864
 30
0.0
 11
32.399999999999643
 21
-75.599999999999909
 31
0.0
  0
LINE
  8
DETAIL
  6
CONTINUOUS
 62
     5
 10
32.399999999999643
 20
-68.399999999999864
 30
0.0
 11
39.599999999999447
 21
-68.399999999999864
 31
0.0
  0
LINE
  8
DETAIL
  6
CONTINUOUS
 62
     5
 10
32.399999999999643
 20
-75.599999999999909
 30
0.0
 11
39.599999999999447
 21
-75.599999999999909
 31
0.0
  0
LINE
  8
DETAIL
  6
CONTINUOUS
 62
     5
 10
39.599999999999447
 20
-68.399999999999864
 30
0.0
 11
39.599999999999447
 21
-75.599999999999909
 31
0.0
  0
LINE
  8
DETAIL
  6
CONTINUOUS
 62
     5
 10
32.399999999999643
 20
-77.399999999999864
 30
0.0
 11
32.399999999999643
 21
-84.599999999999909
 31
0.0
  0
LINE
  8
DETAIL
  6
CONTINUOUS
 62
     5
 10
32.399999999999643
 20
-77.399999999999864
 30
0.0
 11
39.599999999999447
 21
-77.399999999999864
 31
0.0
  0
LINE
  8
DETAIL
  6
CONTINUOUS
 62
     5
 10
32.399999999999643
 20
-84.599999999999909
 30
0.0
 11
39.599999999999447
 21
-84.599999999999909
 31
0.0
  0
LINE
  8
DETAIL
  6
CONTINUOUS
 62
     5
 10
39.599999999999447
 20
-77.399999999999864
 30
0.0
 11
39.599999999999447
 21
-84.599999999999909
 31
0.0
  0
LINE
  8
DETAIL
  6
CONTINUOUS
 62
     5
 10
32.399999999999643
 20
-86.399999999999864
 30
0.0
 11
32.399999999999643
 21
-93.599999999999909
 31
0.0
  0
LINE
  8
DETAIL
  6
CONTINUOUS
 62
     5
 10
32.399999999999643
 20
-86.399999999999864
 30
0.0
 11
39.599999999999447
 21
-86.399999999999864
 31
0.0
  0
LINE
  8
DETAIL
  6
CONTINUOUS
 62
     5
 10
32.399999999999643
 20
-93.599999999999909
 30
0.0
 11
39.599999999999447
 21
-93.599999999999909
 31
0.0
  0
LINE
  8
DETAIL
  6
CONTINUOUS
 62
     5
 10
39.599999999999447
 20
-86.399999999999864
 30
0.0
 11
39.599999999999447
 21
-93.599999999999909
 31
0.0
  0
LINE
  8
DETAIL
  6
CONTINUOUS
 62
     5
 10
23.39999999999964
 20
-59.399999999999856
 30
0.0
 11
23.39999999999964
 21
-66.599999999999909
 31
0.0
  0
LINE
  8
DETAIL
  6
CONTINUOUS
 62
     5
 10
23.39999999999964
 20
-59.399999999999856
 30
0.0
 11
30.599999999999451
 21
-59.399999999999856
 31
0.0
  0
LINE
  8
DETAIL
  6
CONTINUOUS
 62
     5
 10
23.39999999999964
 20
-66.599999999999909
 30
0.0
 11
30.599999999999451
 21
-66.599999999999909
 31
0.0
  0
LINE
  8
DETAIL
  6
CONTINUOUS
 62
     5
 10
30.599999999999451
 20
-59.399999999999856
 30
0.0
 11
30.599999999999451
 21
-66.599999999999909
 31
0.0
  0
LINE
  8
DETAIL
  6
CONTINUOUS
 62
     5
 10
23.39999999999964
 20
-68.399999999999864
 30
0.0
 11
23.39999999999964
 21
-75.599999999999909
 31
0.0
  0
LINE
  8
DETAIL
  6
CONTINUOUS
 62
     5
 10
23.39999999999964
 20
-68.399999999999864
 30
0.0
 11
30.599999999999451
 21
-68.399999999999864
 31
0.0
  0
LINE
  8
DETAIL
  6
CONTINUOUS
 62
     5
 10
23.39999999999964
 20
-75.599999999999909
 30
0.0
 11
30.599999999999451
 21
-75.599999999999909
 31
0.0
  0
LINE
  8
DETAIL
  6
CONTINUOUS
 62
     5
 10
30.599999999999451
 20
-68.399999999999864
 30
0.0
 11
30.599999999999451
 21
-75.599999999999909
 31
0.0
  0
LINE
  8
DETAIL
  6
CONTINUOUS
 62
     5
 10
23.39999999999964
 20
-77.399999999999864
 30
0.0
 11
23.39999999999964
 21
-84.599999999999909
 31
0.0
  0
LINE
  8
DETAIL
  6
CONTINUOUS
 62
     5
 10
23.39999999999964
 20
-77.399999999999864
 30
0.0
 11
30.599999999999451
 21
-77.399999999999864
 31
0.0
  0
LINE
  8
DETAIL
  6
CONTINUOUS
 62
     5
 10
23.39999999999964
 20
-84.599999999999909
 30
0.0
 11
30.599999999999451
 21
-84.599999999999909
 31
0.0
  0
LINE
  8
DETAIL
  6
CONTINUOUS
 62
     5
 10
30.599999999999451
 20
-77.399999999999864
 30
0.0
 11
30.599999999999451
 21
-84.599999999999909
 31
0.0
  0
LINE
  8
DETAIL
  6
CONTINUOUS
 62
     5
 10
23.39999999999964
 20
-86.399999999999864
 30
0.0
 11
23.39999999999964
 21
-93.599999999999909
 31
0.0
  0
LINE
  8
DETAIL
  6
CONTINUOUS
 62
     5
 10
23.39999999999964
 20
-86.399999999999864
 30
0.0
 11
30.599999999999451
 21
-86.399999999999864
 31
0.0
  0
LINE
  8
DETAIL
  6
CONTINUOUS
 62
     5
 10
23.39999999999964
 20
-93.599999999999909
 30
0.0
 11
30.599999999999451
 21
-93.599999999999909
 31
0.0
  0
LINE
  8
DETAIL
  6
CONTINUOUS
 62
     5
 10
30.599999999999451
 20
-86.399999999999864
 30
0.0
 11
30.599999999999451
 21
-93.599999999999909
 31
0.0
  0
LINE
  8
DETAIL
  6
CONTINUOUS
 62
     5
 10
14.39999999999964
 20
-68.399999999999864
 30
0.0
 11
14.39999999999964
 21
-75.599999999999909
 31
0.0
  0
LINE
  8
DETAIL
  6
CONTINUOUS
 62
     5
 10
14.39999999999964
 20
-68.399999999999864
 30
0.0
 11
21.599999999999451
 21
-68.399999999999864
 31
0.0
  0
LINE
  8
DETAIL
  6
CONTINUOUS
 62
     5
 10
14.39999999999964
 20
-75.599999999999909
 30
0.0
 11
21.599999999999451
 21
-75.599999999999909
 31
0.0
  0
LINE
  8
DETAIL
  6
CONTINUOUS
 62
     5
 10
21.599999999999451
 20
-68.399999999999864
 30
0.0
 11
21.599999999999451
 21
-75.599999999999909
 31
0.0
  0
LINE
  8
DETAIL
  6
CONTINUOUS
 62
     5
 10
14.39999999999964
 20
-77.399999999999864
 30
0.0
 11
14.39999999999964
 21
-84.599999999999909
 31
0.0
  0
LINE
  8
DETAIL
  6
CONTINUOUS
 62
     5
 10
14.39999999999964
 20
-77.399999999999864
 30
0.0
 11
21.599999999999451
 21
-77.399999999999864
 31
0.0
  0
LINE
  8
DETAIL
  6
CONTINUOUS
 62
     5
 10
14.39999999999964
 20
-84.599999999999909
 30
0.0
 11
21.599999999999451
 21
-84.599999999999909
 31
0.0
  0
LINE
  8
DETAIL
  6
CONTINUOUS
 62
     5
 10
21.599999999999451
 20
-77.399999999999864
 30
0.0
 11
21.599999999999451
 21
-84.599999999999909
 31
0.0
  0
LINE
  8
DETAIL
  6
CONTINUOUS
 62
     5
 10
14.39999999999964
 20
-86.399999999999864
 30
0.0
 11
14.39999999999964
 21
-93.599999999999909
 31
0.0
  0
LINE
  8
DETAIL
  6
CONTINUOUS
 62
     5
 10
14.39999999999964
 20
-86.399999999999864
 30
0.0
 11
21.599999999999451
 21
-86.399999999999864
 31
0.0
  0
LINE
  8
DETAIL
  6
CONTINUOUS
 62
     5
 10
14.39999999999964
 20
-93.599999999999909
 30
0.0
 11
21.599999999999451
 21
-93.599999999999909
 31
0.0
  0
LINE
  8
DETAIL
  6
CONTINUOUS
 62
     5
 10
21.599999999999451
 20
-86.399999999999864
 30
0.0
 11
21.599999999999451
 21
-93.599999999999909
 31
0.0
  0
LINE
  8
DETAIL
  6
CONTINUOUS
 62
     5
 10
5.3999999999996362
 20
-77.399999999999864
 30
0.0
 11
5.3999999999996362
 21
-84.599999999999909
 31
0.0
  0
LINE
  8
DETAIL
  6
CONTINUOUS
 62
     5
 10
5.3999999999996362
 20
-77.399999999999864
 30
0.0
 11
12.599999999999451
 21
-77.399999999999864
 31
0.0
  0
LINE
  8
DETAIL
  6
CONTINUOUS
 62
     5
 10
5.3999999999996362
 20
-84.599999999999909
 30
0.0
 11
12.599999999999451
 21
-84.599999999999909
 31
0.0
  0
LINE
  8
DETAIL
  6
CONTINUOUS
 62
     5
 10
12.599999999999451
 20
-77.399999999999864
 30
0.0
 11
12.599999999999451
 21
-84.599999999999909
 31
0.0
  0
LINE
  8
DETAIL
  6
CONTINUOUS
 62
     5
 10
5.3999999999996362
 20
-86.399999999999864
 30
0.0
 11
5.3999999999996362
 21
-93.599999999999909
 31
0.0
  0
LINE
  8
DETAIL
  6
CONTINUOUS
 62
     5
 10
5.3999999999996362
 20
-86.399999999999864
 30
0.0
 11
12.599999999999451
 21
-86.399999999999864
 31
0.0
  0
LINE
  8
DETAIL
  6
CONTINUOUS
 62
     5
 10
5.3999999999996362
 20
-93.599999999999909
 30
0.0
 11
12.599999999999451
 21
-93.599999999999909
 31
0.0
  0
LINE
  8
DETAIL
  6
CONTINUOUS
 62
     5
 10
12.599999999999451
 20
-86.399999999999864
 30
0.0
 11
12.599999999999451
 21
-93.599999999999909
 31
0.0
  0
LINE
  8
DETAIL
  6
CONTINUOUS
 62
     5
 10
3.5999999999994539
 20
-86.399999999999864
 30
0.0
 11
3.5999999999994539
 21
-93.599999999999909
 31
0.0
  0
LINE
  8
DETAIL
  6
CONTINUOUS
 62
     5
 10
57.599999999999447
 20
-32.399999999999856
 30
0.0
 11
50.399999999999643
 21
-32.399999999999856
 31
0.0
  0
LINE
  8
DETAIL
  6
CONTINUOUS
 62
     5
 10
50.399999999999643
 20
-32.399999999999856
 30
0.0
 11
50.399999999999643
 21
-39.599999999999909
 31
0.0
  0
LINE
  8
DETAIL
  6
CONTINUOUS
 62
     5
 10
59.399999999999643
 20
-32.399999999999856
 30
0.0
 11
59.399999999999643
 21
-39.599999999999909
 31
0.0
  0
LINE
  8
DETAIL
  6
CONTINUOUS
 62
     5
 10
75.599999999999454
 20
-14.39999999999986
 30
0.0
 11
68.399999999999636
 21
-14.39999999999986
 31
0.0
  0
LINE
  8
DETAIL
  6
CONTINUOUS
 62
     5
 10
68.399999999999636
 20
-14.39999999999986
 30
0.0
 11
68.399999999999636
 21
-21.599999999999909
 31
0.0
  0
LINE
  8
DETAIL
  6
CONTINUOUS
 62
     5
 10
86.399999999999636
 20
-3.5999999999999091
 30
0.0
 11
93.599999999999454
 21
-3.5999999999999091
 31
0.0
  0
LINE
  8
DETAIL
  6
CONTINUOUS
 62
     5
 10
86.399999999999636
 20
-5.3999999999998636
 30
0.0
 11
86.399999999999636
 21
-12.599999999999911
 31
0.0
  0
LINE
  8
DETAIL
  6
CONTINUOUS
 62
     5
 10
86.399999999999636
 20
-5.3999999999998636
 30
0.0
 11
93.599999999999454
 21
-5.3999999999998636
 31
0.0
  0
LINE
  8
DETAIL
  6
CONTINUOUS
 62
     5
 10
86.399999999999636
 20
-12.599999999999911
 30
0.0
 11
93.599999999999454
 21
-12.599999999999911
 31
0.0
  0
LINE
  8
DETAIL
  6
CONTINUOUS
 62
     5
 10
93.599999999999454
 20
-5.3999999999998636
 30
0.0
 11
93.599999999999454
 21
-12.599999999999911
 31
0.0
  0
LINE
  8
DETAIL
  6
CONTINUOUS
 62
     5
 10
86.399999999999636
 20
-14.39999999999986
 30
0.0
 11
86.399999999999636
 21
-21.599999999999909
 31
0.0
  0
LINE
  8
DETAIL
  6
CONTINUOUS
 62
     5
 10
86.399999999999636
 20
-14.39999999999986
 30
0.0
 11
93.599999999999454
 21
-14.39999999999986
 31
0.0
  0
LINE
  8
DETAIL
  6
CONTINUOUS
 62
     5
 10
86.399999999999636
 20
-21.599999999999909
 30
0.0
 11
93.599999999999454
 21
-21.599999999999909
 31
0.0
  0
LINE
  8
DETAIL
  6
CONTINUOUS
 62
     5
 10
93.599999999999454
 20
-14.39999999999986
 30
0.0
 11
93.599999999999454
 21
-21.599999999999909
 31
0.0
  0
LINE
  8
DETAIL
  6
CONTINUOUS
 62
     5
 10
86.399999999999636
 20
-23.39999999999986
 30
0.0
 11
86.399999999999636
 21
-30.599999999999909
 31
0.0
  0
LINE
  8
DETAIL
  6
CONTINUOUS
 62
     5
 10
86.399999999999636
 20
-23.39999999999986
 30
0.0
 11
93.599999999999454
 21
-23.39999999999986
 31
0.0
  0
LINE
  8
DETAIL
  6
CONTINUOUS
 62
     5
 10
86.399999999999636
 20
-30.599999999999909
 30
0.0
 11
93.599999999999454
 21
-30.599999999999909
 31
0.0
  0
LINE
  8
DETAIL
  6
CONTINUOUS
 62
     5
 10
93.599999999999454
 20
-23.39999999999986
 30
0.0
 11
93.599999999999454
 21
-30.599999999999909
 31
0.0
  0
LINE
  8
DETAIL
  6
CONTINUOUS
 62
     5
 10
86.399999999999636
 20
-32.399999999999856
 30
0.0
 11
86.399999999999636
 21
-39.599999999999909
 31
0.0
  0
LINE
  8
DETAIL
  6
CONTINUOUS
 62
     5
 10
86.399999999999636
 20
-32.399999999999856
 30
0.0
 11
93.599999999999454
 21
-32.399999999999856
 31
0.0
  0
LINE
  8
DETAIL
  6
CONTINUOUS
 62
     5
 10
93.599999999999454
 20
-32.399999999999856
 30
0.0
 11
93.599999999999454
 21
-39.599999999999909
 31
0.0
  0
LINE
  8
DETAIL
  6
CONTINUOUS
 62
     5
 10
77.399999999999636
 20
-5.3999999999998636
 30
0.0
 11
77.399999999999636
 21
-12.599999999999911
 31
0.0
  0
LINE
  8
DETAIL
  6
CONTINUOUS
 62
     5
 10
77.399999999999636
 20
-5.3999999999998636
 30
0.0
 11
84.599999999999454
 21
-5.3999999999998636
 31
0.0
  0
LINE
  8
DETAIL
  6
CONTINUOUS
 62
     5
 10
77.399999999999636
 20
-12.599999999999911
 30
0.0
 11
84.599999999999454
 21
-12.599999999999911
 31
0.0
  0
LINE
  8
DETAIL
  6
CONTINUOUS
 62
     5
 10
84.599999999999454
 20
-5.3999999999998636
 30
0.0
 11
84.599999999999454
 21
-12.599999999999911
 31
0.0
  0
LINE
  8
DETAIL
  6
CONTINUOUS
 62
     5
 10
77.399999999999636
 20
-14.39999999999986
 30
0.0
 11
77.399999999999636
 21
-21.599999999999909
 31
0.0
  0
LINE
  8
DETAIL
  6
CONTINUOUS
 62
     5
 10
77.399999999999636
 20
-14.39999999999986
 30
0.0
 11
84.599999999999454
 21
-14.39999999999986
 31
0.0
  0
LINE
  8
DETAIL
  6
CONTINUOUS
 62
     5
 10
77.399999999999636
 20
-21.599999999999909
 30
0.0
 11
84.599999999999454
 21
-21.599999999999909
 31
0.0
  0
LINE
  8
DETAIL
  6
CONTINUOUS
 62
     5
 10
84.599999999999454
 20
-14.39999999999986
 30
0.0
 11
84.599999999999454
 21
-21.599999999999909
 31
0.0
  0
LINE
  8
DETAIL
  6
CONTINUOUS
 62
     5
 10
77.399999999999636
 20
-23.39999999999986
 30
0.0
 11
77.399999999999636
 21
-30.599999999999909
 31
0.0
  0
LINE
  8
DETAIL
  6
CONTINUOUS
 62
     5
 10
77.399999999999636
 20
-23.39999999999986
 30
0.0
 11
84.599999999999454
 21
-23.39999999999986
 31
0.0
  0
LINE
  8
DETAIL
  6
CONTINUOUS
 62
     5
 10
77.399999999999636
 20
-30.599999999999909
 30
0.0
 11
84.599999999999454
 21
-30.599999999999909
 31
0.0
  0
LINE
  8
DETAIL
  6
CONTINUOUS
 62
     5
 10
84.599999999999454
 20
-23.39999999999986
 30
0.0
 11
84.599999999999454
 21
-30.599999999999909
 31
0.0
  0
LINE
  8
DETAIL
  6
CONTINUOUS
 62
     5
 10
77.399999999999636
 20
-32.399999999999856
 30
0.0
 11
77.399999999999636
 21
-39.599999999999909
 31
0.0
  0
LINE
  8
DETAIL
  6
CONTINUOUS
 62
     5
 10
77.399999999999636
 20
-32.399999999999856
 30
0.0
 11
84.599999999999454
 21
-32.399999999999856
 31
0.0
  0
LINE
  8
DETAIL
  6
CONTINUOUS
 62
     5
 10
84.599999999999454
 20
-32.399999999999856
 30
0.0
 11
84.599999999999454
 21
-39.599999999999909
 31
0.0
  0
LINE
  8
DETAIL
  6
CONTINUOUS
 62
     5
 10
68.399999999999636
 20
-14.39999999999986
 30
0.0
 11
68.399999999999636
 21
-21.599999999999909
 31
0.0
  0
LINE
  8
DETAIL
  6
CONTINUOUS
 62
     5
 10
68.399999999999636
 20
-14.39999999999986
 30
0.0
 11
75.599999999999454
 21
-14.39999999999986
 31
0.0
  0
LINE
  8
DETAIL
  6
CONTINUOUS
 62
     5
 10
68.399999999999636
 20
-21.599999999999909
 30
0.0
 11
75.599999999999454
 21
-21.599999999999909
 31
0.0
  0
LINE
  8
DETAIL
  6
CONTINUOUS
 62
     5
 10
75.599999999999454
 20
-14.39999999999986
 30
0.0
 11
75.599999999999454
 21
-21.599999999999909
 31
0.0
  0
LINE
  8
DETAIL
  6
CONTINUOUS
 62
     5
 10
68.399999999999636
 20
-23.39999999999986
 30
0.0
 11
68.399999999999636
 21
-30.599999999999909
 31
0.0
  0
LINE
  8
DETAIL
  6
CONTINUOUS
 62
     5
 10
68.399999999999636
 20
-23.39999999999986
 30
0.0
 11
75.599999999999454
 21
-23.39999999999986
 31
0.0
  0
LINE
  8
DETAIL
  6
CONTINUOUS
 62
     5
 10
68.399999999999636
 20
-30.599999999999909
 30
0.0
 11
75.599999999999454
 21
-30.599999999999909
 31
0.0
  0
LINE
  8
DETAIL
  6
CONTINUOUS
 62
     5
 10
75.599999999999454
 20
-23.39999999999986
 30
0.0
 11
75.599999999999454
 21
-30.599999999999909
 31
0.0
  0
LINE
  8
DETAIL
  6
CONTINUOUS
 62
     5
 10
68.399999999999636
 20
-32.399999999999856
 30
0.0
 11
68.399999999999636
 21
-39.599999999999909
 31
0.0
  0
LINE
  8
DETAIL
  6
CONTINUOUS
 62
     5
 10
68.399999999999636
 20
-32.399999999999856
 30
0.0
 11
75.599999999999454
 21
-32.399999999999856
 31
0.0
  0
LINE
  8
DETAIL
  6
CONTINUOUS
 62
     5
 10
75.599999999999454
 20
-32.399999999999856
 30
0.0
 11
75.599999999999454
 21
-39.599999999999909
 31
0.0
  0
LINE
  8
DETAIL
  6
CONTINUOUS
 62
     5
 10
59.399999999999643
 20
-23.39999999999986
 30
0.0
 11
59.399999999999643
 21
-30.599999999999909
 31
0.0
  0
LINE
  8
DETAIL
  6
CONTINUOUS
 62
     5
 10
59.399999999999643
 20
-23.39999999999986
 30
0.0
 11
66.599999999999454
 21
-23.39999999999986
 31
0.0
  0
LINE
  8
DETAIL
  6
CONTINUOUS
 62
     5
 10
59.399999999999643
 20
-30.599999999999909
 30
0.0
 11
66.599999999999454
 21
-30.599999999999909
 31
0.0
  0
LINE
  8
DETAIL
  6
CONTINUOUS
 62
     5
 10
66.599999999999454
 20
-23.39999999999986
 30
0.0
 11
66.599999999999454
 21
-30.599999999999909
 31
0.0
  0
LINE
  8
DETAIL
  6
CONTINUOUS
 62
     5
 10
59.399999999999643
 20
-32.399999999999856
 30
0.0
 11
59.399999999999643
 21
-39.599999999999909
 31
0.0
  0
LINE
  8
DETAIL
  6
CONTINUOUS
 62
     5
 10
59.399999999999643
 20
-32.399999999999856
 30
0.0
 11
66.599999999999454
 21
-32.399999999999856
 31
0.0
  0
LINE
  8
DETAIL
  6
CONTINUOUS
 62
     5
 10
66.599999999999454
 20
-32.399999999999856
 30
0.0
 11
66.599999999999454
 21
-39.599999999999909
 31
0.0
  0
LINE
  8
DETAIL
  6
CONTINUOUS
 62
     5
 10
57.599999999999447
 20
-23.39999999999986
 30
0.0
 11
57.599999999999447
 21
-30.599999999999909
 31
0.0
  0
LINE
  8
DETAIL
  6
CONTINUOUS
 62
     5
 10
50.399999999999643
 20
-32.399999999999856
 30
0.0
 11
50.399999999999643
 21
-39.599999999999909
 31
0.0
  0
LINE
  8
DETAIL
  6
CONTINUOUS
 62
     5
 10
50.399999999999643
 20
-32.399999999999856
 30
0.0
 11
57.599999999999447
 21
-32.399999999999856
 31
0.0
  0
LINE
  8
DETAIL
  6
CONTINUOUS
 62
     5
 10
57.599999999999447
 20
-32.399999999999856
 30
0.0
 11
57.599999999999447
 21
-39.599999999999909
 31
0.0
  0
LINE
  8
DETAIL
  6
CONTINUOUS
 62
     5
 10
5.3999999999996362
 20
3.600000000000136
 30
0.0
 11
12.599999999999451
 21
3.600000000000136
 31
0.0
  0
LINE
  8
DETAIL
  6
CONTINUOUS
 62
     5
 10
14.39999999999964
 20
3.600000000000136
 30
0.0
 11
21.599999999999451
 21
3.600000000000136
 31
0.0
  0
LINE
  8
DETAIL
  6
CONTINUOUS
 62
     5
 10
23.39999999999964
 20
3.600000000000136
 30
0.0
 11
30.599999999999451
 21
3.600000000000136
 31
0.0
  0
LINE
  8
DETAIL
  6
CONTINUOUS
 62
     5
 10
32.399999999999643
 20
3.600000000000136
 30
0.0
 11
39.599999999999447
 21
3.600000000000136
 31
0.0
  0
LINE
  8
DETAIL
  6
CONTINUOUS
 62
     5
 10
41.399999999999643
 20
3.600000000000136
 30
0.0
 11
48.599999999999447
 21
3.600000000000136
 31
0.0
  0
LINE
  8
DETAIL
  6
CONTINUOUS
 62
     5
 10
50.399999999999643
 20
3.600000000000136
 30
0.0
 11
57.599999999999447
 21
3.600000000000136
 31
0.0
  0
LINE
  8
DETAIL
  6
CONTINUOUS
 62
     5
 10
59.399999999999643
 20
3.600000000000136
 30
0.0
 11
66.599999999999454
 21
3.600000000000136
 31
0.0
  0
LINE
  8
DETAIL
  6
CONTINUOUS
 62
     5
 10
68.399999999999636
 20
3.600000000000136
 30
0.0
 11
75.599999999999454
 21
3.600000000000136
 31
0.0
  0
LINE
  8
DETAIL
  6
CONTINUOUS
 62
     5
 10
77.399999999999636
 20
3.600000000000136
 30
0.0
 11
84.599999999999454
 21
3.600000000000136
 31
0.0
  0
LINE
  8
DETAIL
  6
CONTINUOUS
 62
     5
 10
75.599999999999454
 20
5.4000000000000909
 30
0.0
 11
75.599999999999454
 21
12.60000000000014
 31
0.0
  0
LINE
  8
DETAIL
  6
CONTINUOUS
 62
     5
 10
75.599999999999454
 20
5.4000000000000909
 30
0.0
 11
68.399999999999636
 21
5.4000000000000909
 31
0.0
  0
LINE
  8
DETAIL
  6
CONTINUOUS
 62
     5
 10
68.399999999999636
 20
5.4000000000000909
 30
0.0
 11
68.399999999999636
 21
12.60000000000014
 31
0.0
  0
LINE
  8
DETAIL
  6
CONTINUOUS
 62
     5
 10
68.399999999999636
 20
5.4000000000000909
 30
0.0
 11
68.399999999999636
 21
12.60000000000014
 31
0.0
  0
LINE
  8
DETAIL
  6
CONTINUOUS
 62
     5
 10
68.399999999999636
 20
5.4000000000000909
 30
0.0
 11
75.599999999999454
 21
5.4000000000000909
 31
0.0
  0
LINE
  8
DETAIL
  6
CONTINUOUS
 62
     5
 10
68.399999999999636
 20
12.60000000000014
 30
0.0
 11
75.599999999999454
 21
12.60000000000014
 31
0.0
  0
LINE
  8
DETAIL
  6
CONTINUOUS
 62
     5
 10
59.399999999999643
 20
5.4000000000000909
 30
0.0
 11
59.399999999999643
 21
12.60000000000014
 31
0.0
  0
LINE
  8
DETAIL
  6
CONTINUOUS
 62
     5
 10
59.399999999999643
 20
5.4000000000000909
 30
0.0
 11
66.599999999999454
 21
5.4000000000000909
 31
0.0
  0
LINE
  8
DETAIL
  6
CONTINUOUS
 62
     5
 10
59.399999999999643
 20
12.60000000000014
 30
0.0
 11
66.599999999999454
 21
12.60000000000014
 31
0.0
  0
LINE
  8
DETAIL
  6
CONTINUOUS
 62
     5
 10
66.599999999999454
 20
5.4000000000000909
 30
0.0
 11
66.599999999999454
 21
12.60000000000014
 31
0.0
  0
LINE
  8
DETAIL
  6
CONTINUOUS
 62
     5
 10
59.399999999999643
 20
14.400000000000089
 30
0.0
 11
59.399999999999643
 21
21.60000000000014
 31
0.0
  0
LINE
  8
DETAIL
  6
CONTINUOUS
 62
     5
 10
59.399999999999643
 20
14.400000000000089
 30
0.0
 11
66.599999999999454
 21
14.400000000000089
 31
0.0
  0
LINE
  8
DETAIL
  6
CONTINUOUS
 62
     5
 10
59.399999999999643
 20
21.60000000000014
 30
0.0
 11
66.599999999999454
 21
21.60000000000014
 31
0.0
  0
LINE
  8
DETAIL
  6
CONTINUOUS
 62
     5
 10
66.599999999999454
 20
14.400000000000089
 30
0.0
 11
66.599999999999454
 21
21.60000000000014
 31
0.0
  0
LINE
  8
DETAIL
  6
CONTINUOUS
 62
     5
 10
50.399999999999643
 20
12.60000000000014
 30
0.0
 11
57.599999999999447
 21
12.60000000000014
 31
0.0
  0
LINE
  8
DETAIL
  6
CONTINUOUS
 62
     5
 10
57.599999999999447
 20
5.4000000000000909
 30
0.0
 11
50.399999999999643
 21
5.4000000000000909
 31
0.0
  0
LINE
  8
DETAIL
  6
CONTINUOUS
 62
     5
 10
50.399999999999643
 20
5.4000000000000909
 30
0.0
 11
50.399999999999643
 21
12.60000000000014
 31
0.0
  0
LINE
  8
DETAIL
  6
CONTINUOUS
 62
     5
 10
50.399999999999643
 20
5.4000000000000909
 30
0.0
 11
50.399999999999643
 21
12.60000000000014
 31
0.0
  0
LINE
  8
DETAIL
  6
CONTINUOUS
 62
     5
 10
50.399999999999643
 20
5.4000000000000909
 30
0.0
 11
57.599999999999447
 21
5.4000000000000909
 31
0.0
  0
LINE
  8
DETAIL
  6
CONTINUOUS
 62
     5
 10
57.599999999999447
 20
5.4000000000000909
 30
0.0
 11
57.599999999999447
 21
12.60000000000014
 31
0.0
  0
LINE
  8
DETAIL
  6
CONTINUOUS
 62
     5
 10
50.399999999999643
 20
21.60000000000014
 30
0.0
 11
57.599999999999447
 21
21.60000000000014
 31
0.0
  0
LINE
  8
DETAIL
  6
CONTINUOUS
 62
     5
 10
57.599999999999447
 20
14.400000000000089
 30
0.0
 11
50.399999999999643
 21
14.400000000000089
 31
0.0
  0
LINE
  8
DETAIL
  6
CONTINUOUS
 62
     5
 10
50.399999999999643
 20
14.400000000000089
 30
0.0
 11
50.399999999999643
 21
21.60000000000014
 31
0.0
  0
LINE
  8
DETAIL
  6
CONTINUOUS
 62
     5
 10
50.399999999999643
 20
14.400000000000089
 30
0.0
 11
50.399999999999643
 21
21.60000000000014
 31
0.0
  0
LINE
  8
DETAIL
  6
CONTINUOUS
 62
     5
 10
50.399999999999643
 20
14.400000000000089
 30
0.0
 11
57.599999999999447
 21
14.400000000000089
 31
0.0
  0
LINE
  8
DETAIL
  6
CONTINUOUS
 62
     5
 10
57.599999999999447
 20
14.400000000000089
 30
0.0
 11
57.599999999999447
 21
21.60000000000014
 31
0.0
  0
LINE
  8
DETAIL
  6
CONTINUOUS
 62
     5
 10
50.399999999999643
 20
30.60000000000014
 30
0.0
 11
57.599999999999447
 21
30.60000000000014
 31
0.0
  0
LINE
  8
DETAIL
  6
CONTINUOUS
 62
     5
 10
57.599999999999447
 20
23.400000000000091
 30
0.0
 11
50.399999999999643
 21
23.400000000000091
 31
0.0
  0
LINE
  8
DETAIL
  6
CONTINUOUS
 62
     5
 10
50.399999999999643
 20
23.400000000000091
 30
0.0
 11
50.399999999999643
 21
30.60000000000014
 31
0.0
  0
LINE
  8
DETAIL
  6
CONTINUOUS
 62
     5
 10
50.399999999999643
 20
23.400000000000091
 30
0.0
 11
50.399999999999643
 21
30.60000000000014
 31
0.0
  0
LINE
  8
DETAIL
  6
CONTINUOUS
 62
     5
 10
50.399999999999643
 20
23.400000000000091
 30
0.0
 11
57.599999999999447
 21
23.400000000000091
 31
0.0
  0
LINE
  8
DETAIL
  6
CONTINUOUS
 62
     5
 10
57.599999999999447
 20
23.400000000000091
 30
0.0
 11
57.599999999999447
 21
30.60000000000014
 31
0.0
  0
LINE
  8
DETAIL
  6
CONTINUOUS
 62
     5
 10
41.399999999999643
 20
5.4000000000000909
 30
0.0
 11
41.399999999999643
 21
12.60000000000014
 31
0.0
  0
LINE
  8
DETAIL
  6
CONTINUOUS
 62
     5
 10
41.399999999999643
 20
5.4000000000000909
 30
0.0
 11
48.599999999999447
 21
5.4000000000000909
 31
0.0
  0
LINE
  8
DETAIL
  6
CONTINUOUS
 62
     5
 10
41.399999999999643
 20
12.60000000000014
 30
0.0
 11
48.599999999999447
 21
12.60000000000014
 31
0.0
  0
LINE
  8
DETAIL
  6
CONTINUOUS
 62
     5
 10
48.599999999999447
 20
5.4000000000000909
 30
0.0
 11
48.599999999999447
 21
12.60000000000014
 31
0.0
  0
LINE
  8
DETAIL
  6
CONTINUOUS
 62
     5
 10
41.399999999999643
 20
14.400000000000089
 30
0.0
 11
41.399999999999643
 21
21.60000000000014
 31
0.0
  0
LINE
  8
DETAIL
  6
CONTINUOUS
 62
     5
 10
41.399999999999643
 20
14.400000000000089
 30
0.0
 11
48.599999999999447
 21
14.400000000000089
 31
0.0
  0
LINE
  8
DETAIL
  6
CONTINUOUS
 62
     5
 10
41.399999999999643
 20
21.60000000000014
 30
0.0
 11
48.599999999999447
 21
21.60000000000014
 31
0.0
  0
LINE
  8
DETAIL
  6
CONTINUOUS
 62
     5
 10
48.599999999999447
 20
14.400000000000089
 30
0.0
 11
48.599999999999447
 21
21.60000000000014
 31
0.0
  0
LINE
  8
DETAIL
  6
CONTINUOUS
 62
     5
 10
41.399999999999643
 20
23.400000000000091
 30
0.0
 11
41.399999999999643
 21
30.60000000000014
 31
0.0
  0
LINE
  8
DETAIL
  6
CONTINUOUS
 62
     5
 10
41.399999999999643
 20
23.400000000000091
 30
0.0
 11
48.599999999999447
 21
23.400000000000091
 31
0.0
  0
LINE
  8
DETAIL
  6
CONTINUOUS
 62
     5
 10
41.399999999999643
 20
30.60000000000014
 30
0.0
 11
48.599999999999447
 21
30.60000000000014
 31
0.0
  0
LINE
  8
DETAIL
  6
CONTINUOUS
 62
     5
 10
48.599999999999447
 20
23.400000000000091
 30
0.0
 11
48.599999999999447
 21
30.60000000000014
 31
0.0
  0
LINE
  8
DETAIL
  6
CONTINUOUS
 62
     5
 10
41.399999999999643
 20
32.400000000000091
 30
0.0
 11
41.399999999999643
 21
39.600000000000144
 31
0.0
  0
LINE
  8
DETAIL
  6
CONTINUOUS
 62
     5
 10
41.399999999999643
 20
32.400000000000091
 30
0.0
 11
48.599999999999447
 21
32.400000000000091
 31
0.0
  0
LINE
  8
DETAIL
  6
CONTINUOUS
 62
     5
 10
41.399999999999643
 20
39.600000000000144
 30
0.0
 11
48.599999999999447
 21
39.600000000000144
 31
0.0
  0
LINE
  8
DETAIL
  6
CONTINUOUS
 62
     5
 10
48.599999999999447
 20
32.400000000000091
 30
0.0
 11
48.599999999999447
 21
39.600000000000144
 31
0.0
  0
LINE
  8
DETAIL
  6
CONTINUOUS
 62
     5
 10
32.399999999999643
 20
5.4000000000000909
 30
0.0
 11
32.399999999999643
 21
12.60000000000014
 31
0.0
  0
LINE
  8
DETAIL
  6
CONTINUOUS
 62
     5
 10
32.399999999999643
 20
5.4000000000000909
 30
0.0
 11
39.599999999999447
 21
5.4000000000000909
 31
0.0
  0
LINE
  8
DETAIL
  6
CONTINUOUS
 62
     5
 10
32.399999999999643
 20
12.60000000000014
 30
0.0
 11
39.599999999999447
 21
12.60000000000014
 31
0.0
  0
LINE
  8
DETAIL
  6
CONTINUOUS
 62
     5
 10
39.599999999999447
 20
5.4000000000000909
 30
0.0
 11
39.599999999999447
 21
12.60000000000014
 31
0.0
  0
LINE
  8
DETAIL
  6
CONTINUOUS
 62
     5
 10
32.399999999999643
 20
14.400000000000089
 30
0.0
 11
32.399999999999643
 21
21.60000000000014
 31
0.0
  0
LINE
  8
DETAIL
  6
CONTINUOUS
 62
     5
 10
32.399999999999643
 20
14.400000000000089
 30
0.0
 11
39.599999999999447
 21
14.400000000000089
 31
0.0
  0
LINE
  8
DETAIL
  6
CONTINUOUS
 62
     5
 10
32.399999999999643
 20
21.60000000000014
 30
0.0
 11
39.599999999999447
 21
21.60000000000014
 31
0.0
  0
LINE
  8
DETAIL
  6
CONTINUOUS
 62
     5
 10
39.599999999999447
 20
14.400000000000089
 30
0.0
 11
39.599999999999447
 21
21.60000000000014
 31
0.0
  0
LINE
  8
DETAIL
  6
CONTINUOUS
 62
     5
 10
32.399999999999643
 20
23.400000000000091
 30
0.0
 11
32.399999999999643
 21
30.60000000000014
 31
0.0
  0
LINE
  8
DETAIL
  6
CONTINUOUS
 62
     5
 10
32.399999999999643
 20
23.400000000000091
 30
0.0
 11
39.599999999999447
 21
23.400000000000091
 31
0.0
  0
LINE
  8
DETAIL
  6
CONTINUOUS
 62
     5
 10
32.399999999999643
 20
30.60000000000014
 30
0.0
 11
39.599999999999447
 21
30.60000000000014
 31
0.0
  0
LINE
  8
DETAIL
  6
CONTINUOUS
 62
     5
 10
39.599999999999447
 20
23.400000000000091
 30
0.0
 11
39.599999999999447
 21
30.60000000000014
 31
0.0
  0
LINE
  8
DETAIL
  6
CONTINUOUS
 62
     5
 10
32.399999999999643
 20
32.400000000000091
 30
0.0
 11
32.399999999999643
 21
39.600000000000144
 31
0.0
  0
LINE
  8
DETAIL
  6
CONTINUOUS
 62
     5
 10
32.399999999999643
 20
32.400000000000091
 30
0.0
 11
39.599999999999447
 21
32.400000000000091
 31
0.0
  0
LINE
  8
DETAIL
  6
CONTINUOUS
 62
     5
 10
32.399999999999643
 20
39.600000000000144
 30
0.0
 11
39.599999999999447
 21
39.600000000000144
 31
0.0
  0
LINE
  8
DETAIL
  6
CONTINUOUS
 62
     5
 10
39.599999999999447
 20
32.400000000000091
 30
0.0
 11
39.599999999999447
 21
39.600000000000144
 31
0.0
  0
LINE
  8
DETAIL
  6
CONTINUOUS
 62
     5
 10
32.399999999999643
 20
41.400000000000091
 30
0.0
 11
32.399999999999643
 21
48.600000000000144
 31
0.0
  0
LINE
  8
DETAIL
  6
CONTINUOUS
 62
     5
 10
32.399999999999643
 20
41.400000000000091
 30
0.0
 11
39.599999999999447
 21
41.400000000000091
 31
0.0
  0
LINE
  8
DETAIL
  6
CONTINUOUS
 62
     5
 10
32.399999999999643
 20
48.600000000000144
 30
0.0
 11
39.599999999999447
 21
48.600000000000144
 31
0.0
  0
LINE
  8
DETAIL
  6
CONTINUOUS
 62
     5
 10
39.599999999999447
 20
41.400000000000091
 30
0.0
 11
39.599999999999447
 21
48.600000000000144
 31
0.0
  0
LINE
  8
DETAIL
  6
CONTINUOUS
 62
     5
 10
30.599999999999451
 20
5.4000000000000909
 30
0.0
 11
23.39999999999964
 21
5.4000000000000909
 31
0.0
  0
LINE
  8
DETAIL
  6
CONTINUOUS
 62
     5
 10
23.39999999999964
 20
5.4000000000000909
 30
0.0
 11
23.39999999999964
 21
12.60000000000014
 31
0.0
  0
LINE
  8
DETAIL
  6
CONTINUOUS
 62
     5
 10
23.39999999999964
 20
5.4000000000000909
 30
0.0
 11
23.39999999999964
 21
12.60000000000014
 31
0.0
  0
LINE
  8
DETAIL
  6
CONTINUOUS
 62
     5
 10
23.39999999999964
 20
5.4000000000000909
 30
0.0
 11
30.599999999999451
 21
5.4000000000000909
 31
0.0
  0
LINE
  8
DETAIL
  6
CONTINUOUS
 62
     5
 10
23.39999999999964
 20
12.60000000000014
 30
0.0
 11
30.599999999999451
 21
12.60000000000014
 31
0.0
  0
LINE
  8
DETAIL
  6
CONTINUOUS
 62
     5
 10
30.599999999999451
 20
5.4000000000000909
 30
0.0
 11
30.599999999999451
 21
12.60000000000014
 31
0.0
  0
LINE
  8
DETAIL
  6
CONTINUOUS
 62
     5
 10
30.599999999999451
 20
14.400000000000089
 30
0.0
 11
23.39999999999964
 21
14.400000000000089
 31
0.0
  0
LINE
  8
DETAIL
  6
CONTINUOUS
 62
     5
 10
23.39999999999964
 20
14.400000000000089
 30
0.0
 11
23.39999999999964
 21
21.60000000000014
 31
0.0
  0
LINE
  8
DETAIL
  6
CONTINUOUS
 62
     5
 10
23.39999999999964
 20
14.400000000000089
 30
0.0
 11
23.39999999999964
 21
21.60000000000014
 31
0.0
  0
LINE
  8
DETAIL
  6
CONTINUOUS
 62
     5
 10
23.39999999999964
 20
14.400000000000089
 30
0.0
 11
30.599999999999451
 21
14.400000000000089
 31
0.0
  0
LINE
  8
DETAIL
  6
CONTINUOUS
 62
     5
 10
23.39999999999964
 20
21.60000000000014
 30
0.0
 11
30.599999999999451
 21
21.60000000000014
 31
0.0
  0
LINE
  8
DETAIL
  6
CONTINUOUS
 62
     5
 10
30.599999999999451
 20
14.400000000000089
 30
0.0
 11
30.599999999999451
 21
21.60000000000014
 31
0.0
  0
LINE
  8
DETAIL
  6
CONTINUOUS
 62
     5
 10
30.599999999999451
 20
23.400000000000091
 30
0.0
 11
23.39999999999964
 21
23.400000000000091
 31
0.0
  0
LINE
  8
DETAIL
  6
CONTINUOUS
 62
     5
 10
23.39999999999964
 20
23.400000000000091
 30
0.0
 11
23.39999999999964
 21
30.60000000000014
 31
0.0
  0
LINE
  8
DETAIL
  6
CONTINUOUS
 62
     5
 10
23.39999999999964
 20
23.400000000000091
 30
0.0
 11
23.39999999999964
 21
30.60000000000014
 31
0.0
  0
LINE
  8
DETAIL
  6
CONTINUOUS
 62
     5
 10
23.39999999999964
 20
23.400000000000091
 30
0.0
 11
30.599999999999451
 21
23.400000000000091
 31
0.0
  0
LINE
  8
DETAIL
  6
CONTINUOUS
 62
     5
 10
23.39999999999964
 20
30.60000000000014
 30
0.0
 11
30.599999999999451
 21
30.60000000000014
 31
0.0
  0
LINE
  8
DETAIL
  6
CONTINUOUS
 62
     5
 10
30.599999999999451
 20
23.400000000000091
 30
0.0
 11
30.599999999999451
 21
30.60000000000014
 31
0.0
  0
LINE
  8
DETAIL
  6
CONTINUOUS
 62
     5
 10
30.599999999999451
 20
32.400000000000091
 30
0.0
 11
23.39999999999964
 21
32.400000000000091
 31
0.0
  0
LINE
  8
DETAIL
  6
CONTINUOUS
 62
     5
 10
23.39999999999964
 20
32.400000000000091
 30
0.0
 11
23.39999999999964
 21
39.600000000000144
 31
0.0
  0
LINE
  8
DETAIL
  6
CONTINUOUS
 62
     5
 10
23.39999999999964
 20
32.400000000000091
 30
0.0
 11
23.39999999999964
 21
39.600000000000144
 31
0.0
  0
LINE
  8
DETAIL
  6
CONTINUOUS
 62
     5
 10
23.39999999999964
 20
32.400000000000091
 30
0.0
 11
30.599999999999451
 21
32.400000000000091
 31
0.0
  0
LINE
  8
DETAIL
  6
CONTINUOUS
 62
     5
 10
23.39999999999964
 20
39.600000000000144
 30
0.0
 11
30.599999999999451
 21
39.600000000000144
 31
0.0
  0
LINE
  8
DETAIL
  6
CONTINUOUS
 62
     5
 10
30.599999999999451
 20
32.400000000000091
 30
0.0
 11
30.599999999999451
 21
39.600000000000144
 31
0.0
  0
LINE
  8
DETAIL
  6
CONTINUOUS
 62
     5
 10
30.599999999999451
 20
41.400000000000091
 30
0.0
 11
23.39999999999964
 21
41.400000000000091
 31
0.0
  0
LINE
  8
DETAIL
  6
CONTINUOUS
 62
     5
 10
23.39999999999964
 20
41.400000000000091
 30
0.0
 11
23.39999999999964
 21
48.600000000000144
 31
0.0
  0
LINE
  8
DETAIL
  6
CONTINUOUS
 62
     5
 10
23.39999999999964
 20
41.400000000000091
 30
0.0
 11
23.39999999999964
 21
48.600000000000144
 31
0.0
  0
LINE
  8
DETAIL
  6
CONTINUOUS
 62
     5
 10
23.39999999999964
 20
41.400000000000091
 30
0.0
 11
30.599999999999451
 21
41.400000000000091
 31
0.0
  0
LINE
  8
DETAIL
  6
CONTINUOUS
 62
     5
 10
23.39999999999964
 20
48.600000000000144
 30
0.0
 11
30.599999999999451
 21
48.600000000000144
 31
0.0
  0
LINE
  8
DETAIL
  6
CONTINUOUS
 62
     5
 10
30.599999999999451
 20
41.400000000000091
 30
0.0
 11
30.599999999999451
 21
48.600000000000144
 31
0.0
  0
LINE
  8
DETAIL
  6
CONTINUOUS
 62
     5
 10
30.599999999999451
 20
50.400000000000091
 30
0.0
 11
23.39999999999964
 21
50.400000000000091
 31
0.0
  0
LINE
  8
DETAIL
  6
CONTINUOUS
 62
     5
 10
23.39999999999964
 20
50.400000000000091
 30
0.0
 11
23.39999999999964
 21
57.600000000000144
 31
0.0
  0
LINE
  8
DETAIL
  6
CONTINUOUS
 62
     5
 10
23.39999999999964
 20
50.400000000000091
 30
0.0
 11
23.39999999999964
 21
57.600000000000144
 31
0.0
  0
LINE
  8
DETAIL
  6
CONTINUOUS
 62
     5
 10
23.39999999999964
 20
50.400000000000091
 30
0.0
 11
30.599999999999451
 21
50.400000000000091
 31
0.0
  0
LINE
  8
DETAIL
  6
CONTINUOUS
 62
     5
 10
23.39999999999964
 20
57.600000000000144
 30
0.0
 11
30.599999999999451
 21
57.600000000000144
 31
0.0
  0
LINE
  8
DETAIL
  6
CONTINUOUS
 62
     5
 10
30.599999999999451
 20
50.400000000000091
 30
0.0
 11
30.599999999999451
 21
57.600000000000144
 31
0.0
  0
LINE
  8
DETAIL
  6
CONTINUOUS
 62
     5
 10
14.39999999999964
 20
5.4000000000000909
 30
0.0
 11
14.39999999999964
 21
12.60000000000014
 31
0.0
  0
LINE
  8
DETAIL
  6
CONTINUOUS
 62
     5
 10
14.39999999999964
 20
5.4000000000000909
 30
0.0
 11
21.599999999999451
 21
5.4000000000000909
 31
0.0
  0
LINE
  8
DETAIL
  6
CONTINUOUS
 62
     5
 10
14.39999999999964
 20
12.60000000000014
 30
0.0
 11
21.599999999999451
 21
12.60000000000014
 31
0.0
  0
LINE
  8
DETAIL
  6
CONTINUOUS
 62
     5
 10
21.599999999999451
 20
5.4000000000000909
 30
0.0
 11
21.599999999999451
 21
12.60000000000014
 31
0.0
  0
LINE
  8
DETAIL
  6
CONTINUOUS
 62
     5
 10
14.39999999999964
 20
14.400000000000089
 30
0.0
 11
14.39999999999964
 21
21.60000000000014
 31
0.0
  0
LINE
  8
DETAIL
  6
CONTINUOUS
 62
     5
 10
14.39999999999964
 20
14.400000000000089
 30
0.0
 11
21.599999999999451
 21
14.400000000000089
 31
0.0
  0
LINE
  8
DETAIL
  6
CONTINUOUS
 62
     5
 10
14.39999999999964
 20
21.60000000000014
 30
0.0
 11
21.599999999999451
 21
21.60000000000014
 31
0.0
  0
LINE
  8
DETAIL
  6
CONTINUOUS
 62
     5
 10
21.599999999999451
 20
14.400000000000089
 30
0.0
 11
21.599999999999451
 21
21.60000000000014
 31
0.0
  0
LINE
  8
DETAIL
  6
CONTINUOUS
 62
     5
 10
14.39999999999964
 20
23.400000000000091
 30
0.0
 11
14.39999999999964
 21
30.60000000000014
 31
0.0
  0
LINE
  8
DETAIL
  6
CONTINUOUS
 62
     5
 10
14.39999999999964
 20
23.400000000000091
 30
0.0
 11
21.599999999999451
 21
23.400000000000091
 31
0.0
  0
LINE
  8
DETAIL
  6
CONTINUOUS
 62
     5
 10
14.39999999999964
 20
30.60000000000014
 30
0.0
 11
21.599999999999451
 21
30.60000000000014
 31
0.0
  0
LINE
  8
DETAIL
  6
CONTINUOUS
 62
     5
 10
21.599999999999451
 20
23.400000000000091
 30
0.0
 11
21.599999999999451
 21
30.60000000000014
 31
0.0
  0
LINE
  8
DETAIL
  6
CONTINUOUS
 62
     5
 10
14.39999999999964
 20
32.400000000000091
 30
0.0
 11
14.39999999999964
 21
39.600000000000144
 31
0.0
  0
LINE
  8
DETAIL
  6
CONTINUOUS
 62
     5
 10
14.39999999999964
 20
32.400000000000091
 30
0.0
 11
21.599999999999451
 21
32.400000000000091
 31
0.0
  0
LINE
  8
DETAIL
  6
CONTINUOUS
 62
     5
 10
14.39999999999964
 20
39.600000000000144
 30
0.0
 11
21.599999999999451
 21
39.600000000000144
 31
0.0
  0
LINE
  8
DETAIL
  6
CONTINUOUS
 62
     5
 10
21.599999999999451
 20
32.400000000000091
 30
0.0
 11
21.599999999999451
 21
39.600000000000144
 31
0.0
  0
LINE
  8
DETAIL
  6
CONTINUOUS
 62
     5
 10
14.39999999999964
 20
41.400000000000091
 30
0.0
 11
14.39999999999964
 21
48.600000000000144
 31
0.0
  0
LINE
  8
DETAIL
  6
CONTINUOUS
 62
     5
 10
14.39999999999964
 20
41.400000000000091
 30
0.0
 11
21.599999999999451
 21
41.400000000000091
 31
0.0
  0
LINE
  8
DETAIL
  6
CONTINUOUS
 62
     5
 10
14.39999999999964
 20
48.600000000000144
 30
0.0
 11
21.599999999999451
 21
48.600000000000144
 31
0.0
  0
LINE
  8
DETAIL
  6
CONTINUOUS
 62
     5
 10
21.599999999999451
 20
41.400000000000091
 30
0.0
 11
21.599999999999451
 21
48.600000000000144
 31
0.0
  0
LINE
  8
DETAIL
  6
CONTINUOUS
 62
     5
 10
14.39999999999964
 20
50.400000000000091
 30
0.0
 11
14.39999999999964
 21
57.600000000000144
 31
0.0
  0
LINE
  8
DETAIL
  6
CONTINUOUS
 62
     5
 10
14.39999999999964
 20
50.400000000000091
 30
0.0
 11
21.599999999999451
 21
50.400000000000091
 31
0.0
  0
LINE
  8
DETAIL
  6
CONTINUOUS
 62
     5
 10
14.39999999999964
 20
57.600000000000144
 30
0.0
 11
21.599999999999451
 21
57.600000000000144
 31
0.0
  0
LINE
  8
DETAIL
  6
CONTINUOUS
 62
     5
 10
21.599999999999451
 20
50.400000000000091
 30
0.0
 11
21.599999999999451
 21
57.600000000000144
 31
0.0
  0
LINE
  8
DETAIL
  6
CONTINUOUS
 62
     5
 10
14.39999999999964
 20
59.400000000000091
 30
0.0
 11
14.39999999999964
 21
66.600000000000136
 31
0.0
  0
LINE
  8
DETAIL
  6
CONTINUOUS
 62
     5
 10
14.39999999999964
 20
59.400000000000091
 30
0.0
 11
21.599999999999451
 21
59.400000000000091
 31
0.0
  0
LINE
  8
DETAIL
  6
CONTINUOUS
 62
     5
 10
14.39999999999964
 20
66.600000000000136
 30
0.0
 11
21.599999999999451
 21
66.600000000000136
 31
0.0
  0
LINE
  8
DETAIL
  6
CONTINUOUS
 62
     5
 10
21.599999999999451
 20
59.400000000000091
 30
0.0
 11
21.599999999999451
 21
66.600000000000136
 31
0.0
  0
LINE
  8
DETAIL
  6
CONTINUOUS
 62
     5
 10
5.3999999999996362
 20
5.4000000000000909
 30
0.0
 11
12.599999999999451
 21
5.4000000000000909
 31
0.0
  0
LINE
  8
DETAIL
  6
CONTINUOUS
 62
     5
 10
5.3999999999996362
 20
12.60000000000014
 30
0.0
 11
12.599999999999451
 21
12.60000000000014
 31
0.0
  0
LINE
  8
DETAIL
  6
CONTINUOUS
 62
     5
 10
12.599999999999451
 20
5.4000000000000909
 30
0.0
 11
12.599999999999451
 21
12.60000000000014
 31
0.0
  0
LINE
  8
DETAIL
  6
CONTINUOUS
 62
     5
 10
5.3999999999996362
 20
5.4000000000000909
 30
0.0
 11
5.3999999999996362
 21
12.60000000000014
 31
0.0
  0
LINE
  8
DETAIL
  6
CONTINUOUS
 62
     5
 10
5.3999999999996362
 20
14.400000000000089
 30
0.0
 11
12.599999999999451
 21
14.400000000000089
 31
0.0
  0
LINE
  8
DETAIL
  6
CONTINUOUS
 62
     5
 10
5.3999999999996362
 20
21.60000000000014
 30
0.0
 11
12.599999999999451
 21
21.60000000000014
 31
0.0
  0
LINE
  8
DETAIL
  6
CONTINUOUS
 62
     5
 10
12.599999999999451
 20
14.400000000000089
 30
0.0
 11
12.599999999999451
 21
21.60000000000014
 31
0.0
  0
LINE
  8
DETAIL
  6
CONTINUOUS
 62
     5
 10
5.3999999999996362
 20
14.400000000000089
 30
0.0
 11
5.3999999999996362
 21
21.60000000000014
 31
0.0
  0
LINE
  8
DETAIL
  6
CONTINUOUS
 62
     5
 10
5.3999999999996362
 20
23.400000000000091
 30
0.0
 11
12.599999999999451
 21
23.400000000000091
 31
0.0
  0
LINE
  8
DETAIL
  6
CONTINUOUS
 62
     5
 10
5.3999999999996362
 20
30.60000000000014
 30
0.0
 11
12.599999999999451
 21
30.60000000000014
 31
0.0
  0
LINE
  8
DETAIL
  6
CONTINUOUS
 62
     5
 10
12.599999999999451
 20
23.400000000000091
 30
0.0
 11
12.599999999999451
 21
30.60000000000014
 31
0.0
  0
LINE
  8
DETAIL
  6
CONTINUOUS
 62
     5
 10
5.3999999999996362
 20
23.400000000000091
 30
0.0
 11
5.3999999999996362
 21
30.60000000000014
 31
0.0
  0
LINE
  8
DETAIL
  6
CONTINUOUS
 62
     5
 10
5.3999999999996362
 20
32.400000000000091
 30
0.0
 11
12.599999999999451
 21
32.400000000000091
 31
0.0
  0
LINE
  8
DETAIL
  6
CONTINUOUS
 62
     5
 10
5.3999999999996362
 20
39.600000000000144
 30
0.0
 11
12.599999999999451
 21
39.600000000000144
 31
0.0
  0
LINE
  8
DETAIL
  6
CONTINUOUS
 62
     5
 10
12.599999999999451
 20
32.400000000000091
 30
0.0
 11
12.599999999999451
 21
39.600000000000144
 31
0.0
  0
LINE
  8
DETAIL
  6
CONTINUOUS
 62
     5
 10
5.3999999999996362
 20
32.400000000000091
 30
0.0
 11
5.3999999999996362
 21
39.600000000000144
 31
0.0
  0
LINE
  8
DETAIL
  6
CONTINUOUS
 62
     5
 10
5.3999999999996362
 20
41.400000000000091
 30
0.0
 11
12.599999999999451
 21
41.400000000000091
 31
0.0
  0
LINE
  8
DETAIL
  6
CONTINUOUS
 62
     5
 10
5.3999999999996362
 20
48.600000000000144
 30
0.0
 11
12.599999999999451
 21
48.600000000000144
 31
0.0
  0
LINE
  8
DETAIL
  6
CONTINUOUS
 62
     5
 10
12.599999999999451
 20
41.400000000000091
 30
0.0
 11
12.599999999999451
 21
48.600000000000144
 31
0.0
  0
LINE
  8
DETAIL
  6
CONTINUOUS
 62
     5
 10
5.3999999999996362
 20
41.400000000000091
 30
0.0
 11
5.3999999999996362
 21
48.600000000000144
 31
0.0
  0
LINE
  8
DETAIL
  6
CONTINUOUS
 62
     5
 10
5.3999999999996362
 20
50.400000000000091
 30
0.0
 11
12.599999999999451
 21
50.400000000000091
 31
0.0
  0
LINE
  8
DETAIL
  6
CONTINUOUS
 62
     5
 10
5.3999999999996362
 20
57.600000000000144
 30
0.0
 11
12.599999999999451
 21
57.600000000000144
 31
0.0
  0
LINE
  8
DETAIL
  6
CONTINUOUS
 62
     5
 10
12.599999999999451
 20
50.400000000000091
 30
0.0
 11
12.599999999999451
 21
57.600000000000144
 31
0.0
  0
LINE
  8
DETAIL
  6
CONTINUOUS
 62
     5
 10
5.3999999999996362
 20
50.400000000000091
 30
0.0
 11
5.3999999999996362
 21
57.600000000000144
 31
0.0
  0
LINE
  8
DETAIL
  6
CONTINUOUS
 62
     5
 10
5.3999999999996362
 20
59.400000000000091
 30
0.0
 11
12.599999999999451
 21
59.400000000000091
 31
0.0
  0
LINE
  8
DETAIL
  6
CONTINUOUS
 62
     5
 10
5.3999999999996362
 20
66.600000000000136
 30
0.0
 11
12.599999999999451
 21
66.600000000000136
 31
0.0
  0
LINE
  8
DETAIL
  6
CONTINUOUS
 62
     5
 10
12.599999999999451
 20
59.400000000000091
 30
0.0
 11
12.599999999999451
 21
66.600000000000136
 31
0.0
  0
LINE
  8
DETAIL
  6
CONTINUOUS
 62
     5
 10
5.3999999999996362
 20
59.400000000000091
 30
0.0
 11
5.3999999999996362
 21
66.600000000000136
 31
0.0
  0
LINE
  8
DETAIL
  6
CONTINUOUS
 62
     5
 10
5.3999999999996362
 20
68.400000000000091
 30
0.0
 11
12.599999999999451
 21
68.400000000000091
 31
0.0
  0
LINE
  8
DETAIL
  6
CONTINUOUS
 62
     5
 10
5.3999999999996362
 20
75.600000000000136
 30
0.0
 11
12.599999999999451
 21
75.600000000000136
 31
0.0
  0
LINE
  8
DETAIL
  6
CONTINUOUS
 62
     5
 10
12.599999999999451
 20
68.400000000000091
 30
0.0
 11
12.599999999999451
 21
75.600000000000136
 31
0.0
  0
LINE
  8
DETAIL
  6
CONTINUOUS
 62
     5
 10
5.3999999999996362
 20
68.400000000000091
 30
0.0
 11
5.3999999999996362
 21
75.600000000000136
 31
0.0
  0
LINE
  8
DETAIL
  6
CONTINUOUS
 62
     5
 10
3.5999999999994539
 20
5.4000000000000909
 30
0.0
 11
3.5999999999994539
 21
12.60000000000014
 31
0.0
  0
LINE
  8
DETAIL
  6
CONTINUOUS
 62
     5
 10
3.5999999999994539
 20
14.400000000000089
 30
0.0
 11
3.5999999999994539
 21
21.60000000000014
 31
0.0
  0
LINE
  8
DETAIL
  6
CONTINUOUS
 62
     5
 10
3.5999999999994539
 20
23.400000000000091
 30
0.0
 11
3.5999999999994539
 21
30.60000000000014
 31
0.0
  0
LINE
  8
DETAIL
  6
CONTINUOUS
 62
     5
 10
3.5999999999994539
 20
32.400000000000091
 30
0.0
 11
3.5999999999994539
 21
39.600000000000144
 31
0.0
  0
LINE
  8
DETAIL
  6
CONTINUOUS
 62
     5
 10
3.5999999999994539
 20
41.400000000000091
 30
0.0
 11
3.5999999999994539
 21
48.600000000000144
 31
0.0
  0
LINE
  8
DETAIL
  6
CONTINUOUS
 62
     5
 10
3.5999999999994539
 20
50.400000000000091
 30
0.0
 11
3.5999999999994539
 21
57.600000000000144
 31
0.0
  0
LINE
  8
DETAIL
  6
CONTINUOUS
 62
     5
 10
3.5999999999994539
 20
59.400000000000091
 30
0.0
 11
3.5999999999994539
 21
66.600000000000136
 31
0.0
  0
LINE
  8
DETAIL
  6
CONTINUOUS
 62
     5
 10
3.5999999999994539
 20
68.400000000000091
 30
0.0
 11
3.5999999999994539
 21
75.600000000000136
 31
0.0
  0
LINE
  8
DETAIL
  6
CONTINUOUS
 62
     5
 10
3.5999999999994539
 20
77.400000000000091
 30
0.0
 11
3.5999999999994539
 21
84.600000000000136
 31
0.0
  0
LINE
  8
DETAIL
  6
CONTINUOUS
 62
     5
 10
143.0
 20
-141.99999999999989
 30
0.0
 11
143.0
 21
142.0
 31
0.0
  0
LINE
  8
DETAIL
  6
CONTINUOUS
 62
     5
 10
101.0
 20
97.0
 30
0.0
 11
101.0
 21
-96.999999999999886
 31
0.0
  0
LINE
  8
DETAIL
  6
CONTINUOUS
 62
     5
 10
99.5
 20
95.5
 30
0.0
 11
99.5
 21
-95.499999999999886
 31
0.0
  0
LINE
  8
DETAIL
  6
CONTINUOUS
 62
     5
 10
136.20564899999951
 20
135.20564900000011
 30
0.0
 11
136.20564899999951
 21
-135.20564999999991
 31
0.0
  0
ARC
  8
DETAIL
  6
CONTINUOUS
 62
     5
 10
135.20564899999951
 20
135.20564900000011
 30
0.0
 40
1.0
 50
0.0
 51
90.0
  0
LINE
  8
DETAIL
  6
CONTINUOUS
 62
     5
 10
101.0
 20
97.0
 30
0.0
 11
99.5
 21
95.5
 31
0.0
  0
LINE
  8
DETAIL
  6
CONTINUOUS
 62
     5
 10
97.0
 20
101.0
 30
0.0
 11
95.5
 21
99.5
 31
0.0
  0
ARC
  8
DETAIL
  6
CONTINUOUS
 62
     5
 10
142.0
 20
142.0
 30
0.0
 40
1.0
 50
0.0
 51
90.0
  0
LINE
  8
DETAIL
  6
CONTINUOUS
 62
     5
 10
30.599999999999451
 20
59.400000000000091
 30
0.0
 11
23.39999999999964
 21
59.400000000000091
 31
0.0
  0
LINE
  8
DETAIL
  6
CONTINUOUS
 62
     5
 10
23.39999999999964
 20
59.400000000000091
 30
0.0
 11
23.39999999999964
 21
66.600000000000136
 31
0.0
  0
LINE
  8
DETAIL
  6
CONTINUOUS
 62
     5
 10
86.399999999999636
 20
39.600000000000144
 30
0.0
 11
93.599999999999454
 21
39.600000000000144
 31
0.0
  0
LINE
  8
DETAIL
  6
CONTINUOUS
 62
     5
 10
86.399999999999636
 20
41.400000000000091
 30
0.0
 11
86.399999999999636
 21
48.600000000000144
 31
0.0
  0
LINE
  8
DETAIL
  6
CONTINUOUS
 62
     5
 10
86.399999999999636
 20
41.400000000000091
 30
0.0
 11
93.599999999999454
 21
41.400000000000091
 31
0.0
  0
LINE
  8
DETAIL
  6
CONTINUOUS
 62
     5
 10
86.399999999999636
 20
48.600000000000144
 30
0.0
 11
93.599999999999454
 21
48.600000000000144
 31
0.0
  0
LINE
  8
DETAIL
  6
CONTINUOUS
 62
     5
 10
93.599999999999454
 20
41.400000000000091
 30
0.0
 11
93.599999999999454
 21
48.600000000000144
 31
0.0
  0
LINE
  8
DETAIL
  6
CONTINUOUS
 62
     5
 10
86.399999999999636
 20
50.400000000000091
 30
0.0
 11
86.399999999999636
 21
57.600000000000144
 31
0.0
  0
LINE
  8
DETAIL
  6
CONTINUOUS
 62
     5
 10
86.399999999999636
 20
50.400000000000091
 30
0.0
 11
93.599999999999454
 21
50.400000000000091
 31
0.0
  0
LINE
  8
DETAIL
  6
CONTINUOUS
 62
     5
 10
86.399999999999636
 20
57.600000000000144
 30
0.0
 11
93.599999999999454
 21
57.600000000000144
 31
0.0
  0
LINE
  8
DETAIL
  6
CONTINUOUS
 62
     5
 10
93.599999999999454
 20
50.400000000000091
 30
0.0
 11
93.599999999999454
 21
57.600000000000144
 31
0.0
  0
LINE
  8
DETAIL
  6
CONTINUOUS
 62
     5
 10
86.399999999999636
 20
59.400000000000091
 30
0.0
 11
86.399999999999636
 21
66.600000000000136
 31
0.0
  0
LINE
  8
DETAIL
  6
CONTINUOUS
 62
     5
 10
86.399999999999636
 20
59.400000000000091
 30
0.0
 11
93.599999999999454
 21
59.400000000000091
 31
0.0
  0
LINE
  8
DETAIL
  6
CONTINUOUS
 62
     5
 10
86.399999999999636
 20
66.600000000000136
 30
0.0
 11
93.599999999999454
 21
66.600000000000136
 31
0.0
  0
LINE
  8
DETAIL
  6
CONTINUOUS
 62
     5
 10
93.599999999999454
 20
59.400000000000091
 30
0.0
 11
93.599999999999454
 21
66.600000000000136
 31
0.0
  0
LINE
  8
DETAIL
  6
CONTINUOUS
 62
     5
 10
86.399999999999636
 20
68.400000000000091
 30
0.0
 11
86.399999999999636
 21
75.600000000000136
 31
0.0
  0
LINE
  8
DETAIL
  6
CONTINUOUS
 62
     5
 10
86.399999999999636
 20
68.400000000000091
 30
0.0
 11
93.599999999999454
 21
68.400000000000091
 31
0.0
  0
LINE
  8
DETAIL
  6
CONTINUOUS
 62
     5
 10
86.399999999999636
 20
75.600000000000136
 30
0.0
 11
93.599999999999454
 21
75.600000000000136
 31
0.0
  0
LINE
  8
DETAIL
  6
CONTINUOUS
 62
     5
 10
93.599999999999454
 20
68.400000000000091
 30
0.0
 11
93.599999999999454
 21
75.600000000000136
 31
0.0
  0
LINE
  8
DETAIL
  6
CONTINUOUS
 62
     5
 10
86.399999999999636
 20
77.400000000000091
 30
0.0
 11
86.399999999999636
 21
84.600000000000136
 31
0.0
  0
LINE
  8
DETAIL
  6
CONTINUOUS
 62
     5
 10
86.399999999999636
 20
77.400000000000091
 30
0.0
 11
93.599999999999454
 21
77.400000000000091
 31
0.0
  0
LINE
  8
DETAIL
  6
CONTINUOUS
 62
     5
 10
86.399999999999636
 20
84.600000000000136
 30
0.0
 11
93.599999999999454
 21
84.600000000000136
 31
0.0
  0
LINE
  8
DETAIL
  6
CONTINUOUS
 62
     5
 10
93.599999999999454
 20
77.400000000000091
 30
0.0
 11
93.599999999999454
 21
84.600000000000136
 31
0.0
  0
LINE
  8
DETAIL
  6
CONTINUOUS
 62
     5
 10
86.399999999999636
 20
86.400000000000091
 30
0.0
 11
86.399999999999636
 21
93.600000000000136
 31
0.0
  0
LINE
  8
DETAIL
  6
CONTINUOUS
 62
     5
 10
86.399999999999636
 20
86.400000000000091
 30
0.0
 11
93.599999999999454
 21
86.400000000000091
 31
0.0
  0
LINE
  8
DETAIL
  6
CONTINUOUS
 62
     5
 10
86.399999999999636
 20
93.600000000000136
 30
0.0
 11
93.599999999999454
 21
93.600000000000136
 31
0.0
  0
LINE
  8
DETAIL
  6
CONTINUOUS
 62
     5
 10
93.599999999999454
 20
86.400000000000091
 30
0.0
 11
93.599999999999454
 21
93.600000000000136
 31
0.0
  0
LINE
  8
DETAIL
  6
CONTINUOUS
 62
     5
 10
77.399999999999636
 20
39.600000000000144
 30
0.0
 11
84.599999999999454
 21
39.600000000000144
 31
0.0
  0
LINE
  8
DETAIL
  6
CONTINUOUS
 62
     5
 10
77.399999999999636
 20
41.400000000000091
 30
0.0
 11
77.399999999999636
 21
48.600000000000144
 31
0.0
  0
LINE
  8
DETAIL
  6
CONTINUOUS
 62
     5
 10
77.399999999999636
 20
41.400000000000091
 30
0.0
 11
84.599999999999454
 21
41.400000000000091
 31
0.0
  0
LINE
  8
DETAIL
  6
CONTINUOUS
 62
     5
 10
77.399999999999636
 20
48.600000000000144
 30
0.0
 11
84.599999999999454
 21
48.600000000000144
 31
0.0
  0
LINE
  8
DETAIL
  6
CONTINUOUS
 62
     5
 10
84.599999999999454
 20
41.400000000000091
 30
0.0
 11
84.599999999999454
 21
48.600000000000144
 31
0.0
  0
LINE
  8
DETAIL
  6
CONTINUOUS
 62
     5
 10
77.399999999999636
 20
50.400000000000091
 30
0.0
 11
77.399999999999636
 21
57.600000000000144
 31
0.0
  0
LINE
  8
DETAIL
  6
CONTINUOUS
 62
     5
 10
77.399999999999636
 20
50.400000000000091
 30
0.0
 11
84.599999999999454
 21
50.400000000000091
 31
0.0
  0
LINE
  8
DETAIL
  6
CONTINUOUS
 62
     5
 10
77.399999999999636
 20
57.600000000000144
 30
0.0
 11
84.599999999999454
 21
57.600000000000144
 31
0.0
  0
LINE
  8
DETAIL
  6
CONTINUOUS
 62
     5
 10
84.599999999999454
 20
50.400000000000091
 30
0.0
 11
84.599999999999454
 21
57.600000000000144
 31
0.0
  0
LINE
  8
DETAIL
  6
CONTINUOUS
 62
     5
 10
77.399999999999636
 20
59.400000000000091
 30
0.0
 11
77.399999999999636
 21
66.600000000000136
 31
0.0
  0
LINE
  8
DETAIL
  6
CONTINUOUS
 62
     5
 10
77.399999999999636
 20
59.400000000000091
 30
0.0
 11
84.599999999999454
 21
59.400000000000091
 31
0.0
  0
LINE
  8
DETAIL
  6
CONTINUOUS
 62
     5
 10
77.399999999999636
 20
66.600000000000136
 30
0.0
 11
84.599999999999454
 21
66.600000000000136
 31
0.0
  0
LINE
  8
DETAIL
  6
CONTINUOUS
 62
     5
 10
84.599999999999454
 20
59.400000000000091
 30
0.0
 11
84.599999999999454
 21
66.600000000000136
 31
0.0
  0
LINE
  8
DETAIL
  6
CONTINUOUS
 62
     5
 10
77.399999999999636
 20
68.400000000000091
 30
0.0
 11
77.399999999999636
 21
75.600000000000136
 31
0.0
  0
LINE
  8
DETAIL
  6
CONTINUOUS
 62
     5
 10
77.399999999999636
 20
68.400000000000091
 30
0.0
 11
84.599999999999454
 21
68.400000000000091
 31
0.0
  0
LINE
  8
DETAIL
  6
CONTINUOUS
 62
     5
 10
77.399999999999636
 20
75.600000000000136
 30
0.0
 11
84.599999999999454
 21
75.600000000000136
 31
0.0
  0
LINE
  8
DETAIL
  6
CONTINUOUS
 62
     5
 10
84.599999999999454
 20
68.400000000000091
 30
0.0
 11
84.599999999999454
 21
75.600000000000136
 31
0.0
  0
LINE
  8
DETAIL
  6
CONTINUOUS
 62
     5
 10
77.399999999999636
 20
77.400000000000091
 30
0.0
 11
77.399999999999636
 21
84.600000000000136
 31
0.0
  0
LINE
  8
DETAIL
  6
CONTINUOUS
 62
     5
 10
77.399999999999636
 20
77.400000000000091
 30
0.0
 11
84.599999999999454
 21
77.400000000000091
 31
0.0
  0
LINE
  8
DETAIL
  6
CONTINUOUS
 62
     5
 10
77.399999999999636
 20
84.600000000000136
 30
0.0
 11
84.599999999999454
 21
84.600000000000136
 31
0.0
  0
LINE
  8
DETAIL
  6
CONTINUOUS
 62
     5
 10
84.599999999999454
 20
77.400000000000091
 30
0.0
 11
84.599999999999454
 21
84.600000000000136
 31
0.0
  0
LINE
  8
DETAIL
  6
CONTINUOUS
 62
     5
 10
77.399999999999636
 20
86.400000000000091
 30
0.0
 11
77.399999999999636
 21
93.600000000000136
 31
0.0
  0
LINE
  8
DETAIL
  6
CONTINUOUS
 62
     5
 10
77.399999999999636
 20
86.400000000000091
 30
0.0
 11
84.599999999999454
 21
86.400000000000091
 31
0.0
  0
LINE
  8
DETAIL
  6
CONTINUOUS
 62
     5
 10
77.399999999999636
 20
93.600000000000136
 30
0.0
 11
84.599999999999454
 21
93.600000000000136
 31
0.0
  0
LINE
  8
DETAIL
  6
CONTINUOUS
 62
     5
 10
84.599999999999454
 20
86.400000000000091
 30
0.0
 11
84.599999999999454
 21
93.600000000000136
 31
0.0
  0
LINE
  8
DETAIL
  6
CONTINUOUS
 62
     5
 10
68.399999999999636
 20
39.600000000000144
 30
0.0
 11
75.599999999999454
 21
39.600000000000144
 31
0.0
  0
LINE
  8
DETAIL
  6
CONTINUOUS
 62
     5
 10
68.399999999999636
 20
41.400000000000091
 30
0.0
 11
68.399999999999636
 21
48.600000000000144
 31
0.0
  0
LINE
  8
DETAIL
  6
CONTINUOUS
 62
     5
 10
68.399999999999636
 20
41.400000000000091
 30
0.0
 11
75.599999999999454
 21
41.400000000000091
 31
0.0
  0
LINE
  8
DETAIL
  6
CONTINUOUS
 62
     5
 10
68.399999999999636
 20
48.600000000000144
 30
0.0
 11
75.599999999999454
 21
48.600000000000144
 31
0.0
  0
LINE
  8
DETAIL
  6
CONTINUOUS
 62
     5
 10
75.599999999999454
 20
41.400000000000091
 30
0.0
 11
75.599999999999454
 21
48.600000000000144
 31
0.0
  0
LINE
  8
DETAIL
  6
CONTINUOUS
 62
     5
 10
68.399999999999636
 20
50.400000000000091
 30
0.0
 11
68.399999999999636
 21
57.600000000000144
 31
0.0
  0
LINE
  8
DETAIL
  6
CONTINUOUS
 62
     5
 10
68.399999999999636
 20
50.400000000000091
 30
0.0
 11
75.599999999999454
 21
50.400000000000091
 31
0.0
  0
LINE
  8
DETAIL
  6
CONTINUOUS
 62
     5
 10
68.399999999999636
 20
57.600000000000144
 30
0.0
 11
75.599999999999454
 21
57.600000000000144
 31
0.0
  0
LINE
  8
DETAIL
  6
CONTINUOUS
 62
     5
 10
75.599999999999454
 20
50.400000000000091
 30
0.0
 11
75.599999999999454
 21
57.600000000000144
 31
0.0
  0
LINE
  8
DETAIL
  6
CONTINUOUS
 62
     5
 10
68.399999999999636
 20
59.400000000000091
 30
0.0
 11
68.399999999999636
 21
66.600000000000136
 31
0.0
  0
LINE
  8
DETAIL
  6
CONTINUOUS
 62
     5
 10
68.399999999999636
 20
59.400000000000091
 30
0.0
 11
75.599999999999454
 21
59.400000000000091
 31
0.0
  0
LINE
  8
DETAIL
  6
CONTINUOUS
 62
     5
 10
68.399999999999636
 20
66.600000000000136
 30
0.0
 11
75.599999999999454
 21
66.600000000000136
 31
0.0
  0
LINE
  8
DETAIL
  6
CONTINUOUS
 62
     5
 10
75.599999999999454
 20
59.400000000000091
 30
0.0
 11
75.599999999999454
 21
66.600000000000136
 31
0.0
  0
LINE
  8
DETAIL
  6
CONTINUOUS
 62
     5
 10
68.399999999999636
 20
68.400000000000091
 30
0.0
 11
68.399999999999636
 21
75.600000000000136
 31
0.0
  0
LINE
  8
DETAIL
  6
CONTINUOUS
 62
     5
 10
68.399999999999636
 20
68.400000000000091
 30
0.0
 11
75.599999999999454
 21
68.400000000000091
 31
0.0
  0
LINE
  8
DETAIL
  6
CONTINUOUS
 62
     5
 10
68.399999999999636
 20
75.600000000000136
 30
0.0
 11
75.599999999999454
 21
75.600000000000136
 31
0.0
  0
LINE
  8
DETAIL
  6
CONTINUOUS
 62
     5
 10
75.599999999999454
 20
68.400000000000091
 30
0.0
 11
75.599999999999454
 21
75.600000000000136
 31
0.0
  0
LINE
  8
DETAIL
  6
CONTINUOUS
 62
     5
 10
68.399999999999636
 20
77.400000000000091
 30
0.0
 11
68.399999999999636
 21
84.600000000000136
 31
0.0
  0
LINE
  8
DETAIL
  6
CONTINUOUS
 62
     5
 10
68.399999999999636
 20
77.400000000000091
 30
0.0
 11
75.599999999999454
 21
77.400000000000091
 31
0.0
  0
LINE
  8
DETAIL
  6
CONTINUOUS
 62
     5
 10
68.399999999999636
 20
84.600000000000136
 30
0.0
 11
75.599999999999454
 21
84.600000000000136
 31
0.0
  0
LINE
  8
DETAIL
  6
CONTINUOUS
 62
     5
 10
75.599999999999454
 20
77.400000000000091
 30
0.0
 11
75.599999999999454
 21
84.600000000000136
 31
0.0
  0
LINE
  8
DETAIL
  6
CONTINUOUS
 62
     5
 10
68.399999999999636
 20
86.400000000000091
 30
0.0
 11
68.399999999999636
 21
93.600000000000136
 31
0.0
  0
LINE
  8
DETAIL
  6
CONTINUOUS
 62
     5
 10
68.399999999999636
 20
86.400000000000091
 30
0.0
 11
75.599999999999454
 21
86.400000000000091
 31
0.0
  0
LINE
  8
DETAIL
  6
CONTINUOUS
 62
     5
 10
68.399999999999636
 20
93.600000000000136
 30
0.0
 11
75.599999999999454
 21
93.600000000000136
 31
0.0
  0
LINE
  8
DETAIL
  6
CONTINUOUS
 62
     5
 10
75.599999999999454
 20
86.400000000000091
 30
0.0
 11
75.599999999999454
 21
93.600000000000136
 31
0.0
  0
LINE
  8
DETAIL
  6
CONTINUOUS
 62
     5
 10
59.399999999999643
 20
39.600000000000144
 30
0.0
 11
66.599999999999454
 21
39.600000000000144
 31
0.0
  0
LINE
  8
DETAIL
  6
CONTINUOUS
 62
     5
 10
59.399999999999643
 20
41.400000000000091
 30
0.0
 11
59.399999999999643
 21
48.600000000000144
 31
0.0
  0
LINE
  8
DETAIL
  6
CONTINUOUS
 62
     5
 10
59.399999999999643
 20
41.400000000000091
 30
0.0
 11
66.599999999999454
 21
41.400000000000091
 31
0.0
  0
LINE
  8
DETAIL
  6
CONTINUOUS
 62
     5
 10
59.399999999999643
 20
48.600000000000144
 30
0.0
 11
66.599999999999454
 21
48.600000000000144
 31
0.0
  0
LINE
  8
DETAIL
  6
CONTINUOUS
 62
     5
 10
66.599999999999454
 20
41.400000000000091
 30
0.0
 11
66.599999999999454
 21
48.600000000000144
 31
0.0
  0
LINE
  8
DETAIL
  6
CONTINUOUS
 62
     5
 10
59.399999999999643
 20
50.400000000000091
 30
0.0
 11
59.399999999999643
 21
57.600000000000144
 31
0.0
  0
LINE
  8
DETAIL
  6
CONTINUOUS
 62
     5
 10
59.399999999999643
 20
50.400000000000091
 30
0.0
 11
66.599999999999454
 21
50.400000000000091
 31
0.0
  0
LINE
  8
DETAIL
  6
CONTINUOUS
 62
     5
 10
59.399999999999643
 20
57.600000000000144
 30
0.0
 11
66.599999999999454
 21
57.600000000000144
 31
0.0
  0
LINE
  8
DETAIL
  6
CONTINUOUS
 62
     5
 10
66.599999999999454
 20
50.400000000000091
 30
0.0
 11
66.599999999999454
 21
57.600000000000144
 31
0.0
  0
LINE
  8
DETAIL
  6
CONTINUOUS
 62
     5
 10
59.399999999999643
 20
59.400000000000091
 30
0.0
 11
59.399999999999643
 21
66.600000000000136
 31
0.0
  0
LINE
  8
DETAIL
  6
CONTINUOUS
 62
     5
 10
59.399999999999643
 20
59.400000000000091
 30
0.0
 11
66.599999999999454
 21
59.400000000000091
 31
0.0
  0
LINE
  8
DETAIL
  6
CONTINUOUS
 62
     5
 10
59.399999999999643
 20
66.600000000000136
 30
0.0
 11
66.599999999999454
 21
66.600000000000136
 31
0.0
  0
LINE
  8
DETAIL
  6
CONTINUOUS
 62
     5
 10
66.599999999999454
 20
59.400000000000091
 30
0.0
 11
66.599999999999454
 21
66.600000000000136
 31
0.0
  0
LINE
  8
DETAIL
  6
CONTINUOUS
 62
     5
 10
59.399999999999643
 20
68.400000000000091
 30
0.0
 11
59.399999999999643
 21
75.600000000000136
 31
0.0
  0
LINE
  8
DETAIL
  6
CONTINUOUS
 62
     5
 10
59.399999999999643
 20
68.400000000000091
 30
0.0
 11
66.599999999999454
 21
68.400000000000091
 31
0.0
  0
LINE
  8
DETAIL
  6
CONTINUOUS
 62
     5
 10
59.399999999999643
 20
75.600000000000136
 30
0.0
 11
66.599999999999454
 21
75.600000000000136
 31
0.0
  0
LINE
  8
DETAIL
  6
CONTINUOUS
 62
     5
 10
66.599999999999454
 20
68.400000000000091
 30
0.0
 11
66.599999999999454
 21
75.600000000000136
 31
0.0
  0
LINE
  8
DETAIL
  6
CONTINUOUS
 62
     5
 10
59.399999999999643
 20
77.400000000000091
 30
0.0
 11
59.399999999999643
 21
84.600000000000136
 31
0.0
  0
LINE
  8
DETAIL
  6
CONTINUOUS
 62
     5
 10
59.399999999999643
 20
77.400000000000091
 30
0.0
 11
66.599999999999454
 21
77.400000000000091
 31
0.0
  0
LINE
  8
DETAIL
  6
CONTINUOUS
 62
     5
 10
59.399999999999643
 20
84.600000000000136
 30
0.0
 11
66.599999999999454
 21
84.600000000000136
 31
0.0
  0
LINE
  8
DETAIL
  6
CONTINUOUS
 62
     5
 10
66.599999999999454
 20
77.400000000000091
 30
0.0
 11
66.599999999999454
 21
84.600000000000136
 31
0.0
  0
LINE
  8
DETAIL
  6
CONTINUOUS
 62
     5
 10
59.399999999999643
 20
86.400000000000091
 30
0.0
 11
59.399999999999643
 21
93.600000000000136
 31
0.0
  0
LINE
  8
DETAIL
  6
CONTINUOUS
 62
     5
 10
59.399999999999643
 20
86.400000000000091
 30
0.0
 11
66.599999999999454
 21
86.400000000000091
 31
0.0
  0
LINE
  8
DETAIL
  6
CONTINUOUS
 62
     5
 10
59.399999999999643
 20
93.600000000000136
 30
0.0
 11
66.599999999999454
 21
93.600000000000136
 31
0.0
  0
LINE
  8
DETAIL
  6
CONTINUOUS
 62
     5
 10
66.599999999999454
 20
86.400000000000091
 30
0.0
 11
66.599999999999454
 21
93.600000000000136
 31
0.0
  0
LINE
  8
DETAIL
  6
CONTINUOUS
 62
     5
 10
50.399999999999643
 20
39.600000000000144
 30
0.0
 11
57.599999999999447
 21
39.600000000000144
 31
0.0
  0
LINE
  8
DETAIL
  6
CONTINUOUS
 62
     5
 10
50.399999999999643
 20
41.400000000000091
 30
0.0
 11
50.399999999999643
 21
48.600000000000144
 31
0.0
  0
LINE
  8
DETAIL
  6
CONTINUOUS
 62
     5
 10
50.399999999999643
 20
41.400000000000091
 30
0.0
 11
57.599999999999447
 21
41.400000000000091
 31
0.0
  0
LINE
  8
DETAIL
  6
CONTINUOUS
 62
     5
 10
50.399999999999643
 20
48.600000000000144
 30
0.0
 11
57.599999999999447
 21
48.600000000000144
 31
0.0
  0
LINE
  8
DETAIL
  6
CONTINUOUS
 62
     5
 10
57.599999999999447
 20
41.400000000000091
 30
0.0
 11
57.599999999999447
 21
48.600000000000144
 31
0.0
  0
LINE
  8
DETAIL
  6
CONTINUOUS
 62
     5
 10
50.399999999999643
 20
50.400000000000091
 30
0.0
 11
50.399999999999643
 21
57.600000000000144
 31
0.0
  0
LINE
  8
DETAIL
  6
CONTINUOUS
 62
     5
 10
50.399999999999643
 20
50.400000000000091
 30
0.0
 11
57.599999999999447
 21
50.400000000000091
 31
0.0
  0
LINE
  8
DETAIL
  6
CONTINUOUS
 62
     5
 10
50.399999999999643
 20
57.600000000000144
 30
0.0
 11
57.599999999999447
 21
57.600000000000144
 31
0.0
  0
LINE
  8
DETAIL
  6
CONTINUOUS
 62
     5
 10
57.599999999999447
 20
50.400000000000091
 30
0.0
 11
57.599999999999447
 21
57.600000000000144
 31
0.0
  0
LINE
  8
DETAIL
  6
CONTINUOUS
 62
     5
 10
50.399999999999643
 20
59.400000000000091
 30
0.0
 11
50.399999999999643
 21
66.600000000000136
 31
0.0
  0
LINE
  8
DETAIL
  6
CONTINUOUS
 62
     5
 10
50.399999999999643
 20
59.400000000000091
 30
0.0
 11
57.599999999999447
 21
59.400000000000091
 31
0.0
  0
LINE
  8
DETAIL
  6
CONTINUOUS
 62
     5
 10
50.399999999999643
 20
66.600000000000136
 30
0.0
 11
57.599999999999447
 21
66.600000000000136
 31
0.0
  0
LINE
  8
DETAIL
  6
CONTINUOUS
 62
     5
 10
57.599999999999447
 20
59.400000000000091
 30
0.0
 11
57.599999999999447
 21
66.600000000000136
 31
0.0
  0
LINE
  8
DETAIL
  6
CONTINUOUS
 62
     5
 10
50.399999999999643
 20
68.400000000000091
 30
0.0
 11
50.399999999999643
 21
75.600000000000136
 31
0.0
  0
LINE
  8
DETAIL
  6
CONTINUOUS
 62
     5
 10
50.399999999999643
 20
68.400000000000091
 30
0.0
 11
57.599999999999447
 21
68.400000000000091
 31
0.0
  0
LINE
  8
DETAIL
  6
CONTINUOUS
 62
     5
 10
50.399999999999643
 20
75.600000000000136
 30
0.0
 11
57.599999999999447
 21
75.600000000000136
 31
0.0
  0
LINE
  8
DETAIL
  6
CONTINUOUS
 62
     5
 10
57.599999999999447
 20
68.400000000000091
 30
0.0
 11
57.599999999999447
 21
75.600000000000136
 31
0.0
  0
LINE
  8
DETAIL
  6
CONTINUOUS
 62
     5
 10
50.399999999999643
 20
77.400000000000091
 30
0.0
 11
50.399999999999643
 21
84.600000000000136
 31
0.0
  0
LINE
  8
DETAIL
  6
CONTINUOUS
 62
     5
 10
50.399999999999643
 20
77.400000000000091
 30
0.0
 11
57.599999999999447
 21
77.400000000000091
 31
0.0
  0
LINE
  8
DETAIL
  6
CONTINUOUS
 62
     5
 10
50.399999999999643
 20
84.600000000000136
 30
0.0
 11
57.599999999999447
 21
84.600000000000136
 31
0.0
  0
LINE
  8
DETAIL
  6
CONTINUOUS
 62
     5
 10
57.599999999999447
 20
77.400000000000091
 30
0.0
 11
57.599999999999447
 21
84.600000000000136
 31
0.0
  0
LINE
  8
DETAIL
  6
CONTINUOUS
 62
     5
 10
50.399999999999643
 20
86.400000000000091
 30
0.0
 11
50.399999999999643
 21
93.600000000000136
 31
0.0
  0
LINE
  8
DETAIL
  6
CONTINUOUS
 62
     5
 10
50.399999999999643
 20
86.400000000000091
 30
0.0
 11
57.599999999999447
 21
86.400000000000091
 31
0.0
  0
LINE
  8
DETAIL
  6
CONTINUOUS
 62
     5
 10
50.399999999999643
 20
93.600000000000136
 30
0.0
 11
57.599999999999447
 21
93.600000000000136
 31
0.0
  0
LINE
  8
DETAIL
  6
CONTINUOUS
 62
     5
 10
57.599999999999447
 20
86.400000000000091
 30
0.0
 11
57.599999999999447
 21
93.600000000000136
 31
0.0
  0
LINE
  8
DETAIL
  6
CONTINUOUS
 62
     5
 10
41.399999999999643
 20
41.400000000000091
 30
0.0
 11
41.399999999999643
 21
48.600000000000144
 31
0.0
  0
LINE
  8
DETAIL
  6
CONTINUOUS
 62
     5
 10
41.399999999999643
 20
41.400000000000091
 30
0.0
 11
48.599999999999447
 21
41.400000000000091
 31
0.0
  0
LINE
  8
DETAIL
  6
CONTINUOUS
 62
     5
 10
41.399999999999643
 20
48.600000000000144
 30
0.0
 11
48.599999999999447
 21
48.600000000000144
 31
0.0
  0
LINE
  8
DETAIL
  6
CONTINUOUS
 62
     5
 10
48.599999999999447
 20
41.400000000000091
 30
0.0
 11
48.599999999999447
 21
48.600000000000144
 31
0.0
  0
LINE
  8
DETAIL
  6
CONTINUOUS
 62
     5
 10
41.399999999999643
 20
50.400000000000091
 30
0.0
 11
41.399999999999643
 21
57.600000000000144
 31
0.0
  0
LINE
  8
DETAIL
  6
CONTINUOUS
 62
     5
 10
41.399999999999643
 20
50.400000000000091
 30
0.0
 11
48.599999999999447
 21
50.400000000000091
 31
0.0
  0
LINE
  8
DETAIL
  6
CONTINUOUS
 62
     5
 10
41.399999999999643
 20
57.600000000000144
 30
0.0
 11
48.599999999999447
 21
57.600000000000144
 31
0.0
  0
LINE
  8
DETAIL
  6
CONTINUOUS
 62
     5
 10
48.599999999999447
 20
50.400000000000091
 30
0.0
 11
48.599999999999447
 21
57.600000000000144
 31
0.0
  0
LINE
  8
DETAIL
  6
CONTINUOUS
 62
     5
 10
41.399999999999643
 20
59.400000000000091
 30
0.0
 11
41.399999999999643
 21
66.600000000000136
 31
0.0
  0
LINE
  8
DETAIL
  6
CONTINUOUS
 62
     5
 10
41.399999999999643
 20
59.400000000000091
 30
0.0
 11
48.599999999999447
 21
59.400000000000091
 31
0.0
  0
LINE
  8
DETAIL
  6
CONTINUOUS
 62
     5
 10
41.399999999999643
 20
66.600000000000136
 30
0.0
 11
48.599999999999447
 21
66.600000000000136
 31
0.0
  0
LINE
  8
DETAIL
  6
CONTINUOUS
 62
     5
 10
48.599999999999447
 20
59.400000000000091
 30
0.0
 11
48.599999999999447
 21
66.600000000000136
 31
0.0
  0
LINE
  8
DETAIL
  6
CONTINUOUS
 62
     5
 10
41.399999999999643
 20
68.400000000000091
 30
0.0
 11
41.399999999999643
 21
75.600000000000136
 31
0.0
  0
LINE
  8
DETAIL
  6
CONTINUOUS
 62
     5
 10
41.399999999999643
 20
68.400000000000091
 30
0.0
 11
48.599999999999447
 21
68.400000000000091
 31
0.0
  0
LINE
  8
DETAIL
  6
CONTINUOUS
 62
     5
 10
41.399999999999643
 20
75.600000000000136
 30
0.0
 11
48.599999999999447
 21
75.600000000000136
 31
0.0
  0
LINE
  8
DETAIL
  6
CONTINUOUS
 62
     5
 10
48.599999999999447
 20
68.400000000000091
 30
0.0
 11
48.599999999999447
 21
75.600000000000136
 31
0.0
  0
LINE
  8
DETAIL
  6
CONTINUOUS
 62
     5
 10
41.399999999999643
 20
77.400000000000091
 30
0.0
 11
41.399999999999643
 21
84.600000000000136
 31
0.0
  0
LINE
  8
DETAIL
  6
CONTINUOUS
 62
     5
 10
41.399999999999643
 20
77.400000000000091
 30
0.0
 11
48.599999999999447
 21
77.400000000000091
 31
0.0
  0
LINE
  8
DETAIL
  6
CONTINUOUS
 62
     5
 10
41.399999999999643
 20
84.600000000000136
 30
0.0
 11
48.599999999999447
 21
84.600000000000136
 31
0.0
  0
LINE
  8
DETAIL
  6
CONTINUOUS
 62
     5
 10
48.599999999999447
 20
77.400000000000091
 30
0.0
 11
48.599999999999447
 21
84.600000000000136
 31
0.0
  0
LINE
  8
DETAIL
  6
CONTINUOUS
 62
     5
 10
41.399999999999643
 20
86.400000000000091
 30
0.0
 11
41.399999999999643
 21
93.600000000000136
 31
0.0
  0
LINE
  8
DETAIL
  6
CONTINUOUS
 62
     5
 10
41.399999999999643
 20
86.400000000000091
 30
0.0
 11
48.599999999999447
 21
86.400000000000091
 31
0.0
  0
LINE
  8
DETAIL
  6
CONTINUOUS
 62
     5
 10
41.399999999999643
 20
93.600000000000136
 30
0.0
 11
48.599999999999447
 21
93.600000000000136
 31
0.0
  0
LINE
  8
DETAIL
  6
CONTINUOUS
 62
     5
 10
48.599999999999447
 20
86.400000000000091
 30
0.0
 11
48.599999999999447
 21
93.600000000000136
 31
0.0
  0
LINE
  8
DETAIL
  6
CONTINUOUS
 62
     5
 10
32.399999999999643
 20
50.400000000000091
 30
0.0
 11
32.399999999999643
 21
57.600000000000144
 31
0.0
  0
LINE
  8
DETAIL
  6
CONTINUOUS
 62
     5
 10
32.399999999999643
 20
50.400000000000091
 30
0.0
 11
39.599999999999447
 21
50.400000000000091
 31
0.0
  0
LINE
  8
DETAIL
  6
CONTINUOUS
 62
     5
 10
32.399999999999643
 20
57.600000000000144
 30
0.0
 11
39.599999999999447
 21
57.600000000000144
 31
0.0
  0
LINE
  8
DETAIL
  6
CONTINUOUS
 62
     5
 10
39.599999999999447
 20
50.400000000000091
 30
0.0
 11
39.599999999999447
 21
57.600000000000144
 31
0.0
  0
LINE
  8
DETAIL
  6
CONTINUOUS
 62
     5
 10
32.399999999999643
 20
59.400000000000091
 30
0.0
 11
32.399999999999643
 21
66.600000000000136
 31
0.0
  0
LINE
  8
DETAIL
  6
CONTINUOUS
 62
     5
 10
32.399999999999643
 20
59.400000000000091
 30
0.0
 11
39.599999999999447
 21
59.400000000000091
 31
0.0
  0
LINE
  8
DETAIL
  6
CONTINUOUS
 62
     5
 10
32.399999999999643
 20
66.600000000000136
 30
0.0
 11
39.599999999999447
 21
66.600000000000136
 31
0.0
  0
LINE
  8
DETAIL
  6
CONTINUOUS
 62
     5
 10
39.599999999999447
 20
59.400000000000091
 30
0.0
 11
39.599999999999447
 21
66.600000000000136
 31
0.0
  0
LINE
  8
DETAIL
  6
CONTINUOUS
 62
     5
 10
32.399999999999643
 20
68.400000000000091
 30
0.0
 11
32.399999999999643
 21
75.600000000000136
 31
0.0
  0
LINE
  8
DETAIL
  6
CONTINUOUS
 62
     5
 10
32.399999999999643
 20
68.400000000000091
 30
0.0
 11
39.599999999999447
 21
68.400000000000091
 31
0.0
  0
LINE
  8
DETAIL
  6
CONTINUOUS
 62
     5
 10
32.399999999999643
 20
75.600000000000136
 30
0.0
 11
39.599999999999447
 21
75.600000000000136
 31
0.0
  0
LINE
  8
DETAIL
  6
CONTINUOUS
 62
     5
 10
39.599999999999447
 20
68.400000000000091
 30
0.0
 11
39.599999999999447
 21
75.600000000000136
 31
0.0
  0
LINE
  8
DETAIL
  6
CONTINUOUS
 62
     5
 10
32.399999999999643
 20
77.400000000000091
 30
0.0
 11
32.399999999999643
 21
84.600000000000136
 31
0.0
  0
LINE
  8
DETAIL
  6
CONTINUOUS
 62
     5
 10
32.399999999999643
 20
77.400000000000091
 30
0.0
 11
39.599999999999447
 21
77.400000000000091
 31
0.0
  0
LINE
  8
DETAIL
  6
CONTINUOUS
 62
     5
 10
32.399999999999643
 20
84.600000000000136
 30
0.0
 11
39.599999999999447
 21
84.600000000000136
 31
0.0
  0
LINE
  8
DETAIL
  6
CONTINUOUS
 62
     5
 10
39.599999999999447
 20
77.400000000000091
 30
0.0
 11
39.599999999999447
 21
84.600000000000136
 31
0.0
  0
LINE
  8
DETAIL
  6
CONTINUOUS
 62
     5
 10
32.399999999999643
 20
86.400000000000091
 30
0.0
 11
32.399999999999643
 21
93.600000000000136
 31
0.0
  0
LINE
  8
DETAIL
  6
CONTINUOUS
 62
     5
 10
32.399999999999643
 20
86.400000000000091
 30
0.0
 11
39.599999999999447
 21
86.400000000000091
 31
0.0
  0
LINE
  8
DETAIL
  6
CONTINUOUS
 62
     5
 10
32.399999999999643
 20
93.600000000000136
 30
0.0
 11
39.599999999999447
 21
93.600000000000136
 31
0.0
  0
LINE
  8
DETAIL
  6
CONTINUOUS
 62
     5
 10
39.599999999999447
 20
86.400000000000091
 30
0.0
 11
39.599999999999447
 21
93.600000000000136
 31
0.0
  0
LINE
  8
DETAIL
  6
CONTINUOUS
 62
     5
 10
23.39999999999964
 20
59.400000000000091
 30
0.0
 11
23.39999999999964
 21
66.600000000000136
 31
0.0
  0
LINE
  8
DETAIL
  6
CONTINUOUS
 62
     5
 10
23.39999999999964
 20
59.400000000000091
 30
0.0
 11
30.599999999999451
 21
59.400000000000091
 31
0.0
  0
LINE
  8
DETAIL
  6
CONTINUOUS
 62
     5
 10
23.39999999999964
 20
66.600000000000136
 30
0.0
 11
30.599999999999451
 21
66.600000000000136
 31
0.0
  0
LINE
  8
DETAIL
  6
CONTINUOUS
 62
     5
 10
30.599999999999451
 20
59.400000000000091
 30
0.0
 11
30.599999999999451
 21
66.600000000000136
 31
0.0
  0
LINE
  8
DETAIL
  6
CONTINUOUS
 62
     5
 10
23.39999999999964
 20
68.400000000000091
 30
0.0
 11
23.39999999999964
 21
75.600000000000136
 31
0.0
  0
LINE
  8
DETAIL
  6
CONTINUOUS
 62
     5
 10
23.39999999999964
 20
68.400000000000091
 30
0.0
 11
30.599999999999451
 21
68.400000000000091
 31
0.0
  0
LINE
  8
DETAIL
  6
CONTINUOUS
 62
     5
 10
23.39999999999964
 20
75.600000000000136
 30
0.0
 11
30.599999999999451
 21
75.600000000000136
 31
0.0
  0
LINE
  8
DETAIL
  6
CONTINUOUS
 62
     5
 10
30.599999999999451
 20
68.400000000000091
 30
0.0
 11
30.599999999999451
 21
75.600000000000136
 31
0.0
  0
LINE
  8
DETAIL
  6
CONTINUOUS
 62
     5
 10
23.39999999999964
 20
77.400000000000091
 30
0.0
 11
23.39999999999964
 21
84.600000000000136
 31
0.0
  0
LINE
  8
DETAIL
  6
CONTINUOUS
 62
     5
 10
23.39999999999964
 20
77.400000000000091
 30
0.0
 11
30.599999999999451
 21
77.400000000000091
 31
0.0
  0
LINE
  8
DETAIL
  6
CONTINUOUS
 62
     5
 10
23.39999999999964
 20
84.600000000000136
 30
0.0
 11
30.599999999999451
 21
84.600000000000136
 31
0.0
  0
LINE
  8
DETAIL
  6
CONTINUOUS
 62
     5
 10
30.599999999999451
 20
77.400000000000091
 30
0.0
 11
30.599999999999451
 21
84.600000000000136
 31
0.0
  0
LINE
  8
DETAIL
  6
CONTINUOUS
 62
     5
 10
23.39999999999964
 20
86.400000000000091
 30
0.0
 11
23.39999999999964
 21
93.600000000000136
 31
0.0
  0
LINE
  8
DETAIL
  6
CONTINUOUS
 62
     5
 10
23.39999999999964
 20
86.400000000000091
 30
0.0
 11
30.599999999999451
 21
86.400000000000091
 31
0.0
  0
LINE
  8
DETAIL
  6
CONTINUOUS
 62
     5
 10
23.39999999999964
 20
93.600000000000136
 30
0.0
 11
30.599999999999451
 21
93.600000000000136
 31
0.0
  0
LINE
  8
DETAIL
  6
CONTINUOUS
 62
     5
 10
30.599999999999451
 20
86.400000000000091
 30
0.0
 11
30.599999999999451
 21
93.600000000000136
 31
0.0
  0
LINE
  8
DETAIL
  6
CONTINUOUS
 62
     5
 10
14.39999999999964
 20
68.400000000000091
 30
0.0
 11
14.39999999999964
 21
75.600000000000136
 31
0.0
  0
LINE
  8
DETAIL
  6
CONTINUOUS
 62
     5
 10
14.39999999999964
 20
68.400000000000091
 30
0.0
 11
21.599999999999451
 21
68.400000000000091
 31
0.0
  0
LINE
  8
DETAIL
  6
CONTINUOUS
 62
     5
 10
14.39999999999964
 20
75.600000000000136
 30
0.0
 11
21.599999999999451
 21
75.600000000000136
 31
0.0
  0
LINE
  8
DETAIL
  6
CONTINUOUS
 62
     5
 10
21.599999999999451
 20
68.400000000000091
 30
0.0
 11
21.599999999999451
 21
75.600000000000136
 31
0.0
  0
LINE
  8
DETAIL
  6
CONTINUOUS
 62
     5
 10
14.39999999999964
 20
77.400000000000091
 30
0.0
 11
14.39999999999964
 21
84.600000000000136
 31
0.0
  0
LINE
  8
DETAIL
  6
CONTINUOUS
 62
     5
 10
14.39999999999964
 20
77.400000000000091
 30
0.0
 11
21.599999999999451
 21
77.400000000000091
 31
0.0
  0
LINE
  8
DETAIL
  6
CONTINUOUS
 62
     5
 10
14.39999999999964
 20
84.600000000000136
 30
0.0
 11
21.599999999999451
 21
84.600000000000136
 31
0.0
  0
LINE
  8
DETAIL
  6
CONTINUOUS
 62
     5
 10
21.599999999999451
 20
77.400000000000091
 30
0.0
 11
21.599999999999451
 21
84.600000000000136
 31
0.0
  0
LINE
  8
DETAIL
  6
CONTINUOUS
 62
     5
 10
14.39999999999964
 20
86.400000000000091
 30
0.0
 11
14.39999999999964
 21
93.600000000000136
 31
0.0
  0
LINE
  8
DETAIL
  6
CONTINUOUS
 62
     5
 10
14.39999999999964
 20
86.400000000000091
 30
0.0
 11
21.599999999999451
 21
86.400000000000091
 31
0.0
  0
LINE
  8
DETAIL
  6
CONTINUOUS
 62
     5
 10
14.39999999999964
 20
93.600000000000136
 30
0.0
 11
21.599999999999451
 21
93.600000000000136
 31
0.0
  0
LINE
  8
DETAIL
  6
CONTINUOUS
 62
     5
 10
21.599999999999451
 20
86.400000000000091
 30
0.0
 11
21.599999999999451
 21
93.600000000000136
 31
0.0
  0
LINE
  8
DETAIL
  6
CONTINUOUS
 62
     5
 10
5.3999999999996362
 20
77.400000000000091
 30
0.0
 11
5.3999999999996362
 21
84.600000000000136
 31
0.0
  0
LINE
  8
DETAIL
  6
CONTINUOUS
 62
     5
 10
5.3999999999996362
 20
77.400000000000091
 30
0.0
 11
12.599999999999451
 21
77.400000000000091
 31
0.0
  0
LINE
  8
DETAIL
  6
CONTINUOUS
 62
     5
 10
5.3999999999996362
 20
84.600000000000136
 30
0.0
 11
12.599999999999451
 21
84.600000000000136
 31
0.0
  0
LINE
  8
DETAIL
  6
CONTINUOUS
 62
     5
 10
12.599999999999451
 20
77.400000000000091
 30
0.0
 11
12.599999999999451
 21
84.600000000000136
 31
0.0
  0
LINE
  8
DETAIL
  6
CONTINUOUS
 62
     5
 10
5.3999999999996362
 20
86.400000000000091
 30
0.0
 11
5.3999999999996362
 21
93.600000000000136
 31
0.0
  0
LINE
  8
DETAIL
  6
CONTINUOUS
 62
     5
 10
5.3999999999996362
 20
86.400000000000091
 30
0.0
 11
12.599999999999451
 21
86.400000000000091
 31
0.0
  0
LINE
  8
DETAIL
  6
CONTINUOUS
 62
     5
 10
5.3999999999996362
 20
93.600000000000136
 30
0.0
 11
12.599999999999451
 21
93.600000000000136
 31
0.0
  0
LINE
  8
DETAIL
  6
CONTINUOUS
 62
     5
 10
12.599999999999451
 20
86.400000000000091
 30
0.0
 11
12.599999999999451
 21
93.600000000000136
 31
0.0
  0
LINE
  8
DETAIL
  6
CONTINUOUS
 62
     5
 10
3.5999999999994539
 20
86.400000000000091
 30
0.0
 11
3.5999999999994539
 21
93.600000000000136
 31
0.0
  0
LINE
  8
DETAIL
  6
CONTINUOUS
 62
     5
 10
57.599999999999447
 20
32.400000000000091
 30
0.0
 11
50.399999999999643
 21
32.400000000000091
 31
0.0
  0
LINE
  8
DETAIL
  6
CONTINUOUS
 62
     5
 10
50.399999999999643
 20
32.400000000000091
 30
0.0
 11
50.399999999999643
 21
39.600000000000144
 31
0.0
  0
LINE
  8
DETAIL
  6
CONTINUOUS
 62
     5
 10
59.399999999999643
 20
32.400000000000091
 30
0.0
 11
59.399999999999643
 21
39.600000000000144
 31
0.0
  0
LINE
  8
DETAIL
  6
CONTINUOUS
 62
     5
 10
75.599999999999454
 20
14.400000000000089
 30
0.0
 11
68.399999999999636
 21
14.400000000000089
 31
0.0
  0
LINE
  8
DETAIL
  6
CONTINUOUS
 62
     5
 10
68.399999999999636
 20
14.400000000000089
 30
0.0
 11
68.399999999999636
 21
21.60000000000014
 31
0.0
  0
LINE
  8
DETAIL
  6
CONTINUOUS
 62
     5
 10
86.399999999999636
 20
3.600000000000136
 30
0.0
 11
93.599999999999454
 21
3.600000000000136
 31
0.0
  0
LINE
  8
DETAIL
  6
CONTINUOUS
 62
     5
 10
86.399999999999636
 20
5.4000000000000909
 30
0.0
 11
86.399999999999636
 21
12.60000000000014
 31
0.0
  0
LINE
  8
DETAIL
  6
CONTINUOUS
 62
     5
 10
86.399999999999636
 20
5.4000000000000909
 30
0.0
 11
93.599999999999454
 21
5.4000000000000909
 31
0.0
  0
LINE
  8
DETAIL
  6
CONTINUOUS
 62
     5
 10
86.399999999999636
 20
12.60000000000014
 30
0.0
 11
93.599999999999454
 21
12.60000000000014
 31
0.0
  0
LINE
  8
DETAIL
  6
CONTINUOUS
 62
     5
 10
93.599999999999454
 20
5.4000000000000909
 30
0.0
 11
93.599999999999454
 21
12.60000000000014
 31
0.0
  0
LINE
  8
DETAIL
  6
CONTINUOUS
 62
     5
 10
86.399999999999636
 20
14.400000000000089
 30
0.0
 11
86.399999999999636
 21
21.60000000000014
 31
0.0
  0
LINE
  8
DETAIL
  6
CONTINUOUS
 62
     5
 10
86.399999999999636
 20
14.400000000000089
 30
0.0
 11
93.599999999999454
 21
14.400000000000089
 31
0.0
  0
LINE
  8
DETAIL
  6
CONTINUOUS
 62
     5
 10
86.399999999999636
 20
21.60000000000014
 30
0.0
 11
93.599999999999454
 21
21.60000000000014
 31
0.0
  0
LINE
  8
DETAIL
  6
CONTINUOUS
 62
     5
 10
93.599999999999454
 20
14.400000000000089
 30
0.0
 11
93.599999999999454
 21
21.60000000000014
 31
0.0
  0
LINE
  8
DETAIL
  6
CONTINUOUS
 62
     5
 10
86.399999999999636
 20
23.400000000000091
 30
0.0
 11
86.399999999999636
 21
30.60000000000014
 31
0.0
  0
LINE
  8
DETAIL
  6
CONTINUOUS
 62
     5
 10
86.399999999999636
 20
23.400000000000091
 30
0.0
 11
93.599999999999454
 21
23.400000000000091
 31
0.0
  0
LINE
  8
DETAIL
  6
CONTINUOUS
 62
     5
 10
86.399999999999636
 20
30.60000000000014
 30
0.0
 11
93.599999999999454
 21
30.60000000000014
 31
0.0
  0
LINE
  8
DETAIL
  6
CONTINUOUS
 62
     5
 10
93.599999999999454
 20
23.400000000000091
 30
0.0
 11
93.599999999999454
 21
30.60000000000014
 31
0.0
  0
LINE
  8
DETAIL
  6
CONTINUOUS
 62
     5
 10
86.399999999999636
 20
32.400000000000091
 30
0.0
 11
86.399999999999636
 21
39.600000000000144
 31
0.0
  0
LINE
  8
DETAIL
  6
CONTINUOUS
 62
     5
 10
86.399999999999636
 20
32.400000000000091
 30
0.0
 11
93.599999999999454
 21
32.400000000000091
 31
0.0
  0
LINE
  8
DETAIL
  6
CONTINUOUS
 62
     5
 10
93.599999999999454
 20
32.400000000000091
 30
0.0
 11
93.599999999999454
 21
39.600000000000144
 31
0.0
  0
LINE
  8
DETAIL
  6
CONTINUOUS
 62
     5
 10
77.399999999999636
 20
5.4000000000000909
 30
0.0
 11
77.399999999999636
 21
12.60000000000014
 31
0.0
  0
LINE
  8
DETAIL
  6
CONTINUOUS
 62
     5
 10
77.399999999999636
 20
5.4000000000000909
 30
0.0
 11
84.599999999999454
 21
5.4000000000000909
 31
0.0
  0
LINE
  8
DETAIL
  6
CONTINUOUS
 62
     5
 10
77.399999999999636
 20
12.60000000000014
 30
0.0
 11
84.599999999999454
 21
12.60000000000014
 31
0.0
  0
LINE
  8
DETAIL
  6
CONTINUOUS
 62
     5
 10
84.599999999999454
 20
5.4000000000000909
 30
0.0
 11
84.599999999999454
 21
12.60000000000014
 31
0.0
  0
LINE
  8
DETAIL
  6
CONTINUOUS
 62
     5
 10
77.399999999999636
 20
14.400000000000089
 30
0.0
 11
77.399999999999636
 21
21.60000000000014
 31
0.0
  0
LINE
  8
DETAIL
  6
CONTINUOUS
 62
     5
 10
77.399999999999636
 20
14.400000000000089
 30
0.0
 11
84.599999999999454
 21
14.400000000000089
 31
0.0
  0
LINE
  8
DETAIL
  6
CONTINUOUS
 62
     5
 10
77.399999999999636
 20
21.60000000000014
 30
0.0
 11
84.599999999999454
 21
21.60000000000014
 31
0.0
  0
LINE
  8
DETAIL
  6
CONTINUOUS
 62
     5
 10
84.599999999999454
 20
14.400000000000089
 30
0.0
 11
84.599999999999454
 21
21.60000000000014
 31
0.0
  0
LINE
  8
DETAIL
  6
CONTINUOUS
 62
     5
 10
77.399999999999636
 20
23.400000000000091
 30
0.0
 11
77.399999999999636
 21
30.60000000000014
 31
0.0
  0
LINE
  8
DETAIL
  6
CONTINUOUS
 62
     5
 10
77.399999999999636
 20
23.400000000000091
 30
0.0
 11
84.599999999999454
 21
23.400000000000091
 31
0.0
  0
LINE
  8
DETAIL
  6
CONTINUOUS
 62
     5
 10
77.399999999999636
 20
30.60000000000014
 30
0.0
 11
84.599999999999454
 21
30.60000000000014
 31
0.0
  0
LINE
  8
DETAIL
  6
CONTINUOUS
 62
     5
 10
84.599999999999454
 20
23.400000000000091
 30
0.0
 11
84.599999999999454
 21
30.60000000000014
 31
0.0
  0
LINE
  8
DETAIL
  6
CONTINUOUS
 62
     5
 10
77.399999999999636
 20
32.400000000000091
 30
0.0
 11
77.399999999999636
 21
39.600000000000144
 31
0.0
  0
LINE
  8
DETAIL
  6
CONTINUOUS
 62
     5
 10
77.399999999999636
 20
32.400000000000091
 30
0.0
 11
84.599999999999454
 21
32.400000000000091
 31
0.0
  0
LINE
  8
DETAIL
  6
CONTINUOUS
 62
     5
 10
84.599999999999454
 20
32.400000000000091
 30
0.0
 11
84.599999999999454
 21
39.600000000000144
 31
0.0
  0
LINE
  8
DETAIL
  6
CONTINUOUS
 62
     5
 10
68.399999999999636
 20
14.400000000000089
 30
0.0
 11
68.399999999999636
 21
21.60000000000014
 31
0.0
  0
LINE
  8
DETAIL
  6
CONTINUOUS
 62
     5
 10
68.399999999999636
 20
14.400000000000089
 30
0.0
 11
75.599999999999454
 21
14.400000000000089
 31
0.0
  0
LINE
  8
DETAIL
  6
CONTINUOUS
 62
     5
 10
68.399999999999636
 20
21.60000000000014
 30
0.0
 11
75.599999999999454
 21
21.60000000000014
 31
0.0
  0
LINE
  8
DETAIL
  6
CONTINUOUS
 62
     5
 10
75.599999999999454
 20
14.400000000000089
 30
0.0
 11
75.599999999999454
 21
21.60000000000014
 31
0.0
  0
LINE
  8
DETAIL
  6
CONTINUOUS
 62
     5
 10
68.399999999999636
 20
23.400000000000091
 30
0.0
 11
68.399999999999636
 21
30.60000000000014
 31
0.0
  0
LINE
  8
DETAIL
  6
CONTINUOUS
 62
     5
 10
68.399999999999636
 20
23.400000000000091
 30
0.0
 11
75.599999999999454
 21
23.400000000000091
 31
0.0
  0
LINE
  8
DETAIL
  6
CONTINUOUS
 62
     5
 10
68.399999999999636
 20
30.60000000000014
 30
0.0
 11
75.599999999999454
 21
30.60000000000014
 31
0.0
  0
LINE
  8
DETAIL
  6
CONTINUOUS
 62
     5
 10
75.599999999999454
 20
23.400000000000091
 30
0.0
 11
75.599999999999454
 21
30.60000000000014
 31
0.0
  0
LINE
  8
DETAIL
  6
CONTINUOUS
 62
     5
 10
68.399999999999636
 20
32.400000000000091
 30
0.0
 11
68.399999999999636
 21
39.600000000000144
 31
0.0
  0
LINE
  8
DETAIL
  6
CONTINUOUS
 62
     5
 10
68.399999999999636
 20
32.400000000000091
 30
0.0
 11
75.599999999999454
 21
32.400000000000091
 31
0.0
  0
LINE
  8
DETAIL
  6
CONTINUOUS
 62
     5
 10
75.599999999999454
 20
32.400000000000091
 30
0.0
 11
75.599999999999454
 21
39.600000000000144
 31
0.0
  0
LINE
  8
DETAIL
  6
CONTINUOUS
 62
     5
 10
59.399999999999643
 20
23.400000000000091
 30
0.0
 11
59.399999999999643
 21
30.60000000000014
 31
0.0
  0
LINE
  8
DETAIL
  6
CONTINUOUS
 62
     5
 10
59.399999999999643
 20
23.400000000000091
 30
0.0
 11
66.599999999999454
 21
23.400000000000091
 31
0.0
  0
LINE
  8
DETAIL
  6
CONTINUOUS
 62
     5
 10
59.399999999999643
 20
30.60000000000014
 30
0.0
 11
66.599999999999454
 21
30.60000000000014
 31
0.0
  0
LINE
  8
DETAIL
  6
CONTINUOUS
 62
     5
 10
66.599999999999454
 20
23.400000000000091
 30
0.0
 11
66.599999999999454
 21
30.60000000000014
 31
0.0
  0
LINE
  8
DETAIL
  6
CONTINUOUS
 62
     5
 10
59.399999999999643
 20
32.400000000000091
 30
0.0
 11
59.399999999999643
 21
39.600000000000144
 31
0.0
  0
LINE
  8
DETAIL
  6
CONTINUOUS
 62
     5
 10
59.399999999999643
 20
32.400000000000091
 30
0.0
 11
66.599999999999454
 21
32.400000000000091
 31
0.0
  0
LINE
  8
DETAIL
  6
CONTINUOUS
 62
     5
 10
66.599999999999454
 20
32.400000000000091
 30
0.0
 11
66.599999999999454
 21
39.600000000000144
 31
0.0
  0
LINE
  8
DETAIL
  6
CONTINUOUS
 62
     5
 10
57.599999999999447
 20
23.400000000000091
 30
0.0
 11
57.599999999999447
 21
30.60000000000014
 31
0.0
  0
LINE
  8
DETAIL
  6
CONTINUOUS
 62
     5
 10
50.399999999999643
 20
32.400000000000091
 30
0.0
 11
50.399999999999643
 21
39.600000000000144
 31
0.0
  0
LINE
  8
DETAIL
  6
CONTINUOUS
 62
     5
 10
50.399999999999643
 20
32.400000000000091
 30
0.0
 11
57.599999999999447
 21
32.400000000000091
 31
0.0
  0
LINE
  8
DETAIL
  6
CONTINUOUS
 62
     5
 10
57.599999999999447
 20
32.400000000000091
 30
0.0
 11
57.599999999999447
 21
39.600000000000144
 31
0.0
  0
LINE
  8
DETAIL
  6
CONTINUOUS
 62
     5
 10
142.0
 20
143.0
 30
0.0
 11
0.0
 21
143.0
 31
0.0
  0
LINE
  8
DETAIL
  6
CONTINUOUS
 62
     5
 10
0.0
 20
136.20564900000011
 30
0.0
 11
135.20564899999951
 21
136.20564900000011
 31
0.0
  0
LINE
  8
DETAIL
  6
CONTINUOUS
 62
     5
 10
95.5
 20
99.5
 30
0.0
 11
0.0
 21
99.5
 31
0.0
  0
LINE
  8
DETAIL
  6
CONTINUOUS
 62
     5
 10
97.0
 20
101.0
 30
0.0
 11
0.0
 21
101.0
 31
0.0
  0
LINE
  8
DETAIL
  6
CONTINUOUS
 62
     5
 10
0.0
 20
93.600000000000136
 30
0.0
 11
3.5999999999994539
 21
93.600000000000136
 31
0.0
  0
LINE
  8
DETAIL
  6
CONTINUOUS
 62
     5
 10
0.0
 20
86.400000000000091
 30
0.0
 11
3.5999999999994539
 21
86.400000000000091
 31
0.0
  0
LINE
  8
DETAIL
  6
CONTINUOUS
 62
     5
 10
0.0
 20
84.600000000000136
 30
0.0
 11
3.5999999999994539
 21
84.600000000000136
 31
0.0
  0
LINE
  8
DETAIL
  6
CONTINUOUS
 62
     5
 10
0.0
 20
77.400000000000091
 30
0.0
 11
3.5999999999994539
 21
77.400000000000091
 31
0.0
  0
LINE
  8
DETAIL
  6
CONTINUOUS
 62
     5
 10
0.0
 20
75.600000000000136
 30
0.0
 11
3.5999999999994539
 21
75.600000000000136
 31
0.0
  0
LINE
  8
DETAIL
  6
CONTINUOUS
 62
     5
 10
0.0
 20
68.400000000000091
 30
0.0
 11
3.5999999999994539
 21
68.400000000000091
 31
0.0
  0
LINE
  8
DETAIL
  6
CONTINUOUS
 62
     5
 10
0.0
 20
66.600000000000136
 30
0.0
 11
3.5999999999994539
 21
66.600000000000136
 31
0.0
  0
LINE
  8
DETAIL
  6
CONTINUOUS
 62
     5
 10
0.0
 20
59.400000000000091
 30
0.0
 11
3.5999999999994539
 21
59.400000000000091
 31
0.0
  0
LINE
  8
DETAIL
  6
CONTINUOUS
 62
     5
 10
0.0
 20
57.600000000000144
 30
0.0
 11
3.5999999999994539
 21
57.600000000000144
 31
0.0
  0
LINE
  8
DETAIL
  6
CONTINUOUS
 62
     5
 10
0.0
 20
50.400000000000091
 30
0.0
 11
3.5999999999994539
 21
50.400000000000091
 31
0.0
  0
LINE
  8
DETAIL
  6
CONTINUOUS
 62
     5
 10
0.0
 20
48.600000000000144
 30
0.0
 11
3.5999999999994539
 21
48.600000000000144
 31
0.0
  0
LINE
  8
DETAIL
  6
CONTINUOUS
 62
     5
 10
0.0
 20
41.400000000000091
 30
0.0
 11
3.5999999999994539
 21
41.400000000000091
 31
0.0
  0
LINE
  8
DETAIL
  6
CONTINUOUS
 62
     5
 10
0.0
 20
39.600000000000144
 30
0.0
 11
3.5999999999994539
 21
39.600000000000144
 31
0.0
  0
LINE
  8
DETAIL
  6
CONTINUOUS
 62
     5
 10
0.0
 20
32.400000000000091
 30
0.0
 11
3.5999999999994539
 21
32.400000000000091
 31
0.0
  0
LINE
  8
DETAIL
  6
CONTINUOUS
 62
     5
 10
0.0
 20
30.60000000000014
 30
0.0
 11
3.5999999999994539
 21
30.60000000000014
 31
0.0
  0
LINE
  8
DETAIL
  6
CONTINUOUS
 62
     5
 10
0.0
 20
23.400000000000091
 30
0.0
 11
3.5999999999994539
 21
23.400000000000091
 31
0.0
  0
LINE
  8
DETAIL
  6
CONTINUOUS
 62
     5
 10
0.0
 20
21.60000000000014
 30
0.0
 11
3.5999999999994539
 21
21.60000000000014
 31
0.0
  0
LINE
  8
DETAIL
  6
CONTINUOUS
 62
     5
 10
0.0
 20
14.400000000000089
 30
0.0
 11
3.5999999999994539
 21
14.400000000000089
 31
0.0
  0
LINE
  8
DETAIL
  6
CONTINUOUS
 62
     5
 10
0.0
 20
12.60000000000014
 30
0.0
 11
3.5999999999994539
 21
12.60000000000014
 31
0.0
  0
LINE
  8
DETAIL
  6
CONTINUOUS
 62
     5
 10
0.0
 20
5.4000000000000909
 30
0.0
 11
3.5999999999994539
 21
5.4000000000000909
 31
0.0
  0
LINE
  8
DETAIL
  6
CONTINUOUS
 62
     5
 10
0.0
 20
3.600000000000136
 30
0.0
 11
3.5999999999994539
 21
3.600000000000136
 31
0.0
  0
LINE
  8
DETAIL
  6
CONTINUOUS
 62
     5
 10
97.0
 20
-100.9999999999999
 30
0.0
 11
0.0
 21
-100.9999999999999
 31
0.0
  0
LINE
  8
DETAIL
  6
CONTINUOUS
 62
     5
 10
95.5
 20
-99.499999999999886
 30
0.0
 11
0.0
 21
-99.499999999999886
 31
0.0
  0
LINE
  8
DETAIL
  6
CONTINUOUS
 62
     5
 10
0.0
 20
-93.599999999999909
 30
0.0
 11
3.5999999999994539
 21
-93.599999999999909
 31
0.0
  0
LINE
  8
DETAIL
  6
CONTINUOUS
 62
     5
 10
0.0
 20
-86.399999999999864
 30
0.0
 11
3.5999999999994539
 21
-86.399999999999864
 31
0.0
  0
LINE
  8
DETAIL
  6
CONTINUOUS
 62
     5
 10
0.0
 20
-84.599999999999909
 30
0.0
 11
3.5999999999994539
 21
-84.599999999999909
 31
0.0
  0
LINE
  8
DETAIL
  6
CONTINUOUS
 62
     5
 10
0.0
 20
-77.399999999999864
 30
0.0
 11
3.5999999999994539
 21
-77.399999999999864
 31
0.0
  0
LINE
  8
DETAIL
  6
CONTINUOUS
 62
     5
 10
0.0
 20
-75.599999999999909
 30
0.0
 11
3.5999999999994539
 21
-75.599999999999909
 31
0.0
  0
LINE
  8
DETAIL
  6
CONTINUOUS
 62
     5
 10
0.0
 20
-68.399999999999864
 30
0.0
 11
3.5999999999994539
 21
-68.399999999999864
 31
0.0
  0
LINE
  8
DETAIL
  6
CONTINUOUS
 62
     5
 10
0.0
 20
-66.599999999999909
 30
0.0
 11
3.5999999999994539
 21
-66.599999999999909
 31
0.0
  0
LINE
  8
DETAIL
  6
CONTINUOUS
 62
     5
 10
0.0
 20
-59.399999999999856
 30
0.0
 11
3.5999999999994539
 21
-59.399999999999856
 31
0.0
  0
LINE
  8
DETAIL
  6
CONTINUOUS
 62
     5
 10
0.0
 20
-57.599999999999909
 30
0.0
 11
3.5999999999994539
 21
-57.599999999999909
 31
0.0
  0
LINE
  8
DETAIL
  6
CONTINUOUS
 62
     5
 10
0.0
 20
-50.399999999999856
 30
0.0
 11
3.5999999999994539
 21
-50.399999999999856
 31
0.0
  0
LINE
  8
DETAIL
  6
CONTINUOUS
 62
     5
 10
0.0
 20
-48.599999999999909
 30
0.0
 11
3.5999999999994539
 21
-48.599999999999909
 31
0.0
  0
LINE
  8
DETAIL
  6
CONTINUOUS
 62
     5
 10
0.0
 20
-41.399999999999856
 30
0.0
 11
3.5999999999994539
 21
-41.399999999999856
 31
0.0
  0
LINE
  8
DETAIL
  6
CONTINUOUS
 62
     5
 10
0.0
 20
-39.599999999999909
 30
0.0
 11
3.5999999999994539
 21
-39.599999999999909
 31
0.0
  0
LINE
  8
DETAIL
  6
CONTINUOUS
 62
     5
 10
0.0
 20
-32.399999999999856
 30
0.0
 11
3.5999999999994539
 21
-32.399999999999856
 31
0.0
  0
LINE
  8
DETAIL
  6
CONTINUOUS
 62
     5
 10
0.0
 20
-30.599999999999909
 30
0.0
 11
3.5999999999994539
 21
-30.599999999999909
 31
0.0
  0
LINE
  8
DETAIL
  6
CONTINUOUS
 62
     5
 10
0.0
 20
-23.39999999999986
 30
0.0
 11
3.5999999999994539
 21
-23.39999999999986
 31
0.0
  0
LINE
  8
DETAIL
  6
CONTINUOUS
 62
     5
 10
0.0
 20
-21.599999999999909
 30
0.0
 11
3.5999999999994539
 21
-21.599999999999909
 31
0.0
  0
LINE
  8
DETAIL
  6
CONTINUOUS
 62
     5
 10
0.0
 20
-14.39999999999986
 30
0.0
 11
3.5999999999994539
 21
-14.39999999999986
 31
0.0
  0
LINE
  8
DETAIL
  6
CONTINUOUS
 62
     5
 10
0.0
 20
-12.599999999999911
 30
0.0
 11
3.5999999999994539
 21
-12.599999999999911
 31
0.0
  0
LINE
  8
DETAIL
  6
CONTINUOUS
 62
     5
 10
0.0
 20
-5.3999999999998636
 30
0.0
 11
3.5999999999994539
 21
-5.3999999999998636
 31
0.0
  0
LINE
  8
DETAIL
  6
CONTINUOUS
 62
     5
 10
0.0
 20
-3.5999999999999091
 30
0.0
 11
3.5999999999994539
 21
-3.5999999999999091
 31
0.0
  0
LINE
  8
DETAIL
  6
CONTINUOUS
 62
     5
 10
142.0
 20
-142.99999999999989
 30
0.0
 11
0.0
 21
-142.99999999999989
 31
0.0
  0
LINE
  8
DETAIL
  6
CONTINUOUS
 62
     5
 10
0.0
 20
-136.20564999999991
 30
0.0
 11
135.20564899999951
 21
-136.20564999999991
 31
0.0
  0
LINE
  8
DETAIL
  6
CONTINUOUS
 62
     5
 10
6.9998779999996259
 20
-148.99995499999989
 30
0.0
 11
6.9998779999996259
 21
-142.99999999999989
 31
0.0
  0
LINE
  8
DETAIL
  6
CONTINUOUS
 62
     5
 10
-118.99987800000051
 20
-148.99995499999989
 30
0.0
 11
-118.99987800000051
 21
-142.99999999999989
 31
0.0
  0
LINE
  8
SIZE
  6
CONTINUOUS
 62
    30
 10
0.0
 20
-238.8582309999999
 30
0.0
 11
0.0
 21
-397.05693059033717
 31
0.0
  0
LINE
  8
SIZE
  6
CONTINUOUS
 62
    30
 10
-56.0
 20
-250.4613129999999
 30
0.0
 11
-56.0
 21
-397.05693059033717
 31
0.0
  0
LINE
  8
SIZE
  6
CONTINUOUS
 62
    30
 10
-68.0
 20
-377.05693059033717
 30
0.0
 11
-80.0
 21
-377.05693059033717
 31
0.0
  0
LINE
  8
SIZE
  6
CONTINUOUS
 62
    30
 10
12.0
 20
-377.05693059033717
 30
0.0
 11
338.58561855922562
 21
-377.05693059033717
 31
0.0
  0
LINE
  8
SIZE
  6
CONTINUOUS
 62
    30
 10
-56.0
 20
-377.05693059033717
 30
0.0
 11
0.0
 21
-377.05693059033717
 31
0.0
  0
CIRCLE
  8
SIZE
  6
CONTINUOUS
 62
    30
 10
-56.0
 20
-377.05693059033717
 30
0.0
 40
6.0
  0
LINE
  8
SIZE
  6
CONTINUOUS
 62
    30
 10
-56.0
 20
-377.05693059033717
 30
0.0
 11
-68.0
 21
-377.05693059033717
 31
0.0
  0
CIRCLE
  8
SIZE
  6
CONTINUOUS
 62
    30
 10
0.0
 20
-377.05693059033717
 30
0.0
 40
6.0
  0
LINE
  8
SIZE
  6
CONTINUOUS
 62
    30
 10
0.0
 20
-377.05693059033717
 30
0.0
 11
12.0
 21
-377.05693059033717
 31
0.0
  0
TEXT
  8
SIZE
  6
CONTINUOUS
 62
    30
 10
223.07133284494009
 20
-352.05693059033717
 30
0.0
 40
64.0
  1
56
 41
0.9
 72
     1
 11
268.32847570208293
 21
-352.05693059033717
 31
0.0
  0
POINT
  8
DEFPOINTS
  6
CONTINUOUS
 62
    30
 10
0.0
 20
-218.8582309999999
 30
0.0
  0
POINT
  8
DEFPOINTS
  6
CONTINUOUS
 62
    30
 10
-56.0
 20
-230.4613129999999
 30
0.0
  0
POINT
  8
DEFPOINTS
  6
CONTINUOUS
 62
    30
 10
-56.0
 20
-377.05693059033717
 30
0.0
  0
ENDSEC
  0
EOF
