  0
SECTION
  2
HEADER
  9
$ACADVER
  1
AC1009
  9
$INSBASE
 10
0.0
 20
0.0
 30
0.0
  9
$EXTMIN
 10
-455.128803
 20
-495.64233999999999
 30
0.0
  9
$EXTMAX
 10
985.96466993491197
 20
950.52409800000009
 30
50.0
  9
$LIMMIN
 10
-2970.0
 20
-2100.0
  9
$LIMMAX
 10
2970.0
 20
2100.0
  9
$ORTHOMODE
 70
     1
  9
$REGENMODE
 70
     0
  9
$FILLMODE
 70
     1
  9
$QTEXTMODE
 70
     0
  9
$MIRRTEXT
 70
     0
  9
$DRAGMODE
 70
     2
  9
$LTSCALE
 40
20.0
  9
$OSMODE
 70
   167
  9
$ATTMODE
 70
     1
  9
$TEXTSIZE
 40
64.0
  9
$TRACEWID
 40
0.05
  9
$TEXTSTYLE
  7
STANDARD
  9
$CLAYER
  8
SIZE
  9
$CELTYPE
  6
CONTINUOUS
  9
$CECOLOR
 62
    30
  9
$DIMSCALE
 40
1.0
  9
$DIMASZ
 40
12.0
  9
$DIMEXO
 40
20.0
  9
$DIMDLI
 40
200.0
  9
$DIMRND
 40
0.0
  9
$DIMDLE
 40
0.0
  9
$DIMEXE
 40
20.0
  9
$DIMTP
 40
0.0
  9
$DIMTM
 40
0.0
  9
$DIMTXT
 40
64.0
  9
$DIMCEN
 40
0.09
  9
$DIMTSZ
 40
0.0
  9
$DIMTOL
 70
     0
  9
$DIMLIM
 70
     0
  9
$DIMTIH
 70
     0
  9
$DIMTOH
 70
     0
  9
$DIMSE1
 70
     0
  9
$DIMSE2
 70
     0
  9
$DIMTAD
 70
     1
  9
$DIMZIN
 70
     8
  9
$DIMBLK
  1
DOT1
  9
$DIMASO
 70
     1
  9
$DIMSHO
 70
     0
  9
$DIMPOST
  1

  9
$DIMAPOST
  1

  9
$DIMALT
 70
     0
  9
$DIMALTD
 70
     2
  9
$DIMALTF
 40
25.399999999999999
  9
$DIMLFAC
 40
1.0
  9
$DIMTOFL
 70
     1
  9
$DIMTVP
 40
0.0
  9
$DIMTIX
 70
     1
  9
$DIMSOXD
 70
     0
  9
$DIMSAH
 70
     1
  9
$DIMBLK1
  1
ORIGIN
  9
$DIMBLK2
  1
ORIGIN
  9
$DIMSTYLE
  2
STANDARD
  9
$DIMCLRD
 70
     7
  9
$DIMCLRE
 70
     7
  9
$DIMCLRT
 70
     7
  9
$DIMTFAC
 40
1.0
  9
$DIMGAP
 40
25.0
  9
$LUNITS
 70
     2
  9
$LUPREC
 70
     4
  9
$SKETCHINC
 40
0.1
  9
$FILLETRAD
 40
10.0
  9
$AUNITS
 70
     1
  9
$AUPREC
 70
     3
  9
$MENU
  1
ACAD
  9
$ELEVATION
 40
0.0
  9
$PELEVATION
 40
0.0
  9
$THICKNESS
 40
50.0
  9
$LIMCHECK
 70
     0
  9
$BLIPMODE
 70
     0
  9
$CHAMFERA
 40
0.0
  9
$CHAMFERB
 40
0.0
  9
$SKPOLY
 70
     0
  9
$TDCREATE
 40
2453111.4692612621
  9
$TDUPDATE
 40
2454147.3925971058
  9
$TDINDWG
 40
0.1924987963
  9
$TDUSRTIMER
 40
0.1924987963
  9
$USRTIMER
 70
     1
  9
$ANGBASE
 50
0.0
  9
$ANGDIR
 70
     0
  9
$PDMODE
 70
     3
  9
$PDSIZE
 40
-2.0
  9
$PLINEWID
 40
0.0
  9
$COORDS
 70
     1
  9
$SPLFRAME
 70
     0
  9
$SPLINETYPE
 70
     6
  9
$SPLINESEGS
 70
     8
  9
$ATTDIA
 70
     0
  9
$ATTREQ
 70
     1
  9
$HANDLING
 70
 22529
  9
$HANDSEED
  5
1AA
  9
$SURFTAB1
 70
     6
  9
$SURFTAB2
 70
     6
  9
$SURFTYPE
 70
     6
  9
$SURFU
 70
     6
  9
$SURFV
 70
     6
  9
$UCSNAME
  2

  9
$UCSORG
 10
0.0
 20
0.0
 30
0.0
  9
$UCSXDIR
 10
1.0
 20
0.0
 30
0.0
  9
$UCSYDIR
 10
0.0
 20
1.0
 30
0.0
  9
$PUCSNAME
  2

  9
$PUCSORG
 10
0.0
 20
0.0
 30
0.0
  9
$PUCSXDIR
 10
1.0
 20
0.0
 30
0.0
  9
$PUCSYDIR
 10
0.0
 20
1.0
 30
0.0
  9
$USERI1
 70
     0
  9
$USERI2
 70
     0
  9
$USERI3
 70
     0
  9
$USERI4
 70
     0
  9
$USERI5
 70
     0
  9
$USERR1
 40
20.0
  9
$USERR2
 40
0.0
  9
$USERR3
 40
0.0
  9
$USERR4
 40
0.0
  9
$USERR5
 40
0.0
  9
$WORLDVIEW
 70
     1
  9
$SHADEDGE
 70
     3
  9
$SHADEDIF
 70
    70
  9
$TILEMODE
 70
     1
  9
$MAXACTVP
 70
    48
  9
$PLIMCHECK
 70
     0
  9
$PEXTMIN
 10
-1.0000000000000000E+020
 20
-1.0000000000000000E+020
 30
-1.0000000000000000E+020
  9
$PEXTMAX
 10
1.0000000000000000E+020
 20
1.0000000000000000E+020
 30
1.0000000000000000E+020
  9
$PLIMMIN
 10
0.0
 20
0.0
  9
$PLIMMAX
 10
12.0
 20
9.0
  9
$UNITMODE
 70
     0
  9
$VISRETAIN
 70
     0
  9
$PLINEGEN
 70
     0
  9
$PSLTSCALE
 70
     0
  0
ENDSEC
  0
SECTION
  2
TABLES
  0
TABLE
  2
VPORT
 70
     3
  0
VPORT
  2
*ACTIVE
 70
     0
 10
0.0
 20
0.0
 11
1.0
 21
1.0
 12
224.5904733634429
 22
227.5085549999996
 13
0.0
 23
0.0
 14
1.0
 24
1.0
 15
0.0
 25
0.0
 16
0.0
 26
0.0
 36
1.0
 17
0.0
 27
0.0
 37
0.0
 40
1457.5681203212721
 41
1.710526315789473
 42
50.0
 43
0.0
 44
0.0
 50
0.0
 51
0.0
 71
     0
 72
  1000
 73
     1
 74
     0
 75
     0
 76
     0
 77
     0
 78
     0
  0
ENDTAB
  0
TABLE
  2
LTYPE
 70
     2
  0
LTYPE
  2
CONTINUOUS
 70
     0
  3
Ä└É³
 72
    65
 73
     0
 40
0.0
  0
LTYPE
  2
DASHDOT
 70
     0
  3
____ _ ____ _ ____ _ ____ _ ____ _ ____ _ ____
 72
    65
 73
     4
 40
5.5
 49
4.0
 49
-0.6
 49
0.3
 49
-0.6
  0
ENDTAB
  0
TABLE
  2
LAYER
 70
    12
  0
LAYER
  2
0
 70
     0
 62
     7
  6
CONTINUOUS
  0
LAYER
  2
SIZE
 70
     0
 62
    30
  6
CONTINUOUS
  0
LAYER
  2
BASIS
 70
     0
 62
     6
  6
DASHDOT
  0
LAYER
  2
OUTLINE
 70
     0
 62
     3
  6
CONTINUOUS
  0
LAYER
  2
DETAIL
 70
     0
 62
     5
  6
CONTINUOUS
  0
LAYER
  2
ARRANGE
 70
     0
 62
     1
  6
CONTINUOUS
  0
LAYER
  2
DEFPOINTS
 70
     0
 62
     7
  6
CONTINUOUS
  0
LAYER
  2
ETC
 70
     0
 62
    61
  6
CONTINUOUS
  0
LAYER
  2
FIX
 70
     0
 62
    11
  6
CONTINUOUS
  0
LAYER
  2
NOTE
 70
     0
 62
     4
  6
CONTINUOUS
  0
LAYER
  2
SERVICESPACE
 70
     0
 62
     2
  6
DASHDOT
  0
LAYER
  2
SYMBOLLINE
 70
     0
 62
    15
  6
CONTINUOUS
  0
ENDTAB
  0
TABLE
  2
STYLE
 70
     1
  0
STYLE
  2
STANDARD
 70
     0
 40
64.0
 41
0.9
 50
0.0
 71
     0
 42
64.0
  3
SIMPLEX.shx
  4
BIGFONT.shx
  0
ENDTAB
  0
TABLE
  2
VIEW
 70
     1
  0
VIEW
  2
ALL
 70
     0
 40
4282.6198079999986
 10
0.0
 20
41.309903999999989
 41
5940.0
 11
0.0
 21
0.0
 31
1.0
 12
0.0
 22
0.0
 32
0.0
 42
50.0
 43
0.0
 44
0.0
 50
0.0
 71
     0
  0
ENDTAB
  0
TABLE
  2
UCS
 70
     0
  0
ENDTAB
  0
TABLE
  2
APPID
 70
     2
  0
APPID
  2
ACAD
 70
     0
  0
APPID
  2
AUTOCAD_POSTSCRIPT_FIGURE
 70
     0
  0
ENDTAB
  0
TABLE
  2
DIMSTYLE
 70
     1
  0
DIMSTYLE
  2
STANDARD
 70
     0
  3

  4

  5

  6

  7

 40
1.0
 41
0.18
 42
0.0625
 43
0.38
 44
0.18
 45
0.0
 46
0.0
 47
0.0
 48
0.0
140
0.18
141
0.09
142
0.0
143
25.399999999999999
144
1.0
145
0.0
146
1.0
147
0.09
 71
     0
 72
     0
 73
     1
 74
     1
 75
     0
 76
     0
 77
     0
 78
     0
170
     0
171
     2
172
     0
173
     0
174
     0
175
     0
176
     7
177
     7
178
     7
  0
ENDTAB
  0
ENDSEC
  0
SECTION
  2
BLOCKS
  0
BLOCK
  8
0
  2
$MODEL_SPACE
 70
     0
 10
0.0
 20
0.0
 30
0.0
  3
$MODEL_SPACE
  1

  0
ENDBLK
  5
20
  8
0
  0
BLOCK
 67
     1
  8
0
  2
$PAPER_SPACE
 70
     0
 10
0.0
 20
0.0
 30
0.0
  3
$PAPER_SPACE
  1

  0
ENDBLK
  5
1C
 67
     1
  8
0
  0
BLOCK
  8
0
  2
DOT1
 70
     0
 10
0.0
 20
0.0
 30
0.0
  3
DOT1
  1

  0
CIRCLE
  5
36
  8
SIZE
  6
CONTINUOUS
 62
     7
 10
0.0
 20
0.0
 30
0.0
 40
3.0
  0
ENDBLK
  5
37
  8
0
  0
BLOCK
  8
0
  2
_ORIGIN
 70
     0
 10
0.0
 20
0.0
 30
0.0
  3
_ORIGIN
  1

  0
CIRCLE
  5
3A
  8
0
  6
CONTINUOUS
 62
     7
 10
0.0
 20
0.0
 30
0.0
 40
0.5
  0
LINE
  5
3B
  8
0
  6
CONTINUOUS
 62
     7
 10
0.0
 20
0.0
 30
0.0
 11
-1.0
 21
0.0
 31
0.0
  0
ENDBLK
  5
3C
  8
0
  0
ENDSEC
  0
SECTION
  2
ENTITIES
  0
LINE
  5
3F
  8
DETAIL
  6
CONTINUOUS
 62
     5
 10
-101.5
 20
179.0
 30
0.0
 11
-101.5
 21
0.0
 31
0.0
  0
LINE
  5
40
  8
DETAIL
  6
CONTINUOUS
 62
     5
 10
-128.0
 20
186.0
 30
0.0
 11
-128.0
 21
182.0
 31
0.0
  0
LINE
  5
41
  8
DETAIL
  6
CONTINUOUS
 62
     5
 10
-128.0
 20
186.0
 30
0.0
 11
-102.4999999999999
 21
186.0
 31
0.0
  0
LINE
  5
42
  8
DETAIL
  6
CONTINUOUS
 62
     5
 10
128.0
 20
186.0
 30
0.0
 11
128.0
 21
182.0
 31
0.0
  0
LINE
  5
43
  8
DETAIL
  6
CONTINUOUS
 62
     5
 10
101.5
 20
179.0
 30
0.0
 11
101.5
 21
0.0
 31
0.0
  0
LINE
  5
44
  8
DETAIL
  6
CONTINUOUS
 62
     5
 10
128.0
 20
186.0
 30
0.0
 11
102.4999999999999
 21
186.0
 31
0.0
  0
CIRCLE
  5
45
  8
FIX
  6
CONTINUOUS
 62
    11
 39
50.0
 10
75.0
 20
0.0
 30
0.0
 40
2.5
  0
LINE
  5
46
  8
NOTE
  6
CONTINUOUS
 62
     4
 10
75.0
 20
-20.0
 30
0.0
 11
75.0
 21
20.0
 31
0.0
  0
LINE
  5
47
  8
NOTE
  6
CONTINUOUS
 62
     4
 10
95.0
 20
0.0
 30
0.0
 11
55.0
 21
0.0
 31
0.0
  0
CIRCLE
  5
48
  8
FIX
  6
CONTINUOUS
 62
    11
 39
50.0
 10
-114.5
 20
186.0
 30
0.0
 40
7.5
  0
CIRCLE
  5
49
  8
FIX
  6
CONTINUOUS
 62
    11
 39
50.0
 10
114.5
 20
186.0
 30
0.0
 40
7.5
  0
LINE
  5
4A
  8
NOTE
  6
CONTINUOUS
 62
     4
 10
106.0
 20
-20.0
 30
0.0
 11
106.0
 21
20.0
 31
0.0
  0
LINE
  5
4B
  8
NOTE
  6
CONTINUOUS
 62
     4
 10
126.0
 20
0.0
 30
0.0
 11
86.0
 21
0.0
 31
0.0
  0
CIRCLE
  5
4C
  8
FIX
  6
CONTINUOUS
 62
    11
 39
50.0
 10
106.0
 20
0.0
 30
0.0
 40
2.5
  0
LINE
  5
4D
  8
NOTE
  6
CONTINUOUS
 62
     4
 10
134.49999999999989
 20
186.0
 30
0.0
 11
94.500000000000014
 21
186.0
 31
0.0
  0
LINE
  5
4E
  8
NOTE
  6
CONTINUOUS
 62
     4
 10
114.5
 20
206.0
 30
0.0
 11
114.5
 21
166.0
 31
0.0
  0
LINE
  5
4F
  8
NOTE
  6
CONTINUOUS
 62
     4
 10
-114.5
 20
206.0
 30
0.0
 11
-114.5
 21
166.0
 31
0.0
  0
LINE
  5
50
  8
NOTE
  6
CONTINUOUS
 62
     4
 10
-134.49999999999989
 20
186.0
 30
0.0
 11
-94.500000000000014
 21
186.0
 31
0.0
  0
LINE
  5
51
  8
BASIS
  6
DASHDOT
 62
     6
 10
-12.0
 20
150.96120199999999
 30
0.0
 11
-12.0
 21
199.85388699999999
 31
0.0
  0
LINE
  5
52
  8
BASIS
  6
DASHDOT
 62
     6
 10
0.0
 20
-49.328414000000002
 30
0.0
 11
0.0
 21
214.19215700000001
 31
0.0
  0
LINE
  5
53
  8
NOTE
  6
CONTINUOUS
 62
     4
 10
275.80126799999988
 20
-293.9187
 30
0.0
 11
650.26020900000003
 21
-293.9187
 31
0.0
  0
TEXT
  5
54
  8
NOTE
  6
CONTINUOUS
 62
     4
 10
288.05415699999992
 20
-263.63751899999988
 30
0.0
 40
64.0
  1
8-âË5ü~8
 41
0.9
  0
LINE
  5
55
  8
NOTE
  6
CONTINUOUS
 62
     4
 10
181.99512399999989
 20
243.9859439999999
 30
0.0
 11
823.06049499999995
 21
243.9859439999999
 31
0.0
  0
TEXT
  5
56
  8
NOTE
  6
CONTINUOUS
 62
     4
 10
197.64693799999989
 20
276.0425259999999
 30
0.0
 40
64.0
  1
AH 2-âË15ü~22
 41
0.9
  0
LINE
  5
57
  8
DETAIL
  6
CONTINUOUS
 62
     5
 10
18.5
 20
169.0
 30
0.0
 11
95.5
 21
169.0
 31
0.0
  0
LINE
  5
58
  8
DETAIL
  6
CONTINUOUS
 62
     5
 10
39.5
 20
169.0
 30
0.0
 11
20.5
 21
169.0
 31
0.0
  0
LINE
  5
59
  8
DETAIL
  6
CONTINUOUS
 62
     5
 10
128.0
 20
182.0
 30
0.0
 11
104.4999999999999
 21
182.0
 31
0.0
  0
LINE
  5
5A
  8
DETAIL
  6
CONTINUOUS
 62
     5
 10
97.5
 20
143.5
 30
0.0
 11
97.5
 21
140.5
 31
0.0
  0
LINE
  5
5B
  8
DETAIL
  6
CONTINUOUS
 62
     5
 10
-128.0
 20
182.0
 30
0.0
 11
-104.4999999999999
 21
182.0
 31
0.0
  0
ARC
  5
5C
  8
DETAIL
  6
CONTINUOUS
 62
     5
 10
102.4999999999999
 20
181.0
 30
0.0
 40
5.0
 50
90.0
 51
180.0
  0
ARC
  5
5D
  8
DETAIL
  6
CONTINUOUS
 62
     5
 10
-102.4999999999999
 20
181.0
 30
0.0
 40
5.0
 50
0.0
 51
90.0
  0
ARC
  5
5E
  8
DETAIL
  6
CONTINUOUS
 62
     5
 10
104.4999999999999
 20
179.0
 30
0.0
 40
3.0
 50
90.0
 51
180.0
  0
ARC
  5
5F
  8
DETAIL
  6
CONTINUOUS
 62
     5
 10
-104.4999999999999
 20
179.0
 30
0.0
 40
3.0
 50
0.0
 51
90.0
  0
POINT
  5
60
  8
ARRANGE
  6
CONTINUOUS
 62
     1
 10
0.0
 20
0.0
 30
0.0
  0
CIRCLE
  5
61
  8
ARRANGE
  6
CONTINUOUS
 62
     1
 10
0.0
 20
0.0
 30
0.0
 40
40.0
  0
LINE
  5
62
  8
DETAIL
  6
CONTINUOUS
 62
     5
 10
15.5
 20
189.0
 30
0.0
 11
-39.5
 21
189.0
 31
0.0
  0
ARC
  5
63
  8
DETAIL
  6
CONTINUOUS
 62
     5
 10
15.5
 20
186.0
 30
0.0
 40
3.0
 50
0.0
 51
90.0
  0
LINE
  5
64
  8
DETAIL
  6
CONTINUOUS
 62
     5
 10
18.5
 20
186.0
 30
0.0
 11
18.5
 21
157.0
 31
0.0
  0
ARC
  5
65
  8
DETAIL
  6
CONTINUOUS
 62
     5
 10
-39.5
 20
186.0
 30
0.0
 40
3.0
 50
90.0
 51
180.0
  0
LINE
  5
66
  8
DETAIL
  6
CONTINUOUS
 62
     5
 10
-42.5
 20
186.0
 30
0.0
 11
-42.5
 21
157.0
 31
0.0
  0
LINE
  5
67
  8
DETAIL
  6
CONTINUOUS
 62
     5
 10
97.5
 20
0.0
 30
0.0
 11
97.5
 21
181.0
 31
0.0
  0
LINE
  5
68
  8
SIZE
  6
CONTINUOUS
 62
    30
 10
-143.0
 20
-26.266200999999999
 30
0.0
 11
-143.0
 21
-495.64233999999999
 31
0.0
  0
LINE
  5
69
  8
SIZE
  6
CONTINUOUS
 62
    30
 10
143.0
 20
-26.266200999999999
 30
0.0
 11
143.0
 21
-495.64233999999999
 31
0.0
  0
LINE
  5
6A
  8
SIZE
  6
CONTINUOUS
 62
    30
 10
-131.0
 20
-475.64233999999999
 30
0.0
 11
131.0
 21
-475.64233999999999
 31
0.0
  0
CIRCLE
  5
6B
  8
SIZE
  6
CONTINUOUS
 62
    30
 10
-143.0
 20
-475.64233999999999
 30
0.0
 40
6.0
  0
LINE
  5
6C
  8
SIZE
  6
CONTINUOUS
 62
    30
 10
-143.0
 20
-475.64233999999999
 30
0.0
 11
-131.0
 21
-475.64233999999999
 31
0.0
  0
CIRCLE
  5
6D
  8
SIZE
  6
CONTINUOUS
 62
    30
 10
143.0
 20
-475.64233999999999
 30
0.0
 40
6.0
  0
LINE
  5
6E
  8
SIZE
  6
CONTINUOUS
 62
    30
 10
143.0
 20
-475.64233999999999
 30
0.0
 11
131.0
 21
-475.64233999999999
 31
0.0
  0
TEXT
  5
6F
  8
SIZE
  6
CONTINUOUS
 62
    30
 10
-109.1657142857143
 20
-450.64233999999999
 30
0.0
 40
64.0
  1
üá286
 41
0.9
 72
     1
 11
0.0
 21
-450.64233999999999
 31
0.0
  0
LINE
  5
73
  8
SIZE
  6
CONTINUOUS
 62
    30
 10
-106.0
 20
-40.0
 30
0.0
 11
-106.0
 21
-367.21926200000001
 31
0.0
  0
LINE
  5
74
  8
SIZE
  6
CONTINUOUS
 62
    30
 10
106.0
 20
-40.0
 30
0.0
 11
106.0
 21
-367.21926200000001
 31
0.0
  0
LINE
  5
75
  8
SIZE
  6
CONTINUOUS
 62
    30
 10
-94.0
 20
-347.21926200000001
 30
0.0
 11
94.0
 21
-347.21926200000001
 31
0.0
  0
CIRCLE
  5
76
  8
SIZE
  6
CONTINUOUS
 62
    30
 10
-106.0
 20
-347.21926200000001
 30
0.0
 40
6.0
  0
LINE
  5
77
  8
SIZE
  6
CONTINUOUS
 62
    30
 10
-106.0
 20
-347.21926200000001
 30
0.0
 11
-94.0
 21
-347.21926200000001
 31
0.0
  0
CIRCLE
  5
78
  8
SIZE
  6
CONTINUOUS
 62
    30
 10
106.0
 20
-347.21926200000001
 30
0.0
 40
6.0
  0
LINE
  5
79
  8
SIZE
  6
CONTINUOUS
 62
    30
 10
106.0
 20
-347.21926200000001
 30
0.0
 11
94.0
 21
-347.21926200000001
 31
0.0
  0
TEXT
  5
7A
  8
SIZE
  6
CONTINUOUS
 62
    30
 10
-68.571428571428569
 20
-322.21926200000001
 30
0.0
 40
64.0
  1
212
 41
0.9
 72
     1
 11
0.0
 21
-322.21926200000001
 31
0.0
  0
LINE
  5
7E
  8
SIZE
  6
CONTINUOUS
 62
    30
 10
-75.0
 20
-40.0
 30
0.0
 11
-75.0
 21
-239.893821
 31
0.0
  0
LINE
  5
7F
  8
SIZE
  6
CONTINUOUS
 62
    30
 10
75.0
 20
-40.0
 30
0.0
 11
75.0
 21
-239.893821
 31
0.0
  0
LINE
  5
80
  8
SIZE
  6
CONTINUOUS
 62
    30
 10
-87.0
 20
-219.893821
 30
0.0
 11
-99.0
 21
-219.893821
 31
0.0
  0
LINE
  5
81
  8
SIZE
  6
CONTINUOUS
 62
    30
 10
87.0
 20
-219.893821
 30
0.0
 11
99.0
 21
-219.893821
 31
0.0
  0
LINE
  5
82
  8
SIZE
  6
CONTINUOUS
 62
    30
 10
-75.0
 20
-219.893821
 30
0.0
 11
75.0
 21
-219.893821
 31
0.0
  0
CIRCLE
  5
83
  8
SIZE
  6
CONTINUOUS
 62
    30
 10
-75.0
 20
-219.893821
 30
0.0
 40
6.0
  0
LINE
  5
84
  8
SIZE
  6
CONTINUOUS
 62
    30
 10
-75.0
 20
-219.893821
 30
0.0
 11
-87.0
 21
-219.893821
 31
0.0
  0
CIRCLE
  5
85
  8
SIZE
  6
CONTINUOUS
 62
    30
 10
75.0
 20
-219.893821
 30
0.0
 40
6.0
  0
LINE
  5
86
  8
SIZE
  6
CONTINUOUS
 62
    30
 10
75.0
 20
-219.893821
 30
0.0
 11
87.0
 21
-219.893821
 31
0.0
  0
TEXT
  5
87
  8
SIZE
  6
CONTINUOUS
 62
    30
 10
-68.571428571428569
 20
-194.893821
 30
0.0
 40
64.0
  1
150
 41
0.9
 72
     1
 11
0.0
 21
-194.893821
 31
0.0
  0
LINE
  5
8B
  8
SIZE
  6
CONTINUOUS
 62
    30
 10
-163.0
 20
0.0
 30
0.0
 11
-386.128803
 21
0.0
 31
0.0
  0
LINE
  5
8C
  8
SIZE
  6
CONTINUOUS
 62
    30
 10
-117.5
 20
155.0
 30
0.0
 11
-386.128803
 21
155.0
 31
0.0
  0
LINE
  5
8D
  8
SIZE
  6
CONTINUOUS
 62
    30
 10
-366.128803
 20
12.0
 30
0.0
 11
-366.128803
 21
143.0
 31
0.0
  0
LINE
  5
8E
  8
SIZE
  6
CONTINUOUS
 62
    30
 10
-366.128803
 20
-253.25504699999999
 30
0.0
 11
-366.128803
 21
0.0
 31
0.0
  0
TEXT
  5
8F
  8
SIZE
  6
CONTINUOUS
 62
    30
 10
-391.128803
 20
-228.25504657142849
 30
0.0
 40
64.0
  1
155
 50
90.0
 41
0.9
 72
     1
 11
-391.128803
 21
-159.68361799999991
 31
0.0
  0
CIRCLE
  5
90
  8
SIZE
  6
CONTINUOUS
 62
    30
 10
-366.128803
 20
0.0
 30
0.0
 40
6.0
  0
LINE
  5
91
  8
SIZE
  6
CONTINUOUS
 62
    30
 10
-366.128803
 20
0.0
 30
0.0
 11
-366.128803
 21
12.0
 31
0.0
  0
CIRCLE
  5
92
  8
SIZE
  6
CONTINUOUS
 62
    30
 10
-366.128803
 20
155.0
 30
0.0
 40
6.0
  0
LINE
  5
93
  8
SIZE
  6
CONTINUOUS
 62
    30
 10
-366.128803
 20
155.0
 30
0.0
 11
-366.128803
 21
143.0
 31
0.0
  0
LINE
  5
97
  8
SIZE
  6
CONTINUOUS
 62
    30
 10
163.0
 20
0.0
 30
0.0
 11
449.06746799999991
 21
0.0
 31
0.0
  0
LINE
  5
98
  8
SIZE
  6
CONTINUOUS
 62
    30
 10
35.5
 20
189.0
 30
0.0
 11
449.06746799999991
 21
189.0
 31
0.0
  0
LINE
  5
99
  8
SIZE
  6
CONTINUOUS
 62
    30
 10
429.06746799999991
 20
12.0
 30
0.0
 11
429.06746799999991
 21
177.0
 31
0.0
  0
CIRCLE
  5
9A
  8
SIZE
  6
CONTINUOUS
 62
    30
 10
429.06746799999991
 20
0.0
 30
0.0
 40
6.0
  0
LINE
  5
9B
  8
SIZE
  6
CONTINUOUS
 62
    30
 10
429.06746799999991
 20
0.0
 30
0.0
 11
429.06746799999991
 21
12.0
 31
0.0
  0
CIRCLE
  5
9C
  8
SIZE
  6
CONTINUOUS
 62
    30
 10
429.06746799999991
 20
189.0
 30
0.0
 40
6.0
  0
LINE
  5
9D
  8
SIZE
  6
CONTINUOUS
 62
    30
 10
429.06746799999991
 20
189.0
 30
0.0
 11
429.06746799999991
 21
177.0
 31
0.0
  0
TEXT
  5
9E
  8
SIZE
  6
CONTINUOUS
 62
    30
 10
404.06746800000002
 20
27.300000000000011
 30
0.0
 40
64.0
  1
189
 50
90.0
 41
0.9
 72
     1
 11
404.06746800000002
 21
94.500000000000014
 31
0.0
  0
LINE
  5
A2
  8
SIZE
  6
CONTINUOUS
 62
    30
 10
163.0
 20
0.0
 30
0.0
 11
449.06746799999991
 21
0.0
 31
0.0
  0
LINE
  5
A3
  8
SIZE
  6
CONTINUOUS
 62
    30
 10
123.5
 20
-15.0
 30
0.0
 11
449.06746799999991
 21
-15.0
 31
0.0
  0
LINE
  5
A4
  8
SIZE
  6
CONTINUOUS
 62
    30
 10
429.06746799999991
 20
12.0
 30
0.0
 11
429.06746799999991
 21
24.0
 31
0.0
  0
LINE
  5
A5
  8
SIZE
  6
CONTINUOUS
 62
    30
 10
429.06746799999991
 20
-27.0
 30
0.0
 11
429.06746799999991
 21
-39.0
 31
0.0
  0
LINE
  5
A6
  8
SIZE
  6
CONTINUOUS
 62
    30
 10
429.06746799999991
 20
-178.4279389999999
 30
0.0
 11
429.06746799999991
 21
-15.0
 31
0.0
  0
TEXT
  5
A7
  8
SIZE
  6
CONTINUOUS
 62
    30
 10
404.06746800000002
 20
-153.4279391428571
 30
0.0
 40
64.0
  1
15
 50
90.0
 41
0.9
 72
     1
 11
404.06746800000002
 21
-112.285082
 31
0.0
  0
LINE
  5
A8
  8
SIZE
  6
CONTINUOUS
 62
    30
 10
429.06746799999991
 20
0.0
 30
0.0
 11
429.06746799999991
 21
-15.0
 31
0.0
  0
LINE
  5
A9
  8
SIZE
  6
CONTINUOUS
 62
    30
 10
429.06746799999991
 20
0.0
 30
0.0
 11
429.06746799999991
 21
-15.0
 31
0.0
  0
CIRCLE
  5
AA
  8
SIZE
  6
CONTINUOUS
 62
    30
 10
429.06746799999991
 20
0.0
 30
0.0
 40
6.0
  0
LINE
  5
AB
  8
SIZE
  6
CONTINUOUS
 62
    30
 10
429.06746799999991
 20
0.0
 30
0.0
 11
429.06746799999991
 21
12.0
 31
0.0
  0
CIRCLE
  5
AC
  8
SIZE
  6
CONTINUOUS
 62
    30
 10
429.06746799999991
 20
-15.0
 30
0.0
 40
6.0
  0
LINE
  5
AD
  8
SIZE
  6
CONTINUOUS
 62
    30
 10
429.06746799999991
 20
-15.0
 30
0.0
 11
429.06746799999991
 21
-27.0
 31
0.0
  0
LINE
  5
B1
  8
NOTE
  6
CONTINUOUS
 62
     4
 10
106.0
 20
0.0
 30
0.0
 11
275.80126799999988
 21
-293.9187
 31
0.0
  0
LINE
  5
B2
  8
NOTE
  6
CONTINUOUS
 62
     4
 10
135.29592600000001
 20
-27.235064000000001
 30
0.0
 11
106.0
 21
0.0
 31
0.0
  0
LINE
  5
B3
  8
NOTE
  6
CONTINUOUS
 62
     4
 10
106.0
 20
0.0
 30
0.0
 11
117.753484
 21
-38.234220000000001
 31
0.0
  0
LINE
  5
B4
  8
DETAIL
  6
CONTINUOUS
 62
     5
 10
-97.5
 20
0.0
 30
0.0
 11
-97.5
 21
181.0
 31
0.0
  0
LINE
  5
B5
  8
DETAIL
  6
CONTINUOUS
 62
     5
 10
97.5
 20
155.0
 30
0.0
 11
-97.5
 21
155.0
 31
0.0
  0
LINE
  5
B6
  8
DETAIL
  6
CONTINUOUS
 62
     5
 10
97.5
 20
145.0
 30
0.0
 11
-97.5
 21
145.0
 31
0.0
  0
LINE
  5
B7
  8
SIZE
  6
CONTINUOUS
 62
    30
 10
-117.5
 20
155.0
 30
0.0
 11
-386.128803
 21
155.0
 31
0.0
  0
LINE
  5
B8
  8
SIZE
  6
CONTINUOUS
 62
    30
 10
-154.49999999999989
 20
186.0
 30
0.0
 11
-386.128803
 21
186.0
 31
0.0
  0
LINE
  5
B9
  8
SIZE
  6
CONTINUOUS
 62
    30
 10
-366.128803
 20
143.0
 30
0.0
 11
-366.128803
 21
131.0
 31
0.0
  0
LINE
  5
BA
  8
SIZE
  6
CONTINUOUS
 62
    30
 10
-366.128803
 20
198.0
 30
0.0
 11
-366.128803
 21
210.0
 31
0.0
  0
LINE
  5
BB
  8
SIZE
  6
CONTINUOUS
 62
    30
 10
-366.128803
 20
342.71039899999988
 30
0.0
 11
-366.128803
 21
186.0
 31
0.0
  0
TEXT
  5
BC
  8
SIZE
  6
CONTINUOUS
 62
    30
 10
-391.128803
 20
249.13896971428571
 30
0.0
 40
64.0
  1
31
 50
90.0
 41
0.9
 72
     1
 11
-391.128803
 21
283.42468400000001
 31
0.0
  0
LINE
  5
BD
  8
SIZE
  6
CONTINUOUS
 62
    30
 10
-366.128803
 20
155.0
 30
0.0
 11
-366.128803
 21
186.0
 31
0.0
  0
LINE
  5
BE
  8
SIZE
  6
CONTINUOUS
 62
    30
 10
-366.128803
 20
155.0
 30
0.0
 11
-366.128803
 21
186.0
 31
0.0
  0
CIRCLE
  5
BF
  8
SIZE
  6
CONTINUOUS
 62
    30
 10
-366.128803
 20
155.0
 30
0.0
 40
6.0
  0
LINE
  5
C0
  8
SIZE
  6
CONTINUOUS
 62
    30
 10
-366.128803
 20
155.0
 30
0.0
 11
-366.128803
 21
143.0
 31
0.0
  0
CIRCLE
  5
C1
  8
SIZE
  6
CONTINUOUS
 62
    30
 10
-366.128803
 20
186.0
 30
0.0
 40
6.0
  0
LINE
  5
C2
  8
SIZE
  6
CONTINUOUS
 62
    30
 10
-366.128803
 20
186.0
 30
0.0
 11
-366.128803
 21
198.0
 31
0.0
  0
LINE
  5
C6
  8
NOTE
  6
CONTINUOUS
 62
     4
 10
114.5
 20
186.0
 30
0.0
 11
181.99512399999989
 21
243.9859439999999
 31
0.0
  0
LINE
  5
C7
  8
NOTE
  6
CONTINUOUS
 62
     4
 10
137.364452
 20
218.82098099999999
 30
0.0
 11
114.5
 21
186.0
 31
0.0
  0
LINE
  5
C8
  8
NOTE
  6
CONTINUOUS
 62
     4
 10
114.5
 20
186.0
 30
0.0
 11
150.71168700000001
 21
202.99157700000001
 31
0.0
  0
LINE
  5
C9
  8
DETAIL
  6
CONTINUOUS
 62
     5
 10
97.5
 20
70.0
 30
0.0
 11
97.5
 21
134.0
 31
0.0
  0
LINE
  5
CA
  8
DETAIL
  6
CONTINUOUS
 62
     5
 10
50.5
 20
169.0
 30
0.0
 11
18.5
 21
169.0
 31
0.0
  0
LINE
  5
CB
  8
DETAIL
  6
CONTINUOUS
 62
     5
 10
97.5
 20
2.0
 30
0.0
 11
97.5
 21
0.0
 31
0.0
  0
LINE
  5
CC
  8
DETAIL
  6
CONTINUOUS
 62
     5
 10
97.5
 20
0.0
 30
0.0
 11
97.5
 21
2.0
 31
0.0
  0
LINE
  5
CD
  8
DETAIL
  6
CONTINUOUS
 62
     5
 10
95.5
 20
-15.0
 30
0.0
 11
-95.5
 21
-15.0
 31
0.0
  0
LINE
  5
CE
  8
DETAIL
  6
CONTINUOUS
 62
     5
 10
-143.0
 20
0.0
 30
0.0
 11
143.0
 21
0.0
 31
0.0
  0
ARC
  5
CF
  8
DETAIL
  6
CONTINUOUS
 62
     5
 10
97.0
 20
285.0
 30
0.0
 40
300.0
 50
270.0
 51
277.81959599999999
  0
LINE
  5
D0
  8
DETAIL
  6
CONTINUOUS
 62
     5
 10
143.0
 20
0.0
 30
0.0
 11
143.0
 21
-6.2662009999999997
 31
0.0
  0
ARC
  5
D1
  8
DETAIL
  6
CONTINUOUS
 62
     5
 10
137.0
 20
-6.2662009999999997
 30
0.0
 40
6.0
 50
277.81959599999999
 51
0.0
  0
LINE
  5
D2
  8
DETAIL
  6
CONTINUOUS
 62
     5
 10
97.0
 20
-14.0
 30
0.0
 11
95.5
 21
-14.0
 31
0.0
  0
LINE
  5
D3
  8
DETAIL
  6
CONTINUOUS
 62
     5
 10
97.0
 20
-15.0
 30
0.0
 11
97.0
 21
0.0
 31
0.0
  0
LINE
  5
D4
  8
DETAIL
  6
CONTINUOUS
 62
     5
 10
95.5
 20
-15.0
 30
0.0
 11
95.5
 21
0.0
 31
0.0
  0
ARC
  5
D5
  8
DETAIL
  6
CONTINUOUS
 62
     5
 10
-97.0
 20
285.0
 30
0.0
 40
300.0
 50
262.18040400000001
 51
270.0
  0
LINE
  5
D6
  8
DETAIL
  6
CONTINUOUS
 62
     5
 10
-95.5
 20
-15.0
 30
0.0
 11
-95.5
 21
0.0
 31
0.0
  0
LINE
  5
D7
  8
DETAIL
  6
CONTINUOUS
 62
     5
 10
-97.0
 20
-15.0
 30
0.0
 11
-97.0
 21
0.0
 31
0.0
  0
LINE
  5
D8
  8
DETAIL
  6
CONTINUOUS
 62
     5
 10
-97.0
 20
-14.0
 30
0.0
 11
-95.5
 21
-14.0
 31
0.0
  0
ARC
  5
D9
  8
DETAIL
  6
CONTINUOUS
 62
     5
 10
-137.0
 20
-6.2662009999999997
 30
0.0
 40
6.0
 50
180.0
 51
262.18040400000001
  0
LINE
  5
DA
  8
DETAIL
  6
CONTINUOUS
 62
     5
 10
-143.0
 20
0.0
 30
0.0
 11
-143.0
 21
-6.2662009999999997
 31
0.0
  0
LINE
  5
DB
  8
DETAIL
  6
CONTINUOUS
 62
     5
 10
33.0
 20
157.0
 30
0.0
 11
-57.0
 21
157.0
 31
0.0
  0
ARC
  5
DC
  8
DETAIL
  6
CONTINUOUS
 62
     5
 10
-57.0
 20
155.0
 30
0.0
 40
2.0
 50
90.0
 51
180.0
  0
CIRCLE
  5
DD
  8
FIX
  6
CONTINUOUS
 62
    11
 39
50.0
 10
-75.0
 20
0.0
 30
0.0
 40
2.5
  0
LINE
  5
DE
  8
NOTE
  6
CONTINUOUS
 62
     4
 10
-75.0
 20
-20.0
 30
0.0
 11
-75.0
 21
20.0
 31
0.0
  0
LINE
  5
DF
  8
NOTE
  6
CONTINUOUS
 62
     4
 10
-95.0
 20
0.0
 30
0.0
 11
-55.0
 21
0.0
 31
0.0
  0
CIRCLE
  5
E0
  8
FIX
  6
CONTINUOUS
 62
    11
 39
50.0
 10
-106.0
 20
0.0
 30
0.0
 40
2.5
  0
LINE
  5
E1
  8
NOTE
  6
CONTINUOUS
 62
     4
 10
-106.0
 20
-20.0
 30
0.0
 11
-106.0
 21
20.0
 31
0.0
  0
LINE
  5
E2
  8
NOTE
  6
CONTINUOUS
 62
     4
 10
-126.0
 20
0.0
 30
0.0
 11
-86.0
 21
0.0
 31
0.0
  0
LINE
  5
E3
  8
SIZE
  6
CONTINUOUS
 62
    30
 10
-114.5
 20
226.0
 30
0.0
 11
-114.5
 21
881.52409799999998
 31
0.0
  0
LINE
  5
E4
  8
SIZE
  6
CONTINUOUS
 62
    30
 10
114.5
 20
226.0
 30
0.0
 11
114.5
 21
881.52409799999998
 31
0.0
  0
LINE
  5
E5
  8
SIZE
  6
CONTINUOUS
 62
    30
 10
-102.4999999999999
 20
861.52409800000009
 30
0.0
 11
102.4999999999999
 21
861.52409800000009
 31
0.0
  0
CIRCLE
  5
E6
  8
SIZE
  6
CONTINUOUS
 62
    30
 10
-114.5
 20
861.52409800000009
 30
0.0
 40
6.0
  0
LINE
  5
E7
  8
SIZE
  6
CONTINUOUS
 62
    30
 10
-114.5
 20
861.52409800000009
 30
0.0
 11
-102.4999999999999
 21
861.52409800000009
 31
0.0
  0
CIRCLE
  5
E8
  8
SIZE
  6
CONTINUOUS
 62
    30
 10
114.5
 20
861.52409800000009
 30
0.0
 40
6.0
  0
LINE
  5
E9
  8
SIZE
  6
CONTINUOUS
 62
    30
 10
114.5
 20
861.52409800000009
 30
0.0
 11
102.4999999999999
 21
861.52409800000009
 31
0.0
  0
TEXT
  5
EA
  8
SIZE
  6
CONTINUOUS
 62
    30
 10
-72.685714285714283
 20
886.52409800000009
 30
0.0
 40
64.0
  1
229
 41
0.9
 72
     1
 11
0.0
 21
886.52409800000009
 31
0.0
  0
LINE
  5
EE
  8
SIZE
  6
CONTINUOUS
 62
    30
 10
-12.0
 20
219.85388699999999
 30
0.0
 11
-12.0
 21
522.61578399999985
 31
0.0
  0
LINE
  5
EF
  8
SIZE
  6
CONTINUOUS
 62
    30
 10
0.0
 20
234.1921569999999
 30
0.0
 11
0.0
 21
522.61578399999985
 31
0.0
  0
LINE
  5
F0
  8
SIZE
  6
CONTINUOUS
 62
    30
 10
-24.0
 20
502.61578399999991
 30
0.0
 11
-36.0
 21
502.61578399999991
 31
0.0
  0
LINE
  5
F1
  8
SIZE
  6
CONTINUOUS
 62
    30
 10
12.0
 20
502.61578399999991
 30
0.0
 11
24.0
 21
502.61578399999991
 31
0.0
  0
LINE
  5
F2
  8
SIZE
  6
CONTINUOUS
 62
    30
 10
-278.31435699999992
 20
502.61578399999991
 30
0.0
 11
-12.0
 21
502.61578399999991
 31
0.0
  0
TEXT
  5
F3
  8
SIZE
  6
CONTINUOUS
 62
    30
 10
-253.31435714285709
 20
527.61578399999985
 30
0.0
 40
64.0
  1
12
 41
0.9
 72
     1
 11
-212.17150000000001
 21
527.61578399999985
 31
0.0
  0
LINE
  5
F4
  8
SIZE
  6
CONTINUOUS
 62
    30
 10
-12.0
 20
502.61578399999991
 30
0.0
 11
0.0
 21
502.61578399999991
 31
0.0
  0
LINE
  5
F5
  8
SIZE
  6
CONTINUOUS
 62
    30
 10
-12.0
 20
502.61578399999991
 30
0.0
 11
0.0
 21
502.61578399999991
 31
0.0
  0
CIRCLE
  5
F6
  8
SIZE
  6
CONTINUOUS
 62
    30
 10
-12.0
 20
502.61578399999991
 30
0.0
 40
6.0
  0
LINE
  5
F7
  8
SIZE
  6
CONTINUOUS
 62
    30
 10
-12.0
 20
502.61578399999991
 30
0.0
 11
-24.0
 21
502.61578399999991
 31
0.0
  0
CIRCLE
  5
F8
  8
SIZE
  6
CONTINUOUS
 62
    30
 10
0.0
 20
502.61578399999991
 30
0.0
 40
6.0
  0
LINE
  5
F9
  8
SIZE
  6
CONTINUOUS
 62
    30
 10
0.0
 20
502.61578399999991
 30
0.0
 11
12.0
 21
502.61578399999991
 31
0.0
  0
LINE
  5
FD
  8
DETAIL
  6
CONTINUOUS
 62
     5
 10
130.49999999999989
 20
70.0
 30
0.0
 11
130.49999999999989
 21
134.0
 31
0.0
  0
ARC
  5
FE
  8
DETAIL
  6
CONTINUOUS
 62
     5
 10
95.5
 20
134.0
 30
0.0
 40
35.0
 50
86.724170999999998
 51
90.0
  0
ARC
  5
FF
  8
DETAIL
  6
CONTINUOUS
 62
     5
 10
95.5
 20
70.0
 30
0.0
 40
35.0
 50
279.87088999999997
 51
282.27380799999997
  0
LINE
  5
100
  8
SIZE
  6
CONTINUOUS
 62
    30
 10
97.5
 20
177.0
 30
0.0
 11
97.5
 21
401.48021499999987
 31
0.0
  0
LINE
  5
101
  8
SIZE
  6
CONTINUOUS
 62
    30
 10
130.49999999999989
 20
154.0
 30
0.0
 11
130.49999999999989
 21
401.48021499999987
 31
0.0
  0
LINE
  5
102
  8
SIZE
  6
CONTINUOUS
 62
    30
 10
85.5
 20
381.48021499999987
 30
0.0
 11
73.5
 21
381.48021499999987
 31
0.0
  0
LINE
  5
103
  8
SIZE
  6
CONTINUOUS
 62
    30
 10
142.5
 20
381.48021499999987
 30
0.0
 11
154.49999999999989
 21
381.48021499999987
 31
0.0
  0
LINE
  5
104
  8
SIZE
  6
CONTINUOUS
 62
    30
 10
322.45285000000001
 20
381.48021499999987
 30
0.0
 11
130.49999999999989
 21
381.48021499999987
 31
0.0
  0
TEXT
  5
105
  8
SIZE
  6
CONTINUOUS
 62
    30
 10
204.1957075714285
 20
406.48021499999999
 30
0.0
 40
64.0
  1
33
 41
0.9
 72
     1
 11
250.82427899999999
 21
406.48021499999999
 31
0.0
  0
LINE
  5
106
  8
SIZE
  6
CONTINUOUS
 62
    30
 10
97.5
 20
381.48021499999987
 30
0.0
 11
130.49999999999989
 21
381.48021499999987
 31
0.0
  0
LINE
  5
107
  8
SIZE
  6
CONTINUOUS
 62
    30
 10
97.5
 20
381.48021499999987
 30
0.0
 11
130.49999999999989
 21
381.48021499999987
 31
0.0
  0
CIRCLE
  5
108
  8
SIZE
  6
CONTINUOUS
 62
    30
 10
97.5
 20
381.48021499999987
 30
0.0
 40
6.0
  0
LINE
  5
109
  8
SIZE
  6
CONTINUOUS
 62
    30
 10
97.5
 20
381.48021499999987
 30
0.0
 11
85.5
 21
381.48021499999987
 31
0.0
  0
CIRCLE
  5
10A
  8
SIZE
  6
CONTINUOUS
 62
    30
 10
130.49999999999989
 20
381.48021499999987
 30
0.0
 40
6.0
  0
LINE
  5
10B
  8
SIZE
  6
CONTINUOUS
 62
    30
 10
130.49999999999989
 20
381.48021499999987
 30
0.0
 11
142.5
 21
381.48021499999987
 31
0.0
  0
LINE
  5
10F
  8
SIZE
  6
CONTINUOUS
 62
    30
 10
-42.5
 20
206.0
 30
0.0
 11
-42.5
 21
644.118742
 31
0.0
  0
LINE
  5
110
  8
SIZE
  6
CONTINUOUS
 62
    30
 10
18.5
 20
206.0
 30
0.0
 11
18.5
 21
644.118742
 31
0.0
  0
LINE
  5
111
  8
SIZE
  6
CONTINUOUS
 62
    30
 10
-54.5
 20
624.118742
 30
0.0
 11
-66.5
 21
624.118742
 31
0.0
  0
LINE
  5
112
  8
SIZE
  6
CONTINUOUS
 62
    30
 10
30.5
 20
624.118742
 30
0.0
 11
42.5
 21
624.118742
 31
0.0
  0
LINE
  5
113
  8
SIZE
  6
CONTINUOUS
 62
    30
 10
-296.08635800000002
 20
624.118742
 30
0.0
 11
-42.5
 21
624.118742
 31
0.0
  0
TEXT
  5
114
  8
SIZE
  6
CONTINUOUS
 62
    30
 10
-285.34921528571431
 20
649.118742
 30
0.0
 40
64.0
  1
âË61
 41
0.9
 72
     1
 11
-210.7435009999999
 21
649.118742
 31
0.0
  0
LINE
  5
115
  8
SIZE
  6
CONTINUOUS
 62
    30
 10
-42.5
 20
624.118742
 30
0.0
 11
18.5
 21
624.118742
 31
0.0
  0
LINE
  5
116
  8
SIZE
  6
CONTINUOUS
 62
    30
 10
-42.5
 20
624.118742
 30
0.0
 11
18.5
 21
624.118742
 31
0.0
  0
CIRCLE
  5
117
  8
SIZE
  6
CONTINUOUS
 62
    30
 10
-42.5
 20
624.118742
 30
0.0
 40
6.0
  0
LINE
  5
118
  8
SIZE
  6
CONTINUOUS
 62
    30
 10
-42.5
 20
624.118742
 30
0.0
 11
-54.5
 21
624.118742
 31
0.0
  0
CIRCLE
  5
119
  8
SIZE
  6
CONTINUOUS
 62
    30
 10
18.5
 20
624.118742
 30
0.0
 40
6.0
  0
LINE
  5
11A
  8
SIZE
  6
CONTINUOUS
 62
    30
 10
18.5
 20
624.118742
 30
0.0
 11
30.5
 21
624.118742
 31
0.0
  0
LINE
  5
11E
  8
SIZE
  6
CONTINUOUS
 62
    30
 10
-97.5
 20
175.0
 30
0.0
 11
-97.5
 21
753.97930199999985
 31
0.0
  0
LINE
  5
11F
  8
SIZE
  6
CONTINUOUS
 62
    30
 10
97.5
 20
177.0
 30
0.0
 11
97.5
 21
753.97930199999985
 31
0.0
  0
LINE
  5
120
  8
SIZE
  6
CONTINUOUS
 62
    30
 10
-109.4999999999999
 20
733.97930199999996
 30
0.0
 11
-121.5
 21
733.97930199999996
 31
0.0
  0
LINE
  5
121
  8
SIZE
  6
CONTINUOUS
 62
    30
 10
109.4999999999999
 20
733.97930199999996
 30
0.0
 11
121.5
 21
733.97930199999996
 31
0.0
  0
LINE
  5
122
  8
SIZE
  6
CONTINUOUS
 62
    30
 10
-97.5
 20
733.97930199999996
 30
0.0
 11
97.5
 21
733.97930199999996
 31
0.0
  0
CIRCLE
  5
123
  8
SIZE
  6
CONTINUOUS
 62
    30
 10
-97.5
 20
733.97930199999996
 30
0.0
 40
6.0
  0
LINE
  5
124
  8
SIZE
  6
CONTINUOUS
 62
    30
 10
-97.5
 20
733.97930199999996
 30
0.0
 11
-109.4999999999999
 21
733.97930199999996
 31
0.0
  0
CIRCLE
  5
125
  8
SIZE
  6
CONTINUOUS
 62
    30
 10
97.5
 20
733.97930199999996
 30
0.0
 40
6.0
  0
LINE
  5
126
  8
SIZE
  6
CONTINUOUS
 62
    30
 10
97.5
 20
733.97930199999996
 30
0.0
 11
109.4999999999999
 21
733.97930199999996
 31
0.0
  0
TEXT
  5
127
  8
SIZE
  6
CONTINUOUS
 62
    30
 10
-105.0514285714285
 20
758.97930199999996
 30
0.0
 40
64.0
  1
üá195
 41
0.9
 72
     1
 11
0.0
 21
758.97930199999996
 31
0.0
  0
LINE
  5
12B
  8
NOTE
  6
CONTINUOUS
 62
     4
 10
-79.0
 20
135.0
 30
0.0
 11
-79.0
 21
175.0
 31
0.0
  0
LINE
  5
12C
  8
NOTE
  6
CONTINUOUS
 62
     4
 10
-99.0
 20
155.0
 30
0.0
 11
-59.0
 21
155.0
 31
0.0
  0
LINE
  5
12D
  8
NOTE
  6
CONTINUOUS
 62
     4
 10
-79.0
 20
155.0
 30
0.0
 11
-168.2137919999999
 21
37.465395999999998
 31
0.0
  0
LINE
  5
12E
  8
NOTE
  6
CONTINUOUS
 62
     4
 10
-168.2137919999999
 20
37.465395999999998
 30
0.0
 11
-276.8771319999999
 21
37.465395999999998
 31
0.0
  0
TEXT
  5
12F
  8
NOTE
  6
CONTINUOUS
 62
     4
 10
-267.42533500000002
 20
63.312722999999998
 30
0.0
 40
64.0
  1
EL
 41
0.9
  0
LINE
  5
130
  8
NOTE
  6
CONTINUOUS
 62
     4
 10
-110.24674399999989
 20
130.02719500000001
 30
0.0
 11
-79.0
 21
155.0
 31
0.0
  0
LINE
  5
131
  8
NOTE
  6
CONTINUOUS
 62
     4
 10
-79.0
 20
155.0
 30
0.0
 11
-93.574070999999989
 21
117.7495439999999
 31
0.0
  0
LINE
  5
132
  8
SIZE
  6
CONTINUOUS
 62
    30
 10
0.0
 20
234.1921569999999
 30
0.0
 11
0.0
 21
402.817454
 31
0.0
  0
LINE
  5
133
  8
SIZE
  6
CONTINUOUS
 62
    30
 10
-79.0
 20
195.0
 30
0.0
 11
-79.0
 21
402.817454
 31
0.0
  0
LINE
  5
134
  8
SIZE
  6
CONTINUOUS
 62
    30
 10
-12.0
 20
382.817454
 30
0.0
 11
-67.0
 21
382.817454
 31
0.0
  0
LINE
  5
135
  8
SIZE
  6
CONTINUOUS
 62
    30
 10
-286.71262799999988
 20
382.817454
 30
0.0
 11
-79.0
 21
382.817454
 31
0.0
  0
TEXT
  5
136
  8
SIZE
  6
CONTINUOUS
 62
    30
 10
-261.71262785714282
 20
407.817454
 30
0.0
 40
64.0
  1
79
 41
0.9
 72
     1
 11
-216.45548500000001
 21
407.817454
 31
0.0
  0
CIRCLE
  5
137
  8
SIZE
  6
CONTINUOUS
 62
    30
 10
0.0
 20
382.817454
 30
0.0
 40
6.0
  0
LINE
  5
138
  8
SIZE
  6
CONTINUOUS
 62
    30
 10
0.0
 20
382.817454
 30
0.0
 11
-12.0
 21
382.817454
 31
0.0
  0
CIRCLE
  5
139
  8
SIZE
  6
CONTINUOUS
 62
    30
 10
-79.0
 20
382.817454
 30
0.0
 40
6.0
  0
LINE
  5
13A
  8
SIZE
  6
CONTINUOUS
 62
    30
 10
-79.0
 20
382.817454
 30
0.0
 11
-67.0
 21
382.817454
 31
0.0
  0
LINE
  5
13E
  8
OUTLINE
  6
CONTINUOUS
 62
     3
 10
97.5
 20
155.0
 30
0.0
 11
-97.5
 21
155.0
 31
0.0
  0
LINE
  5
13F
  8
OUTLINE
  6
CONTINUOUS
 62
     3
 10
-97.5
 20
0.0
 30
0.0
 11
-97.5
 21
155.0
 31
0.0
  0
LINE
  5
140
  8
OUTLINE
  6
CONTINUOUS
 62
     3
 10
97.5
 20
0.0
 30
0.0
 11
97.5
 21
155.0
 31
0.0
  0
LINE
  5
141
  8
OUTLINE
  6
CONTINUOUS
 62
     3
 10
-143.0
 20
0.0
 30
0.0
 11
143.0
 21
0.0
 31
0.0
  0
ARC
  5
142
  8
DETAIL
  6
CONTINUOUS
 62
     5
 10
33.0
 20
155.0
 30
0.0
 40
2.0
 50
0.0
 51
90.0
  0
LINE
  5
143
  8
SIZE
  6
CONTINUOUS
 62
    30
 10
117.5
 20
155.0
 30
0.0
 11
320.91015499999992
 21
155.0
 31
0.0
  0
LINE
  5
144
  8
SIZE
  6
CONTINUOUS
 62
    30
 10
53.0
 20
157.0
 30
0.0
 11
320.91015499999992
 21
157.0
 31
0.0
  0
LINE
  5
145
  8
SIZE
  6
CONTINUOUS
 62
    30
 10
300.91015499999997
 20
143.0
 30
0.0
 11
300.91015499999997
 21
131.0
 31
0.0
  0
LINE
  5
146
  8
SIZE
  6
CONTINUOUS
 62
    30
 10
300.91015499999997
 20
169.0
 30
0.0
 11
300.91015499999997
 21
181.0
 31
0.0
  0
LINE
  5
147
  8
SIZE
  6
CONTINUOUS
 62
    30
 10
300.91015499999997
 20
34.318914999999997
 30
0.0
 11
300.91015499999997
 21
155.0
 31
0.0
  0
TEXT
  5
148
  8
SIZE
  6
CONTINUOUS
 62
    30
 10
275.91015499999997
 20
59.318915000000011
 30
0.0
 40
64.0
  1
2
 50
90.0
 41
0.9
 72
     1
 11
275.91015499999997
 21
78.518915000000007
 31
0.0
  0
LINE
  5
149
  8
SIZE
  6
CONTINUOUS
 62
    30
 10
300.91015499999997
 20
155.0
 30
0.0
 11
300.91015499999997
 21
157.0
 31
0.0
  0
LINE
  5
14A
  8
SIZE
  6
CONTINUOUS
 62
    30
 10
300.91015499999997
 20
155.0
 30
0.0
 11
300.91015499999997
 21
157.0
 31
0.0
  0
CIRCLE
  5
14B
  8
SIZE
  6
CONTINUOUS
 62
    30
 10
300.91015499999997
 20
155.0
 30
0.0
 40
6.0
  0
LINE
  5
14C
  8
SIZE
  6
CONTINUOUS
 62
    30
 10
300.91015499999997
 20
155.0
 30
0.0
 11
300.91015499999997
 21
143.0
 31
0.0
  0
CIRCLE
  5
14D
  8
SIZE
  6
CONTINUOUS
 62
    30
 10
300.91015499999997
 20
157.0
 30
0.0
 40
6.0
  0
LINE
  5
14E
  8
SIZE
  6
CONTINUOUS
 62
    30
 10
300.91015499999997
 20
157.0
 30
0.0
 11
300.91015499999997
 21
169.0
 31
0.0
  0
LINE
  5
152
  8
DETAIL
  6
CONTINUOUS
 62
     5
 10
102.94043000000001
 20
168.1999999999999
 30
0.0
 11
119.7
 21
168.1999999999999
 31
0.0
  0
LINE
  5
153
  8
DETAIL
  6
CONTINUOUS
 62
     5
 10
129.6999999999999
 20
62.559569999999987
 30
0.0
 11
129.6999999999999
 21
158.1999999999999
 31
0.0
  0
ARC
  5
154
  8
DETAIL
  6
CONTINUOUS
 62
     5
 10
119.7
 20
158.1999999999999
 30
0.0
 40
10.0
 50
0.0
 51
90.0
  0
ARC
  5
155
  8
DETAIL
  6
CONTINUOUS
 62
     5
 10
95.5
 20
134.0
 30
0.0
 40
35.0
 50
77.726191999999998
 51
80.129109999999997
  0
ARC
  5
156
  8
DETAIL
  6
CONTINUOUS
 62
     5
 10
119.7
 20
45.799999999999997
 30
0.0
 40
10.0
 50
270.0
 51
0.0
  0
LINE
  5
157
  8
DETAIL
  6
CONTINUOUS
 62
     5
 10
101.5
 20
35.799999999999997
 30
0.0
 11
119.7
 21
35.799999999999997
 31
0.0
  0
LINE
  5
158
  8
DETAIL
  6
CONTINUOUS
 62
     5
 10
129.6999999999999
 20
62.559569999999987
 30
0.0
 11
129.6999999999999
 21
45.799999999999997
 31
0.0
  0
ARC
  5
159
  8
DETAIL
  6
CONTINUOUS
 62
     5
 10
95.5
 20
134.0
 30
0.0
 40
35.0
 50
0.0
 51
12.273808000000001
  0
ARC
  5
15A
  8
DETAIL
  6
CONTINUOUS
 62
     5
 10
95.5
 20
134.0
 30
0.0
 40
35.0
 50
77.726191999999998
 51
80.129109999999997
  0
LINE
  5
15B
  8
DETAIL
  6
CONTINUOUS
 62
     5
 10
102.94043000000001
 20
168.1999999999999
 30
0.0
 11
101.5
 21
168.1999999999999
 31
0.0
  0
LINE
  5
15C
  8
DETAIL
  6
CONTINUOUS
 62
     5
 10
97.5
 20
168.1999999999999
 30
0.0
 11
18.5
 21
168.1999999999999
 31
0.0
  0
ARC
  5
15D
  8
DETAIL
  6
CONTINUOUS
 62
     5
 10
95.5
 20
70.0
 30
0.0
 40
35.0
 50
347.72619199999991
 51
0.0
  0
TEXT
  5
166
  8
ETC
  6
CONTINUOUS
 62
    61
 10
489.50752707776923
 20
866.48085758700904
 30
0.0
 40
64.0
  1
VD-13Z7_3
 41
0.9
  0
TEXT
  5
167
  8
ETC
  6
CONTINUOUS
 62
    61
 10
481.59182007776923
 20
769.1343265870089
 30
0.0
 40
64.0
  1
èÀïCÉ¯
 41
0.9
  0
TEXT
  5
168
  8
ETC
  6
CONTINUOUS
 62
    61
 10
600.61050104087678
 20
692.39895169181693
 30
0.0
 40
50.0
  1
VD-13Z7
 41
0.9
  0
ENDSEC
  0
EOF
