  0
SECTION
  2
HEADER
  9
$ACADVER
  1
AC1009
  9
$DWGCODEPAGE
  3
dos932
  9
$INSBASE
 10
0.0
 20
0.0
 30
0.0
  9
$EXTMIN
 10
-435.96494904016799
 20
-738.92210777723449
 30
-0.0015258207003583
  9
$EXTMAX
 10
854.70887367230353
 20
583.8317951232093
 30
0.0000000349246037
  9
$LIMMIN
 10
-2970.0
 20
-2100.0
  9
$LIMMAX
 10
2970.0
 20
2100.0
  9
$ORTHOMODE
 70
     1
  9
$REGENMODE
 70
     1
  9
$FILLMODE
 70
     1
  9
$QTEXTMODE
 70
     0
  9
$MIRRTEXT
 70
     0
  9
$LTSCALE
 40
20.0
  9
$ATTMODE
 70
     1
  9
$TEXTSIZE
 40
64.0
  9
$TRACEWID
 40
0.05
  9
$TEXTSTYLE
  7
STANDARD
  9
$CLAYER
  8
SIZE
  9
$CELTYPE
  6
CONTINUOUS
  9
$CECOLOR
 62
     7
  9
$DIMSCALE
 40
1.0
  9
$DIMASZ
 40
12.0
  9
$DIMEXO
 40
20.0
  9
$DIMDLI
 40
200.0
  9
$DIMRND
 40
0.0
  9
$DIMDLE
 40
0.0
  9
$DIMEXE
 40
20.0
  9
$DIMTP
 40
0.0
  9
$DIMTM
 40
0.0
  9
$DIMTXT
 40
64.0
  9
$DIMCEN
 40
0.09
  9
$DIMTSZ
 40
0.0
  9
$DIMTOL
 70
     0
  9
$DIMLIM
 70
     0
  9
$DIMTIH
 70
     0
  9
$DIMTOH
 70
     0
  9
$DIMSE1
 70
     0
  9
$DIMSE2
 70
     0
  9
$DIMTAD
 70
     1
  9
$DIMZIN
 70
     8
  9
$DIMBLK
  1

  9
$DIMASO
 70
     1
  9
$DIMSHO
 70
     0
  9
$DIMPOST
  1

  9
$DIMAPOST
  1

  9
$DIMALT
 70
     0
  9
$DIMALTD
 70
     2
  9
$DIMALTF
 40
25.399999999999999
  9
$DIMLFAC
 40
1.0
  9
$DIMTOFL
 70
     1
  9
$DIMTVP
 40
0.0
  9
$DIMTIX
 70
     1
  9
$DIMSOXD
 70
     0
  9
$DIMSAH
 70
     0
  9
$DIMBLK1
  1

  9
$DIMBLK2
  1

  9
$DIMSTYLE
  2
STANDARD
  9
$DIMCLRD
 70
     7
  9
$DIMCLRE
 70
     7
  9
$DIMCLRT
 70
     7
  9
$DIMTFAC
 40
1.0
  9
$DIMGAP
 40
25.0
  9
$LUNITS
 70
     2
  9
$LUPREC
 70
     4
  9
$SKETCHINC
 40
0.1
  9
$FILLETRAD
 40
3.0
  9
$AUNITS
 70
     1
  9
$AUPREC
 70
     3
  9
$MENU
  1
ACAD
  9
$ELEVATION
 40
0.0
  9
$PELEVATION
 40
0.0
  9
$THICKNESS
 40
0.0
  9
$LIMCHECK
 70
     0
  9
$CHAMFERA
 40
0.0
  9
$CHAMFERB
 40
0.0
  9
$SKPOLY
 70
     0
  9
$TDCREATE
 40
2453019.62301037
  9
$TDUPDATE
 40
2459025.492077454
  9
$TDINDWG
 40
1.713951169
  9
$TDUSRTIMER
 40
1.713951169
  9
$USRTIMER
 70
     1
  9
$ANGBASE
 50
0.0
  9
$ANGDIR
 70
     0
  9
$PDMODE
 70
     3
  9
$PDSIZE
 40
-2.0
  9
$PLINEWID
 40
0.0
  9
$SPLFRAME
 70
     0
  9
$SPLINETYPE
 70
     6
  9
$SPLINESEGS
 70
     8
  9
$SURFTAB1
 70
     6
  9
$SURFTAB2
 70
     6
  9
$SURFTYPE
 70
     6
  9
$SURFU
 70
     6
  9
$SURFV
 70
     6
  9
$UCSNAME
  2

  9
$UCSORG
 10
0.0
 20
0.0
 30
0.0
  9
$UCSXDIR
 10
1.0
 20
0.0
 30
0.0
  9
$UCSYDIR
 10
0.0
 20
1.0
 30
0.0
  9
$PUCSNAME
  2

  9
$PUCSORG
 10
0.0
 20
0.0
 30
0.0
  9
$PUCSXDIR
 10
1.0
 20
0.0
 30
0.0
  9
$PUCSYDIR
 10
0.0
 20
1.0
 30
0.0
  9
$USERI1
 70
     0
  9
$USERI2
 70
     0
  9
$USERI3
 70
     0
  9
$USERI4
 70
     0
  9
$USERI5
 70
     0
  9
$USERR1
 40
20.0
  9
$USERR2
 40
0.0
  9
$USERR3
 40
0.0
  9
$USERR4
 40
0.0
  9
$USERR5
 40
0.0
  9
$WORLDVIEW
 70
     1
  9
$SHADEDGE
 70
     3
  9
$SHADEDIF
 70
    70
  9
$TILEMODE
 70
     1
  9
$MAXACTVP
 70
    48
  9
$PINSBASE
 10
0.0
 20
0.0
 30
0.0
  9
$PLIMCHECK
 70
     0
  9
$PEXTMIN
 10
-100000000000000000000.0
 20
-100000000000000000000.0
 30
-100000000000000000000.0
  9
$PEXTMAX
 10
100000000000000000000.0
 20
100000000000000000000.0
 30
100000000000000000000.0
  9
$PLIMMIN
 10
0.0
 20
0.0
  9
$PLIMMAX
 10
12.0
 20
9.0
  9
$UNITMODE
 70
     0
  9
$VISRETAIN
 70
     0
  9
$PLINEGEN
 70
     0
  9
$PSLTSCALE
 70
     0
  9
$TREEDEPTH
 70
  3020
  9
$ATTDIA
 70
     0
  9
$ATTREQ
 70
     1
  9
$BLIPMODE
 70
     1
  9
$COORDS
 70
     1
  9
$DRAGMODE
 70
     2
  9
$OSMODE
 70
     0
  9
$HANDLING
 70
     0
  9
$HANDSEED
  5
10980
  0
ENDSEC
  0
SECTION
  2
TABLES
  0
TABLE
  2
LTYPE
 70
     2
  0
LTYPE
  2
CONTINUOUS
 70
     0
  3
実線
 72
    65
 73
     0
 40
0.0
  0
LTYPE
  2
DASHDOT
 70
     0
  3
____ _ ____ _ ____ _ ____ _ ____ _ ____ _ ____
 72
    65
 73
     4
 40
5.5
 49
4.0
 49
-0.6
 49
0.3
 49
-0.6
  0
ENDTAB
  0
TABLE
  2
LAYER
 70
    12
  0
LAYER
  2
0
 70
     0
 62
     7
  6
CONTINUOUS
  0
LAYER
  2
BASIS
 70
     0
 62
     6
  6
DASHDOT
  0
LAYER
  2
OUTLINE
 70
     0
 62
     3
  6
CONTINUOUS
  0
LAYER
  2
DETAIL
 70
     0
 62
     5
  6
CONTINUOUS
  0
LAYER
  2
SIZE
 70
     0
 62
    30
  6
CONTINUOUS
  0
LAYER
  2
ARRANGE
 70
     0
 62
     1
  6
CONTINUOUS
  0
LAYER
  2
DEFPOINTS
 70
     0
 62
     7
  6
CONTINUOUS
  0
LAYER
  2
ETC
 70
     0
 62
    61
  6
CONTINUOUS
  0
LAYER
  2
NOTE
 70
     0
 62
     4
  6
CONTINUOUS
  0
LAYER
  2
FIX
 70
    64
 62
    11
  6
CONTINUOUS
  0
LAYER
  2
SERVICESPACE
 70
    64
 62
     2
  6
DASHDOT
  0
LAYER
  2
SYMBOLLINE
 70
    64
 62
    15
  6
CONTINUOUS
  0
ENDTAB
  0
TABLE
  2
STYLE
 70
     1
  0
STYLE
  2
STANDARD
 70
     0
 40
64.0
 41
0.9
 50
0.0
 71
     0
 42
64.0
  3
SIMPLEX.shx
  4
BIGFONT.shx
  0
ENDTAB
  0
TABLE
  2
APPID
 70
    19
  0
APPID
  2
ACAD
 70
     0
  0
APPID
  2
AUTOCAD_POSTSCRIPT_FIGURE
 70
     0
  0
APPID
  2
ACAD_EXEMPT_FROM_CAD_STANDARDS
 70
     0
  0
APPID
  2
ACAD_PSEXT
 70
     0
  0
APPID
  2
ACAUTHENVIRON
 70
     0
  0
APPID
  2
GENIUS_GENOENT_13
 70
     0
  0
APPID
  2
GENIUS_GENCFG_13
 70
     0
  0
APPID
  2
GENIUS_GENCFG0_13
 70
     0
  0
APPID
  2
GENIUS_GENCFG1_13
 70
     0
  0
APPID
  2
GENIUS_GENCFG2_13
 70
     0
  0
APPID
  2
GENIUS_GENCFG3_13
 70
     0
  0
APPID
  2
GENIUS_GENCFG4_13
 70
     0
  0
APPID
  2
GENIUS_GEVCFG0_13
 70
     0
  0
APPID
  2
CONTENTBLOCKICON
 70
     0
  0
APPID
  2
CONTENTBLOCKDESCRIPTION
 70
     0
  0
APPID
  2
ACAD_NAV_VCDISPLAY
 70
     0
  0
APPID
  2
ACAD_MLEADERVER
 70
     0
  0
APPID
  2
ACDBDYNAMICBLOCKTRUENAME
 70
     0
  0
APPID
  2
ACDBDYNAMICBLOCKGUID
 70
     0
  0
ENDTAB
  0
TABLE
  2
DIMSTYLE
 70
     1
  0
DIMSTYLE
  2
STANDARD
 70
     0
  3

  4

  5
_ORIGIN
  6

  7

 40
1.0
 41
12.0
 42
20.0
 43
200.0
 44
20.0
 45
0.0
 46
0.0
 47
0.0
 48
0.0
140
64.0
141
0.09
142
0.0
143
25.399999999999999
144
1.0
145
0.0
146
1.0
147
25.0
 71
     0
 72
     0
 73
     0
 74
     0
 75
     0
 76
     0
 77
     1
 78
     8
170
     0
171
     2
172
     1
173
     0
174
     1
175
     0
176
     7
177
     7
178
     7
  0
ENDTAB
  0
TABLE
  2
VIEW
 70
     1
  0
VIEW
  2
ALL
 70
     0
 40
4282.6198079999986
 10
0.0
 20
41.309904000000003
 41
5940.0
 11
0.0
 21
0.0
 31
1.0
 12
0.0
 22
0.0
 32
0.0
 42
50.0
 43
0.0
 44
0.0
 50
0.0
 71
     0
  0
ENDTAB
  0
TABLE
  2
UCS
 70
     0
  0
ENDTAB
  0
TABLE
  2
VPORT
 70
     1
  0
VPORT
  2
*ACTIVE
 70
     0
 10
0.0
 20
0.0
 11
1.0
 21
1.0
 12
209.37196231606779
 22
-77.545156327012592
 13
0.0
 23
0.0
 14
1.0
 24
1.0
 15
0.0
 25
0.0
 16
0.0
 26
0.0
 36
1.0
 17
0.0
 27
0.0
 37
0.0
 40
1331.5235420356951
 41
1.747787610619469
 42
50.0
 43
0.0
 44
0.0
 50
0.0
 51
0.0
 71
     0
 72
  1000
 73
     1
 74
     3
 75
     0
 76
     0
 77
     0
 78
     0
  0
ENDTAB
  0
ENDSEC
  0
SECTION
  2
BLOCKS
  0
BLOCK
  8
0
  2
_ORIGIN
 70
     0
 10
0.0
 20
0.0
 30
0.0
  3
_ORIGIN
  1
_ORIGIN
  0
CIRCLE
  8
0
  6
CONTINUOUS
 62
     7
 10
0.0
 20
0.0
 30
0.0
 40
0.5
  0
LINE
  8
0
  6
CONTINUOUS
 62
     7
 10
0.0
 20
0.0
 30
0.0
 11
-1.0
 21
0.0
 31
0.0
  0
ENDBLK
  8
0
  0
ENDSEC
  0
SECTION
  2
ENTITIES
  0
TEXT
  8
NOTE
  6
CONTINUOUS
 62
     4
 10
-48.150872238798001
 20
-288.49171086862037
 30
0.0
 40
64.0
  1
EA
 41
0.9
  0
CIRCLE
  8
ARRANGE
  6
CONTINUOUS
 62
     1
 10
0.0
 20
0.0
 30
0.0
 40
40.0
  0
POINT
  8
ARRANGE
  6
CONTINUOUS
 62
     1
 10
0.0
 20
0.0
 30
0.0
 50
90.0
  0
LINE
  8
BASIS
  6
DASHDOT
 62
     6
 10
-183.96955299999991
 20
0.0
 30
0.0
 11
163.0453379999999
 21
0.0
 31
0.0
  0
LINE
  8
BASIS
  6
DASHDOT
 62
     6
 10
0.0
 20
173.2337719999999
 30
0.0
 11
0.0
 21
-241.78921869532999
 31
0.0
  0
LINE
  8
SIZE
  6
CONTINUOUS
 62
    30
 10
-48.879372999999987
 20
-231.261798
 30
0.0
 11
-48.879372999999987
 21
-490.64574511375542
 31
0.0
  0
LINE
  8
SIZE
  6
CONTINUOUS
 62
    30
 10
48.879277961532011
 20
-231.2617982677493
 30
0.0
 11
48.879277961532011
 21
-490.64574511375542
 31
0.0
  0
LINE
  8
SIZE
  6
CONTINUOUS
 62
    30
 10
36.879277961532011
 20
-470.64574511375542
 30
0.0
 11
-36.879372999999987
 21
-470.64574511375542
 31
0.0
  0
LINE
  8
SIZE
  6
CONTINUOUS
 62
    30
 10
-48.879372999999987
 20
-470.64574511375542
 30
0.0
 11
-337.01879208800011
 21
-470.64574511375542
 31
0.0
  0
CIRCLE
  8
SIZE
  6
CONTINUOUS
 62
    30
 10
48.879277961532011
 20
-470.64574511375542
 30
0.0
 40
6.0
  0
LINE
  8
SIZE
  6
CONTINUOUS
 62
    30
 10
48.879277961532011
 20
-470.64574511375542
 30
0.0
 11
36.879277961532011
 21
-470.64574511375542
 31
0.0
  0
CIRCLE
  8
SIZE
  6
CONTINUOUS
 62
    30
 10
-48.879372999999987
 20
-470.64574511375542
 30
0.0
 40
6.0
  0
LINE
  8
SIZE
  6
CONTINUOUS
 62
    30
 10
-48.879372999999987
 20
-470.64574511375542
 30
0.0
 11
-36.879372999999987
 21
-470.64574511375542
 31
0.0
  0
TEXT
  8
SIZE
  6
CONTINUOUS
 62
    30
 10
-322.16736351657153
 20
-434.97907844708891
 30
0.0
 40
64.0
  1
φ98
 41
0.9
 72
     1
 11
-235.2187920880001
 21
-434.97907844708891
 31
0.0
  0
POINT
  8
DEFPOINTS
  6
CONTINUOUS
 62
    30
 10
-48.879372999999987
 20
-211.261798
 30
0.0
  0
POINT
  8
DEFPOINTS
  6
CONTINUOUS
 62
    30
 10
48.879277961532011
 20
-211.2617982677493
 30
0.0
  0
POINT
  8
DEFPOINTS
  6
CONTINUOUS
 62
    30
 10
48.879277961532011
 20
-470.64574511375542
 30
0.0
  0
LINE
  8
SIZE
  6
CONTINUOUS
 62
    30
 10
-52.554453390312801
 20
-187.2855418128745
 30
0.0
 11
-52.554453390312801
 21
-614.13258656425182
 31
0.0
  0
LINE
  8
SIZE
  6
CONTINUOUS
 62
    30
 10
52.554356999999982
 20
-187.28554200000011
 30
0.0
 11
52.554356999999982
 21
-614.13258656425182
 31
0.0
  0
LINE
  8
SIZE
  6
CONTINUOUS
 62
    30
 10
40.554356999999982
 20
-594.13258656425182
 30
0.0
 11
-40.554453390312801
 21
-594.13258656425182
 31
0.0
  0
LINE
  8
SIZE
  6
CONTINUOUS
 62
    30
 10
-52.554453390312801
 20
-594.13258656425182
 30
0.0
 11
-392.04053247799249
 21
-594.13258656425182
 31
0.0
  0
CIRCLE
  8
SIZE
  6
CONTINUOUS
 62
    30
 10
52.554356999999982
 20
-594.13258656425182
 30
0.0
 40
6.0
  0
LINE
  8
SIZE
  6
CONTINUOUS
 62
    30
 10
52.554356999999982
 20
-594.13258656425182
 30
0.0
 11
40.554356999999982
 21
-594.13258656425182
 31
0.0
  0
CIRCLE
  8
SIZE
  6
CONTINUOUS
 62
    30
 10
-52.554453390312801
 20
-594.13258656425182
 30
0.0
 40
6.0
  0
LINE
  8
SIZE
  6
CONTINUOUS
 62
    30
 10
-52.554453390312801
 20
-594.13258656425182
 30
0.0
 11
-40.554453390312801
 21
-594.13258656425182
 31
0.0
  0
TEXT
  8
SIZE
  6
CONTINUOUS
 62
    30
 10
-377.18910390656401
 20
-558.4659198975852
 30
0.0
 40
64.0
  1
φ105
 41
0.9
 72
     1
 11
-268.29767533513541
 21
-558.4659198975852
 31
0.0
  0
POINT
  8
DEFPOINTS
  6
CONTINUOUS
 62
    30
 10
-52.554453390312801
 20
-167.2855418128745
 30
0.0
  0
POINT
  8
DEFPOINTS
  6
CONTINUOUS
 62
    30
 10
52.554356999999982
 20
-167.28554200000011
 30
0.0
  0
POINT
  8
DEFPOINTS
  6
CONTINUOUS
 62
    30
 10
52.554356999999982
 20
-594.13258656425182
 30
0.0
  0
LINE
  8
SIZE
  6
CONTINUOUS
 62
    30
 10
-143.0
 20
-163.0
 30
0.0
 11
-143.0
 21
-738.69919794629641
 31
0.0
  0
LINE
  8
SIZE
  6
CONTINUOUS
 62
    30
 10
143.0
 20
-163.0
 30
0.0
 11
143.0
 21
-738.69919794629641
 31
0.0
  0
LINE
  8
SIZE
  6
CONTINUOUS
 62
    30
 10
-131.0
 20
-718.69919794629607
 30
0.0
 11
131.0
 21
-718.69919794629607
 31
0.0
  0
CIRCLE
  8
SIZE
  6
CONTINUOUS
 62
    30
 10
-143.0
 20
-718.69919794629607
 30
0.0
 40
6.0
  0
LINE
  8
SIZE
  6
CONTINUOUS
 62
    30
 10
-143.0
 20
-718.69919794629607
 30
0.0
 11
-131.0
 21
-718.69919794629607
 31
0.0
  0
CIRCLE
  8
SIZE
  6
CONTINUOUS
 62
    30
 10
143.0
 20
-718.69919794629607
 30
0.0
 40
6.0
  0
LINE
  8
SIZE
  6
CONTINUOUS
 62
    30
 10
143.0
 20
-718.69919794629607
 30
0.0
 11
131.0
 21
-718.69919794629607
 31
0.0
  0
TEXT
  8
SIZE
  6
CONTINUOUS
 62
    30
 10
-109.1657142857143
 20
-693.69919794629607
 30
0.0
 40
64.0
  1
□286
 41
0.9
 72
     1
 11
0.0
 21
-693.69919794629607
 31
0.0
  0
POINT
  8
DEFPOINTS
  6
CONTINUOUS
 62
    30
 10
-143.0
 20
-143.0
 30
0.0
  0
POINT
  8
DEFPOINTS
  6
CONTINUOUS
 62
    30
 10
143.0
 20
-143.0
 30
0.0
  0
POINT
  8
DEFPOINTS
  6
CONTINUOUS
 62
    30
 10
143.0
 20
-718.69919794629607
 30
0.0
  0
LINE
  8
SIZE
  6
CONTINUOUS
 62
    30
 10
-68.379392000000053
 20
-211.7574350000001
 30
0.0
 11
-257.53719212694648
 21
-211.75743499999999
 31
0.0
  0
LINE
  8
SIZE
  6
CONTINUOUS
 62
    30
 10
-69.402908999999909
 20
-171.4066379999999
 30
0.0
 11
-257.53719212694648
 21
-171.4066379999999
 31
0.0
  0
LINE
  8
SIZE
  6
CONTINUOUS
 62
    30
 10
-237.53719212694659
 20
-223.75743499999999
 30
0.0
 11
-237.53719212694659
 21
-235.75743499999999
 31
0.0
  0
LINE
  8
SIZE
  6
CONTINUOUS
 62
    30
 10
-237.53719212694659
 20
-159.4066379999999
 30
0.0
 11
-237.53719212694659
 21
-4.1494951428571767
 31
0.0
  0
LINE
  8
SIZE
  6
CONTINUOUS
 62
    30
 10
-237.53719212694659
 20
-211.75743499999999
 30
0.0
 11
-237.53719212694659
 21
-171.4066379999999
 31
0.0
  0
CIRCLE
  8
SIZE
  6
CONTINUOUS
 62
    30
 10
-237.53719212694659
 20
-211.75743499999999
 30
0.0
 40
6.0
  0
LINE
  8
SIZE
  6
CONTINUOUS
 62
    30
 10
-237.53719212694659
 20
-211.75743499999999
 30
0.0
 11
-237.53719212694659
 21
-223.75743499999999
 31
0.0
  0
CIRCLE
  8
SIZE
  6
CONTINUOUS
 62
    30
 10
-237.53719212694659
 20
-171.4066379999999
 30
0.0
 40
6.0
  0
LINE
  8
SIZE
  6
CONTINUOUS
 62
    30
 10
-237.53719212694659
 20
-171.4066379999999
 30
0.0
 11
-237.53719212694659
 21
-159.4066379999999
 31
0.0
  0
TEXT
  8
SIZE
  6
CONTINUOUS
 62
    30
 10
-262.53719212694648
 20
-122.406638
 30
0.0
 40
64.0
  1
40
 50
90.0
 41
0.9
 72
     1
 11
-262.53719212694648
 21
-75.778066571428553
 31
0.0
  0
POINT
  8
DEFPOINTS
  6
CONTINUOUS
 62
    30
 10
-48.379392000000053
 20
-211.7574350000001
 30
0.0
  0
POINT
  8
DEFPOINTS
  6
CONTINUOUS
 62
    30
 10
-49.402908999999909
 20
-171.4066379999999
 30
0.0
  0
POINT
  8
DEFPOINTS
  6
CONTINUOUS
 62
    30
 10
-237.53719212694659
 20
-171.4066379999999
 30
0.0
  0
TEXT
  8
ETC
  6
CONTINUOUS
 62
    61
 10
199.06215241318611
 20
519.75412569860146
 30
0.0
 40
64.0
  1
VD-13ZAC13_6
 41
0.9
  0
TEXT
  8
ETC
  6
CONTINUOUS
 62
    61
 10
194.87615841318569
 20
401.79881568377027
 30
0.0
 40
64.0
  1
換気扇
 41
0.9
  0
TEXT
  8
ETC
  6
CONTINUOUS
 62
    61
 10
245.57755666174171
 20
293.65004279754498
 30
0.0
 40
40.0
  1
VD-13ZAC13
 41
0.9
  0
LINE
  8
OUTLINE
  6
CONTINUOUS
 62
     3
 10
52.97826299999997
 20
-143.0
 30
0.0
 11
143.0
 21
-143.0
 31
0.0
  0
LINE
  8
OUTLINE
  6
CONTINUOUS
 62
     3
 10
-143.0
 20
-143.0
 30
0.0
 11
-52.978358999999948
 21
-143.0
 31
0.0
  0
LINE
  8
OUTLINE
  6
CONTINUOUS
 62
     3
 10
-143.0
 20
143.0
 30
0.0
 11
143.0
 21
143.0
 31
0.0
  0
LINE
  8
OUTLINE
  6
CONTINUOUS
 62
     3
 10
-143.0
 20
143.0
 30
0.0
 11
-143.0
 21
-143.0
 31
0.0
  0
LINE
  8
OUTLINE
  6
CONTINUOUS
 62
     3
 10
143.0
 20
143.0
 30
0.0
 11
143.0
 21
-143.0
 31
0.0
  0
LINE
  8
DETAIL
  6
CONTINUOUS
 62
     5
 10
49.219948000000159
 20
-172.224829
 30
0.0
 11
48.879277999999893
 21
-211.261798
 31
0.0
  0
LINE
  8
DETAIL
  6
CONTINUOUS
 62
     5
 10
49.805657999999987
 20
-170.828068
 30
0.0
 11
51.968875999999909
 21
-168.664851
 31
0.0
  0
ARC
  8
DETAIL
  6
CONTINUOUS
 62
     5
 10
51.219871999999903
 20
-172.2422819999999
 30
0.0
 40
2.0
 50
135.0000050000003
 51
179.4999999999954
  0
ARC
  8
DETAIL
  6
CONTINUOUS
 62
     5
 10
50.554662000000008
 20
-167.2506370000001
 30
0.0
 40
2.0
 50
315.00000500000027
 51
358.99999999999818
  0
ARC
  8
DETAIL
  6
CONTINUOUS
 62
     5
 10
48.379296999999951
 20
-211.2574350000001
 30
0.0
 40
0.5
 50
270.0
 51
359.4999999999954
  0
LINE
  8
DETAIL
  6
CONTINUOUS
 62
     5
 10
52.97826299999997
 20
-143.0
 30
0.0
 11
52.554356999999982
 21
-167.28554200000011
 31
0.0
  0
LINE
  8
DETAIL
  6
CONTINUOUS
 62
     5
 10
-52.36849200000006
 20
-168.09347099999999
 30
0.0
 11
52.368395999999848
 21
-168.09347099999999
 31
0.0
  0
LINE
  8
DETAIL
  6
CONTINUOUS
 62
     5
 10
49.402813999999807
 20
-171.4066379999999
 30
0.0
 11
-49.402908999999909
 21
-171.4066379999999
 31
0.0
  0
LINE
  8
DETAIL
  6
CONTINUOUS
 62
     5
 10
-48.379392000000053
 20
-211.7574350000001
 30
0.0
 11
48.379296999999951
 21
-211.7574350000001
 31
0.0
  0
ARC
  8
DETAIL
  6
CONTINUOUS
 62
     5
 10
-48.379392000000053
 20
-211.2574350000001
 30
0.0
 40
0.5
 50
180.50000000000449
 51
270.0
  0
LINE
  8
DETAIL
  6
CONTINUOUS
 62
     5
 10
-49.220043999999923
 20
-172.224829
 30
0.0
 11
-48.879372999999987
 21
-211.261798
 31
0.0
  0
LINE
  8
DETAIL
  6
CONTINUOUS
 62
     5
 10
-52.978358999999948
 20
-143.0
 30
0.0
 11
-52.554453000000187
 21
-167.28554200000011
 31
0.0
  0
LINE
  8
DETAIL
  6
CONTINUOUS
 62
     5
 10
-49.805753999999979
 20
-170.828068
 30
0.0
 11
-51.96897100000001
 21
-168.664851
 31
0.0
  0
ARC
  8
DETAIL
  6
CONTINUOUS
 62
     5
 10
-51.219967999999881
 20
-172.2422819999999
 30
0.0
 40
2.0
 50
0.5000000000045772
 51
44.999994999999728
  0
ARC
  8
DETAIL
  6
CONTINUOUS
 62
     5
 10
-50.554757999999993
 20
-167.2506370000001
 30
0.0
 40
2.0
 50
180.99999999999531
 51
224.9999949999997
  0
LINE
  8
DETAIL
  6
CONTINUOUS
 62
     5
 10
143.0
 20
143.0
 30
0.0
 11
143.0
 21
0.0
 31
0.0
  0
LINE
  8
DETAIL
  6
CONTINUOUS
 62
     5
 10
143.0
 20
-143.0
 30
0.0
 11
143.0
 21
0.0
 31
0.0
  0
LINE
  8
DETAIL
  6
CONTINUOUS
 62
     5
 10
-143.0
 20
-143.0
 30
0.0
 11
-143.0
 21
0.0
 31
0.0
  0
LINE
  8
DETAIL
  6
CONTINUOUS
 62
     5
 10
-143.0
 20
143.0
 30
0.0
 11
-143.0
 21
0.0
 31
0.0
  0
LINE
  8
DETAIL
  6
CONTINUOUS
 62
     5
 10
143.0
 20
143.0
 30
0.0
 11
0.0
 21
143.0
 31
0.0
  0
LINE
  8
DETAIL
  6
CONTINUOUS
 62
     5
 10
143.0
 20
-143.0
 30
0.0
 11
0.0
 21
-143.0
 31
0.0
  0
LINE
  8
DETAIL
  6
CONTINUOUS
 62
     5
 10
-143.0
 20
-143.0
 30
0.0
 11
0.0
 21
-143.0
 31
0.0
  0
LINE
  8
DETAIL
  6
CONTINUOUS
 62
     5
 10
-143.0
 20
143.0
 30
0.0
 11
0.0
 21
143.0
 31
0.0
  0
LINE
  8
OUTLINE
  6
CONTINUOUS
 62
     3
 10
49.219948000000159
 20
-172.224829
 30
0.0
 11
48.879277999999893
 21
-211.261798
 31
0.0
  0
LINE
  8
OUTLINE
  6
CONTINUOUS
 62
     3
 10
49.805657999999987
 20
-170.828068
 30
0.0
 11
51.968875999999909
 21
-168.664851
 31
0.0
  0
ARC
  8
OUTLINE
  6
CONTINUOUS
 62
     3
 10
51.219871999999903
 20
-172.2422819999999
 30
0.0
 40
2.0
 50
135.0000050000003
 51
179.4999999999954
  0
ARC
  8
OUTLINE
  6
CONTINUOUS
 62
     3
 10
50.554662000000008
 20
-167.2506370000001
 30
0.0
 40
2.0
 50
315.00000500000027
 51
358.99999999999818
  0
ARC
  8
OUTLINE
  6
CONTINUOUS
 62
     3
 10
48.379296999999951
 20
-211.25743499999999
 30
0.0
 40
0.5
 50
270.0
 51
359.4999999999954
  0
LINE
  8
OUTLINE
  6
CONTINUOUS
 62
     3
 10
52.97826299999997
 20
-143.0
 30
0.0
 11
52.554356999999982
 21
-167.28554200000011
 31
0.0
  0
LINE
  8
OUTLINE
  6
CONTINUOUS
 62
     3
 10
-48.379392000000053
 20
-211.75743499999999
 30
0.0
 11
48.379296999999951
 21
-211.75743499999999
 31
0.0
  0
ARC
  8
OUTLINE
  6
CONTINUOUS
 62
     3
 10
-48.379392000000053
 20
-211.25743499999999
 30
0.0
 40
0.5
 50
180.50000000000449
 51
270.0
  0
LINE
  8
OUTLINE
  6
CONTINUOUS
 62
     3
 10
-49.220043999999923
 20
-172.224829
 30
0.0
 11
-48.879372999999987
 21
-211.261798
 31
0.0
  0
LINE
  8
OUTLINE
  6
CONTINUOUS
 62
     3
 10
-52.978358999999948
 20
-143.0
 30
0.0
 11
-52.554453000000187
 21
-167.28554200000011
 31
0.0
  0
LINE
  8
OUTLINE
  6
CONTINUOUS
 62
     3
 10
-49.805753999999979
 20
-170.828068
 30
0.0
 11
-51.96897100000001
 21
-168.664851
 31
0.0
  0
ARC
  8
OUTLINE
  6
CONTINUOUS
 62
     3
 10
-51.219967999999881
 20
-172.2422819999999
 30
0.0
 40
2.0
 50
0.5000000000045772
 51
44.999994999999728
  0
ARC
  8
OUTLINE
  6
CONTINUOUS
 62
     3
 10
-50.554757999999993
 20
-167.2506370000001
 30
0.0
 40
2.0
 50
180.99999999999531
 51
224.9999949999997
  0
LINE
  8
SIZE
  6
CONTINUOUS
 62
    30
 10
-68.379392000000053
 20
-211.75743499999999
 30
0.0
 11
-366.56549731228063
 21
-211.75743499999999
 31
0.0
  0
LINE
  8
SIZE
  6
CONTINUOUS
 62
    30
 10
-72.978358999999955
 20
-143.0
 30
0.0
 11
-366.56549731228063
 21
-142.99999999999989
 31
0.0
  0
LINE
  8
SIZE
  6
CONTINUOUS
 62
    30
 10
-346.56549731228063
 20
-223.75743499999999
 30
0.0
 11
-346.56549731228063
 21
-235.7574349999999
 31
0.0
  0
LINE
  8
SIZE
  6
CONTINUOUS
 62
    30
 10
-346.56549731228063
 20
-130.99999999999989
 30
0.0
 11
-346.56549731228051
 21
24.257142857142981
 31
0.0
  0
LINE
  8
SIZE
  6
CONTINUOUS
 62
    30
 10
-346.56549731228063
 20
-211.75743499999999
 30
0.0
 11
-346.56549731228063
 21
-142.99999999999989
 31
0.0
  0
CIRCLE
  8
SIZE
  6
CONTINUOUS
 62
    30
 10
-346.56549731228063
 20
-211.75743499999999
 30
0.0
 40
6.0
  0
LINE
  8
SIZE
  6
CONTINUOUS
 62
    30
 10
-346.56549731228063
 20
-211.75743499999999
 30
0.0
 11
-346.56549731228063
 21
-223.75743499999999
 31
0.0
  0
CIRCLE
  8
SIZE
  6
CONTINUOUS
 62
    30
 10
-346.56549731228063
 20
-142.99999999999989
 30
0.0
 40
6.0
  0
LINE
  8
SIZE
  6
CONTINUOUS
 62
    30
 10
-346.56549731228063
 20
-142.99999999999989
 30
0.0
 11
-346.56549731228063
 21
-130.99999999999989
 31
0.0
  0
TEXT
  8
SIZE
  6
CONTINUOUS
 62
    30
 10
-371.56549731228051
 20
-93.999999999999943
 30
0.0
 40
64.0
  1
70
 50
90.0
 41
0.9
 72
     1
 11
-371.56549731228051
 21
-47.37142857142851
 31
0.0
  0
POINT
  8
DEFPOINTS
  6
CONTINUOUS
 62
    30
 10
-48.379392000000053
 20
-211.75743499999999
 30
0.0
  0
POINT
  8
DEFPOINTS
  6
CONTINUOUS
 62
    30
 10
-52.978358999999948
 20
-143.0
 30
0.0
  0
POINT
  8
DEFPOINTS
  6
CONTINUOUS
 62
    30
 10
-346.56549731228063
 20
-142.99999999999989
 30
0.0
  0
LINE
  8
DETAIL
  6
CONTINUOUS
 62
     5
 10
-136.20564899999999
 20
0.0
 30
0.0
 11
-136.20564899999999
 21
136.20564899999999
 31
0.0
  0
LINE
  8
DETAIL
  6
CONTINUOUS
 62
     5
 10
0.0
 20
136.20564899999999
 30
0.0
 11
-136.20564899999999
 21
136.20564899999999
 31
0.0
  0
LINE
  8
DETAIL
  6
CONTINUOUS
 62
     5
 10
-3.5999999999999091
 20
39.600000000000023
 30
0.0
 11
0.0
 21
39.600000000000023
 31
0.0
  0
LINE
  8
DETAIL
  6
CONTINUOUS
 62
     5
 10
-3.5999999999999091
 20
32.400000000000091
 30
0.0
 11
0.0
 21
32.400000000000091
 31
0.0
  0
LINE
  8
DETAIL
  6
CONTINUOUS
 62
     5
 10
-3.5999999999999091
 20
48.600000000000023
 30
0.0
 11
0.0
 21
48.600000000000023
 31
0.0
  0
LINE
  8
DETAIL
  6
CONTINUOUS
 62
     5
 10
-3.5999999999999091
 20
41.399999999999977
 30
0.0
 11
0.0
 21
41.399999999999977
 31
0.0
  0
LINE
  8
DETAIL
  6
CONTINUOUS
 62
     5
 10
-3.5999999999999091
 20
57.600000000000023
 30
0.0
 11
0.0
 21
57.600000000000023
 31
0.0
  0
LINE
  8
DETAIL
  6
CONTINUOUS
 62
     5
 10
-3.5999999999999091
 20
50.399999999999977
 30
0.0
 11
0.0
 21
50.399999999999977
 31
0.0
  0
LINE
  8
DETAIL
  6
CONTINUOUS
 62
     5
 10
-3.5999999999999091
 20
66.600000000000023
 30
0.0
 11
0.0
 21
66.600000000000023
 31
0.0
  0
LINE
  8
DETAIL
  6
CONTINUOUS
 62
     5
 10
-3.5999999999999091
 20
59.399999999999977
 30
0.0
 11
0.0
 21
59.399999999999977
 31
0.0
  0
LINE
  8
DETAIL
  6
CONTINUOUS
 62
     5
 10
-3.5999999999999091
 20
75.600000000000023
 30
0.0
 11
0.0
 21
75.600000000000023
 31
0.0
  0
LINE
  8
DETAIL
  6
CONTINUOUS
 62
     5
 10
-3.5999999999999091
 20
68.400000000000091
 30
0.0
 11
0.0
 21
68.400000000000091
 31
0.0
  0
LINE
  8
DETAIL
  6
CONTINUOUS
 62
     5
 10
-3.5999999999999091
 20
84.600000000000023
 30
0.0
 11
0.0
 21
84.600000000000023
 31
0.0
  0
LINE
  8
DETAIL
  6
CONTINUOUS
 62
     5
 10
-3.5999999999999091
 20
77.400000000000091
 30
0.0
 11
0.0
 21
77.400000000000091
 31
0.0
  0
LINE
  8
DETAIL
  6
CONTINUOUS
 62
     5
 10
-3.5999999999999091
 20
93.600000000000023
 30
0.0
 11
0.0
 21
93.600000000000023
 31
0.0
  0
LINE
  8
DETAIL
  6
CONTINUOUS
 62
     5
 10
-3.5999999999999091
 20
86.400000000000091
 30
0.0
 11
0.0
 21
86.400000000000091
 31
0.0
  0
LINE
  8
DETAIL
  6
CONTINUOUS
 62
     5
 10
-86.399999999999864
 20
3.6000000000000232
 30
0.0
 11
-86.399999999999864
 21
0.0
 31
0.0
  0
LINE
  8
DETAIL
  6
CONTINUOUS
 62
     5
 10
-93.599999999999909
 20
3.6000000000000232
 30
0.0
 11
-93.599999999999909
 21
0.0
 31
0.0
  0
LINE
  8
DETAIL
  6
CONTINUOUS
 62
     5
 10
-32.399999999999856
 20
3.6000000000000232
 30
0.0
 11
-32.399999999999856
 21
0.0
 31
0.0
  0
LINE
  8
DETAIL
  6
CONTINUOUS
 62
     5
 10
-39.599999999999909
 20
3.6000000000000232
 30
0.0
 11
-39.599999999999909
 21
0.0
 31
0.0
  0
LINE
  8
DETAIL
  6
CONTINUOUS
 62
     5
 10
-41.399999999999856
 20
3.6000000000000232
 30
0.0
 11
-41.399999999999856
 21
0.0
 31
0.0
  0
LINE
  8
DETAIL
  6
CONTINUOUS
 62
     5
 10
-48.599999999999909
 20
3.6000000000000232
 30
0.0
 11
-48.599999999999909
 21
0.0
 31
0.0
  0
LINE
  8
DETAIL
  6
CONTINUOUS
 62
     5
 10
-50.399999999999856
 20
3.6000000000000232
 30
0.0
 11
-50.399999999999856
 21
0.0
 31
0.0
  0
LINE
  8
DETAIL
  6
CONTINUOUS
 62
     5
 10
-57.599999999999909
 20
3.6000000000000232
 30
0.0
 11
-57.599999999999909
 21
0.0
 31
0.0
  0
LINE
  8
DETAIL
  6
CONTINUOUS
 62
     5
 10
-59.399999999999856
 20
3.6000000000000232
 30
0.0
 11
-59.399999999999856
 21
0.0
 31
0.0
  0
LINE
  8
DETAIL
  6
CONTINUOUS
 62
     5
 10
-66.599999999999909
 20
3.6000000000000232
 30
0.0
 11
-66.599999999999909
 21
0.0
 31
0.0
  0
LINE
  8
DETAIL
  6
CONTINUOUS
 62
     5
 10
-68.399999999999864
 20
3.6000000000000232
 30
0.0
 11
-68.399999999999864
 21
0.0
 31
0.0
  0
LINE
  8
DETAIL
  6
CONTINUOUS
 62
     5
 10
-75.599999999999909
 20
3.6000000000000232
 30
0.0
 11
-75.599999999999909
 21
0.0
 31
0.0
  0
LINE
  8
DETAIL
  6
CONTINUOUS
 62
     5
 10
-77.399999999999864
 20
3.6000000000000232
 30
0.0
 11
-77.399999999999864
 21
0.0
 31
0.0
  0
LINE
  8
DETAIL
  6
CONTINUOUS
 62
     5
 10
-84.599999999999909
 20
3.6000000000000232
 30
0.0
 11
-84.599999999999909
 21
0.0
 31
0.0
  0
LINE
  8
DETAIL
  6
CONTINUOUS
 62
     5
 10
-99.5
 20
95.5
 30
0.0
 11
-99.5
 21
0.0
 31
0.0
  0
LINE
  8
DETAIL
  6
CONTINUOUS
 62
     5
 10
-101.0
 20
97.0
 30
0.0
 11
-101.0
 21
0.0
 31
0.0
  0
LINE
  8
DETAIL
  6
CONTINUOUS
 62
     5
 10
0.0
 20
101.0
 30
0.0
 11
-97.0
 21
101.0
 31
0.0
  0
LINE
  8
DETAIL
  6
CONTINUOUS
 62
     5
 10
0.0
 20
99.5
 30
0.0
 11
-95.5
 21
99.5
 31
0.0
  0
LINE
  8
DETAIL
  6
CONTINUOUS
 62
     5
 10
-32.399999999999856
 20
57.600000000000023
 30
0.0
 11
-39.599999999999909
 21
57.600000000000023
 31
0.0
  0
LINE
  8
DETAIL
  6
CONTINUOUS
 62
     5
 10
-32.399999999999856
 20
50.399999999999977
 30
0.0
 11
-32.399999999999856
 21
57.600000000000023
 31
0.0
  0
LINE
  8
DETAIL
  6
CONTINUOUS
 62
     5
 10
-32.399999999999856
 20
50.399999999999977
 30
0.0
 11
-39.599999999999909
 21
50.399999999999977
 31
0.0
  0
LINE
  8
DETAIL
  6
CONTINUOUS
 62
     5
 10
-23.39999999999986
 20
57.600000000000023
 30
0.0
 11
-30.599999999999909
 21
57.600000000000023
 31
0.0
  0
LINE
  8
DETAIL
  6
CONTINUOUS
 62
     5
 10
-32.399999999999856
 20
66.600000000000023
 30
0.0
 11
-39.599999999999909
 21
66.600000000000023
 31
0.0
  0
LINE
  8
DETAIL
  6
CONTINUOUS
 62
     5
 10
-32.399999999999856
 20
59.399999999999977
 30
0.0
 11
-32.399999999999856
 21
66.600000000000023
 31
0.0
  0
LINE
  8
DETAIL
  6
CONTINUOUS
 62
     5
 10
-32.399999999999856
 20
59.399999999999977
 30
0.0
 11
-39.599999999999909
 21
59.399999999999977
 31
0.0
  0
LINE
  8
DETAIL
  6
CONTINUOUS
 62
     5
 10
-23.39999999999986
 20
66.600000000000023
 30
0.0
 11
-30.599999999999909
 21
66.600000000000023
 31
0.0
  0
LINE
  8
DETAIL
  6
CONTINUOUS
 62
     5
 10
-30.599999999999909
 20
59.399999999999977
 30
0.0
 11
-30.599999999999909
 21
66.600000000000023
 31
0.0
  0
LINE
  8
DETAIL
  6
CONTINUOUS
 62
     5
 10
-23.39999999999986
 20
59.399999999999977
 30
0.0
 11
-23.39999999999986
 21
66.600000000000023
 31
0.0
  0
LINE
  8
DETAIL
  6
CONTINUOUS
 62
     5
 10
-23.39999999999986
 20
59.399999999999977
 30
0.0
 11
-30.599999999999909
 21
59.399999999999977
 31
0.0
  0
LINE
  8
DETAIL
  6
CONTINUOUS
 62
     5
 10
-32.399999999999856
 20
75.600000000000023
 30
0.0
 11
-39.599999999999909
 21
75.600000000000023
 31
0.0
  0
LINE
  8
DETAIL
  6
CONTINUOUS
 62
     5
 10
-32.399999999999856
 20
68.400000000000091
 30
0.0
 11
-32.399999999999856
 21
75.600000000000023
 31
0.0
  0
LINE
  8
DETAIL
  6
CONTINUOUS
 62
     5
 10
-32.399999999999856
 20
68.400000000000091
 30
0.0
 11
-39.599999999999909
 21
68.400000000000091
 31
0.0
  0
LINE
  8
DETAIL
  6
CONTINUOUS
 62
     5
 10
-23.39999999999986
 20
75.600000000000023
 30
0.0
 11
-30.599999999999909
 21
75.600000000000023
 31
0.0
  0
LINE
  8
DETAIL
  6
CONTINUOUS
 62
     5
 10
-30.599999999999909
 20
68.400000000000091
 30
0.0
 11
-30.599999999999909
 21
75.600000000000023
 31
0.0
  0
LINE
  8
DETAIL
  6
CONTINUOUS
 62
     5
 10
-23.39999999999986
 20
68.400000000000091
 30
0.0
 11
-23.39999999999986
 21
75.600000000000023
 31
0.0
  0
LINE
  8
DETAIL
  6
CONTINUOUS
 62
     5
 10
-23.39999999999986
 20
68.400000000000091
 30
0.0
 11
-30.599999999999909
 21
68.400000000000091
 31
0.0
  0
LINE
  8
DETAIL
  6
CONTINUOUS
 62
     5
 10
-14.39999999999986
 20
75.600000000000023
 30
0.0
 11
-21.599999999999909
 21
75.600000000000023
 31
0.0
  0
LINE
  8
DETAIL
  6
CONTINUOUS
 62
     5
 10
-21.599999999999909
 20
68.400000000000091
 30
0.0
 11
-21.599999999999909
 21
75.600000000000023
 31
0.0
  0
LINE
  8
DETAIL
  6
CONTINUOUS
 62
     5
 10
-14.39999999999986
 20
68.400000000000091
 30
0.0
 11
-14.39999999999986
 21
75.600000000000023
 31
0.0
  0
LINE
  8
DETAIL
  6
CONTINUOUS
 62
     5
 10
-14.39999999999986
 20
68.400000000000091
 30
0.0
 11
-21.599999999999909
 21
68.400000000000091
 31
0.0
  0
LINE
  8
DETAIL
  6
CONTINUOUS
 62
     5
 10
-32.399999999999856
 20
84.600000000000023
 30
0.0
 11
-39.599999999999909
 21
84.600000000000023
 31
0.0
  0
LINE
  8
DETAIL
  6
CONTINUOUS
 62
     5
 10
-32.399999999999856
 20
77.400000000000091
 30
0.0
 11
-32.399999999999856
 21
84.600000000000023
 31
0.0
  0
LINE
  8
DETAIL
  6
CONTINUOUS
 62
     5
 10
-32.399999999999856
 20
77.400000000000091
 30
0.0
 11
-39.599999999999909
 21
77.400000000000091
 31
0.0
  0
LINE
  8
DETAIL
  6
CONTINUOUS
 62
     5
 10
-23.39999999999986
 20
84.600000000000023
 30
0.0
 11
-30.599999999999909
 21
84.600000000000023
 31
0.0
  0
LINE
  8
DETAIL
  6
CONTINUOUS
 62
     5
 10
-30.599999999999909
 20
77.400000000000091
 30
0.0
 11
-30.599999999999909
 21
84.600000000000023
 31
0.0
  0
LINE
  8
DETAIL
  6
CONTINUOUS
 62
     5
 10
-23.39999999999986
 20
77.400000000000091
 30
0.0
 11
-23.39999999999986
 21
84.600000000000023
 31
0.0
  0
LINE
  8
DETAIL
  6
CONTINUOUS
 62
     5
 10
-23.39999999999986
 20
77.400000000000091
 30
0.0
 11
-30.599999999999909
 21
77.400000000000091
 31
0.0
  0
LINE
  8
DETAIL
  6
CONTINUOUS
 62
     5
 10
-14.39999999999986
 20
84.600000000000023
 30
0.0
 11
-21.599999999999909
 21
84.600000000000023
 31
0.0
  0
LINE
  8
DETAIL
  6
CONTINUOUS
 62
     5
 10
-21.599999999999909
 20
77.400000000000091
 30
0.0
 11
-21.599999999999909
 21
84.600000000000023
 31
0.0
  0
LINE
  8
DETAIL
  6
CONTINUOUS
 62
     5
 10
-14.39999999999986
 20
77.400000000000091
 30
0.0
 11
-14.39999999999986
 21
84.600000000000023
 31
0.0
  0
LINE
  8
DETAIL
  6
CONTINUOUS
 62
     5
 10
-14.39999999999986
 20
77.400000000000091
 30
0.0
 11
-21.599999999999909
 21
77.400000000000091
 31
0.0
  0
LINE
  8
DETAIL
  6
CONTINUOUS
 62
     5
 10
-5.3999999999998636
 20
84.600000000000023
 30
0.0
 11
-12.599999999999911
 21
84.600000000000023
 31
0.0
  0
LINE
  8
DETAIL
  6
CONTINUOUS
 62
     5
 10
-12.599999999999911
 20
77.400000000000091
 30
0.0
 11
-12.599999999999911
 21
84.600000000000023
 31
0.0
  0
LINE
  8
DETAIL
  6
CONTINUOUS
 62
     5
 10
-5.3999999999998636
 20
77.400000000000091
 30
0.0
 11
-5.3999999999998636
 21
84.600000000000023
 31
0.0
  0
LINE
  8
DETAIL
  6
CONTINUOUS
 62
     5
 10
-5.3999999999998636
 20
77.400000000000091
 30
0.0
 11
-12.599999999999911
 21
77.400000000000091
 31
0.0
  0
LINE
  8
DETAIL
  6
CONTINUOUS
 62
     5
 10
-32.399999999999856
 20
93.600000000000023
 30
0.0
 11
-39.599999999999909
 21
93.600000000000023
 31
0.0
  0
LINE
  8
DETAIL
  6
CONTINUOUS
 62
     5
 10
-32.399999999999856
 20
86.400000000000091
 30
0.0
 11
-32.399999999999856
 21
93.600000000000023
 31
0.0
  0
LINE
  8
DETAIL
  6
CONTINUOUS
 62
     5
 10
-32.399999999999856
 20
86.400000000000091
 30
0.0
 11
-39.599999999999909
 21
86.400000000000091
 31
0.0
  0
LINE
  8
DETAIL
  6
CONTINUOUS
 62
     5
 10
-23.39999999999986
 20
93.600000000000023
 30
0.0
 11
-30.599999999999909
 21
93.600000000000023
 31
0.0
  0
LINE
  8
DETAIL
  6
CONTINUOUS
 62
     5
 10
-30.599999999999909
 20
86.400000000000091
 30
0.0
 11
-30.599999999999909
 21
93.600000000000023
 31
0.0
  0
LINE
  8
DETAIL
  6
CONTINUOUS
 62
     5
 10
-23.39999999999986
 20
86.400000000000091
 30
0.0
 11
-23.39999999999986
 21
93.600000000000023
 31
0.0
  0
LINE
  8
DETAIL
  6
CONTINUOUS
 62
     5
 10
-23.39999999999986
 20
86.400000000000091
 30
0.0
 11
-30.599999999999909
 21
86.400000000000091
 31
0.0
  0
LINE
  8
DETAIL
  6
CONTINUOUS
 62
     5
 10
-14.39999999999986
 20
93.600000000000023
 30
0.0
 11
-21.599999999999909
 21
93.600000000000023
 31
0.0
  0
LINE
  8
DETAIL
  6
CONTINUOUS
 62
     5
 10
-21.599999999999909
 20
86.400000000000091
 30
0.0
 11
-21.599999999999909
 21
93.600000000000023
 31
0.0
  0
LINE
  8
DETAIL
  6
CONTINUOUS
 62
     5
 10
-14.39999999999986
 20
86.400000000000091
 30
0.0
 11
-14.39999999999986
 21
93.600000000000023
 31
0.0
  0
LINE
  8
DETAIL
  6
CONTINUOUS
 62
     5
 10
-14.39999999999986
 20
86.400000000000091
 30
0.0
 11
-21.599999999999909
 21
86.400000000000091
 31
0.0
  0
LINE
  8
DETAIL
  6
CONTINUOUS
 62
     5
 10
-5.3999999999998636
 20
93.600000000000023
 30
0.0
 11
-12.599999999999911
 21
93.600000000000023
 31
0.0
  0
LINE
  8
DETAIL
  6
CONTINUOUS
 62
     5
 10
-12.599999999999911
 20
86.400000000000091
 30
0.0
 11
-12.599999999999911
 21
93.600000000000023
 31
0.0
  0
LINE
  8
DETAIL
  6
CONTINUOUS
 62
     5
 10
-5.3999999999998636
 20
86.400000000000091
 30
0.0
 11
-5.3999999999998636
 21
93.600000000000023
 31
0.0
  0
LINE
  8
DETAIL
  6
CONTINUOUS
 62
     5
 10
-5.3999999999998636
 20
86.400000000000091
 30
0.0
 11
-12.599999999999911
 21
86.400000000000091
 31
0.0
  0
LINE
  8
DETAIL
  6
CONTINUOUS
 62
     5
 10
-3.5999999999999091
 20
86.400000000000091
 30
0.0
 11
-3.5999999999999091
 21
93.600000000000023
 31
0.0
  0
LINE
  8
DETAIL
  6
CONTINUOUS
 62
     5
 10
-14.39999999999986
 20
68.400000000000091
 30
0.0
 11
-21.599999999999909
 21
68.400000000000091
 31
0.0
  0
LINE
  8
DETAIL
  6
CONTINUOUS
 62
     5
 10
-14.39999999999986
 20
75.600000000000023
 30
0.0
 11
-14.39999999999986
 21
68.400000000000091
 31
0.0
  0
LINE
  8
DETAIL
  6
CONTINUOUS
 62
     5
 10
-32.399999999999856
 20
59.399999999999977
 30
0.0
 11
-39.599999999999909
 21
59.399999999999977
 31
0.0
  0
LINE
  8
DETAIL
  6
CONTINUOUS
 62
     5
 10
-32.399999999999856
 20
50.399999999999977
 30
0.0
 11
-39.599999999999909
 21
50.399999999999977
 31
0.0
  0
LINE
  8
DETAIL
  6
CONTINUOUS
 62
     5
 10
-32.399999999999856
 20
57.600000000000023
 30
0.0
 11
-32.399999999999856
 21
50.399999999999977
 31
0.0
  0
LINE
  8
DETAIL
  6
CONTINUOUS
 62
     5
 10
-86.399999999999864
 20
3.6000000000000232
 30
0.0
 11
-93.599999999999909
 21
3.6000000000000232
 31
0.0
  0
LINE
  8
DETAIL
  6
CONTINUOUS
 62
     5
 10
-86.399999999999864
 20
12.600000000000019
 30
0.0
 11
-93.599999999999909
 21
12.600000000000019
 31
0.0
  0
LINE
  8
DETAIL
  6
CONTINUOUS
 62
     5
 10
-93.599999999999909
 20
5.3999999999999773
 30
0.0
 11
-93.599999999999909
 21
12.600000000000019
 31
0.0
  0
LINE
  8
DETAIL
  6
CONTINUOUS
 62
     5
 10
-86.399999999999864
 20
5.3999999999999773
 30
0.0
 11
-86.399999999999864
 21
12.600000000000019
 31
0.0
  0
LINE
  8
DETAIL
  6
CONTINUOUS
 62
     5
 10
-86.399999999999864
 20
5.3999999999999773
 30
0.0
 11
-93.599999999999909
 21
5.3999999999999773
 31
0.0
  0
LINE
  8
DETAIL
  6
CONTINUOUS
 62
     5
 10
-77.399999999999864
 20
12.600000000000019
 30
0.0
 11
-84.599999999999909
 21
12.600000000000019
 31
0.0
  0
LINE
  8
DETAIL
  6
CONTINUOUS
 62
     5
 10
-84.599999999999909
 20
5.3999999999999773
 30
0.0
 11
-84.599999999999909
 21
12.600000000000019
 31
0.0
  0
LINE
  8
DETAIL
  6
CONTINUOUS
 62
     5
 10
-77.399999999999864
 20
5.3999999999999773
 30
0.0
 11
-77.399999999999864
 21
12.600000000000019
 31
0.0
  0
LINE
  8
DETAIL
  6
CONTINUOUS
 62
     5
 10
-77.399999999999864
 20
5.3999999999999773
 30
0.0
 11
-84.599999999999909
 21
5.3999999999999773
 31
0.0
  0
LINE
  8
DETAIL
  6
CONTINUOUS
 62
     5
 10
-86.399999999999864
 20
21.600000000000019
 30
0.0
 11
-93.599999999999909
 21
21.600000000000019
 31
0.0
  0
LINE
  8
DETAIL
  6
CONTINUOUS
 62
     5
 10
-93.599999999999909
 20
14.400000000000089
 30
0.0
 11
-93.599999999999909
 21
21.600000000000019
 31
0.0
  0
LINE
  8
DETAIL
  6
CONTINUOUS
 62
     5
 10
-86.399999999999864
 20
14.400000000000089
 30
0.0
 11
-86.399999999999864
 21
21.600000000000019
 31
0.0
  0
LINE
  8
DETAIL
  6
CONTINUOUS
 62
     5
 10
-86.399999999999864
 20
14.400000000000089
 30
0.0
 11
-93.599999999999909
 21
14.400000000000089
 31
0.0
  0
LINE
  8
DETAIL
  6
CONTINUOUS
 62
     5
 10
-77.399999999999864
 20
21.600000000000019
 30
0.0
 11
-84.599999999999909
 21
21.600000000000019
 31
0.0
  0
LINE
  8
DETAIL
  6
CONTINUOUS
 62
     5
 10
-84.599999999999909
 20
14.400000000000089
 30
0.0
 11
-84.599999999999909
 21
21.600000000000019
 31
0.0
  0
LINE
  8
DETAIL
  6
CONTINUOUS
 62
     5
 10
-77.399999999999864
 20
14.400000000000089
 30
0.0
 11
-77.399999999999864
 21
21.600000000000019
 31
0.0
  0
LINE
  8
DETAIL
  6
CONTINUOUS
 62
     5
 10
-77.399999999999864
 20
14.400000000000089
 30
0.0
 11
-84.599999999999909
 21
14.400000000000089
 31
0.0
  0
LINE
  8
DETAIL
  6
CONTINUOUS
 62
     5
 10
-68.399999999999864
 20
21.600000000000019
 30
0.0
 11
-75.599999999999909
 21
21.600000000000019
 31
0.0
  0
LINE
  8
DETAIL
  6
CONTINUOUS
 62
     5
 10
-75.599999999999909
 20
14.400000000000089
 30
0.0
 11
-75.599999999999909
 21
21.600000000000019
 31
0.0
  0
LINE
  8
DETAIL
  6
CONTINUOUS
 62
     5
 10
-68.399999999999864
 20
14.400000000000089
 30
0.0
 11
-68.399999999999864
 21
21.600000000000019
 31
0.0
  0
LINE
  8
DETAIL
  6
CONTINUOUS
 62
     5
 10
-68.399999999999864
 20
14.400000000000089
 30
0.0
 11
-75.599999999999909
 21
14.400000000000089
 31
0.0
  0
LINE
  8
DETAIL
  6
CONTINUOUS
 62
     5
 10
-86.399999999999864
 20
30.600000000000019
 30
0.0
 11
-93.599999999999909
 21
30.600000000000019
 31
0.0
  0
LINE
  8
DETAIL
  6
CONTINUOUS
 62
     5
 10
-93.599999999999909
 20
23.400000000000091
 30
0.0
 11
-93.599999999999909
 21
30.600000000000019
 31
0.0
  0
LINE
  8
DETAIL
  6
CONTINUOUS
 62
     5
 10
-86.399999999999864
 20
23.400000000000091
 30
0.0
 11
-86.399999999999864
 21
30.600000000000019
 31
0.0
  0
LINE
  8
DETAIL
  6
CONTINUOUS
 62
     5
 10
-86.399999999999864
 20
23.400000000000091
 30
0.0
 11
-93.599999999999909
 21
23.400000000000091
 31
0.0
  0
LINE
  8
DETAIL
  6
CONTINUOUS
 62
     5
 10
-77.399999999999864
 20
30.600000000000019
 30
0.0
 11
-84.599999999999909
 21
30.600000000000019
 31
0.0
  0
LINE
  8
DETAIL
  6
CONTINUOUS
 62
     5
 10
-84.599999999999909
 20
23.400000000000091
 30
0.0
 11
-84.599999999999909
 21
30.600000000000019
 31
0.0
  0
LINE
  8
DETAIL
  6
CONTINUOUS
 62
     5
 10
-77.399999999999864
 20
23.400000000000091
 30
0.0
 11
-77.399999999999864
 21
30.600000000000019
 31
0.0
  0
LINE
  8
DETAIL
  6
CONTINUOUS
 62
     5
 10
-77.399999999999864
 20
23.400000000000091
 30
0.0
 11
-84.599999999999909
 21
23.400000000000091
 31
0.0
  0
LINE
  8
DETAIL
  6
CONTINUOUS
 62
     5
 10
-68.399999999999864
 20
30.600000000000019
 30
0.0
 11
-75.599999999999909
 21
30.600000000000019
 31
0.0
  0
LINE
  8
DETAIL
  6
CONTINUOUS
 62
     5
 10
-75.599999999999909
 20
23.400000000000091
 30
0.0
 11
-75.599999999999909
 21
30.600000000000019
 31
0.0
  0
LINE
  8
DETAIL
  6
CONTINUOUS
 62
     5
 10
-68.399999999999864
 20
23.400000000000091
 30
0.0
 11
-68.399999999999864
 21
30.600000000000019
 31
0.0
  0
LINE
  8
DETAIL
  6
CONTINUOUS
 62
     5
 10
-68.399999999999864
 20
23.400000000000091
 30
0.0
 11
-75.599999999999909
 21
23.400000000000091
 31
0.0
  0
LINE
  8
DETAIL
  6
CONTINUOUS
 62
     5
 10
-59.399999999999856
 20
30.600000000000019
 30
0.0
 11
-66.599999999999909
 21
30.600000000000019
 31
0.0
  0
LINE
  8
DETAIL
  6
CONTINUOUS
 62
     5
 10
-66.599999999999909
 20
23.400000000000091
 30
0.0
 11
-66.599999999999909
 21
30.600000000000019
 31
0.0
  0
LINE
  8
DETAIL
  6
CONTINUOUS
 62
     5
 10
-59.399999999999856
 20
23.400000000000091
 30
0.0
 11
-59.399999999999856
 21
30.600000000000019
 31
0.0
  0
LINE
  8
DETAIL
  6
CONTINUOUS
 62
     5
 10
-59.399999999999856
 20
23.400000000000091
 30
0.0
 11
-66.599999999999909
 21
23.400000000000091
 31
0.0
  0
LINE
  8
DETAIL
  6
CONTINUOUS
 62
     5
 10
-86.399999999999864
 20
39.600000000000023
 30
0.0
 11
-93.599999999999909
 21
39.600000000000023
 31
0.0
  0
LINE
  8
DETAIL
  6
CONTINUOUS
 62
     5
 10
-93.599999999999909
 20
32.400000000000091
 30
0.0
 11
-93.599999999999909
 21
39.600000000000023
 31
0.0
  0
LINE
  8
DETAIL
  6
CONTINUOUS
 62
     5
 10
-86.399999999999864
 20
32.400000000000091
 30
0.0
 11
-86.399999999999864
 21
39.600000000000023
 31
0.0
  0
LINE
  8
DETAIL
  6
CONTINUOUS
 62
     5
 10
-86.399999999999864
 20
32.400000000000091
 30
0.0
 11
-93.599999999999909
 21
32.400000000000091
 31
0.0
  0
LINE
  8
DETAIL
  6
CONTINUOUS
 62
     5
 10
-77.399999999999864
 20
39.600000000000023
 30
0.0
 11
-84.599999999999909
 21
39.600000000000023
 31
0.0
  0
LINE
  8
DETAIL
  6
CONTINUOUS
 62
     5
 10
-84.599999999999909
 20
32.400000000000091
 30
0.0
 11
-84.599999999999909
 21
39.600000000000023
 31
0.0
  0
LINE
  8
DETAIL
  6
CONTINUOUS
 62
     5
 10
-77.399999999999864
 20
32.400000000000091
 30
0.0
 11
-77.399999999999864
 21
39.600000000000023
 31
0.0
  0
LINE
  8
DETAIL
  6
CONTINUOUS
 62
     5
 10
-77.399999999999864
 20
32.400000000000091
 30
0.0
 11
-84.599999999999909
 21
32.400000000000091
 31
0.0
  0
LINE
  8
DETAIL
  6
CONTINUOUS
 62
     5
 10
-68.399999999999864
 20
39.600000000000023
 30
0.0
 11
-75.599999999999909
 21
39.600000000000023
 31
0.0
  0
LINE
  8
DETAIL
  6
CONTINUOUS
 62
     5
 10
-75.599999999999909
 20
32.400000000000091
 30
0.0
 11
-75.599999999999909
 21
39.600000000000023
 31
0.0
  0
LINE
  8
DETAIL
  6
CONTINUOUS
 62
     5
 10
-68.399999999999864
 20
32.400000000000091
 30
0.0
 11
-68.399999999999864
 21
39.600000000000023
 31
0.0
  0
LINE
  8
DETAIL
  6
CONTINUOUS
 62
     5
 10
-68.399999999999864
 20
32.400000000000091
 30
0.0
 11
-75.599999999999909
 21
32.400000000000091
 31
0.0
  0
LINE
  8
DETAIL
  6
CONTINUOUS
 62
     5
 10
-59.399999999999856
 20
39.600000000000023
 30
0.0
 11
-66.599999999999909
 21
39.600000000000023
 31
0.0
  0
LINE
  8
DETAIL
  6
CONTINUOUS
 62
     5
 10
-66.599999999999909
 20
32.400000000000091
 30
0.0
 11
-66.599999999999909
 21
39.600000000000023
 31
0.0
  0
LINE
  8
DETAIL
  6
CONTINUOUS
 62
     5
 10
-59.399999999999856
 20
32.400000000000091
 30
0.0
 11
-59.399999999999856
 21
39.600000000000023
 31
0.0
  0
LINE
  8
DETAIL
  6
CONTINUOUS
 62
     5
 10
-59.399999999999856
 20
32.400000000000091
 30
0.0
 11
-66.599999999999909
 21
32.400000000000091
 31
0.0
  0
LINE
  8
DETAIL
  6
CONTINUOUS
 62
     5
 10
-50.399999999999856
 20
39.600000000000023
 30
0.0
 11
-57.599999999999909
 21
39.600000000000023
 31
0.0
  0
LINE
  8
DETAIL
  6
CONTINUOUS
 62
     5
 10
-57.599999999999909
 20
32.400000000000091
 30
0.0
 11
-57.599999999999909
 21
39.600000000000023
 31
0.0
  0
LINE
  8
DETAIL
  6
CONTINUOUS
 62
     5
 10
-50.399999999999856
 20
32.400000000000091
 30
0.0
 11
-50.399999999999856
 21
39.600000000000023
 31
0.0
  0
LINE
  8
DETAIL
  6
CONTINUOUS
 62
     5
 10
-50.399999999999856
 20
32.400000000000091
 30
0.0
 11
-57.599999999999909
 21
32.400000000000091
 31
0.0
  0
LINE
  8
DETAIL
  6
CONTINUOUS
 62
     5
 10
-86.399999999999864
 20
48.600000000000023
 30
0.0
 11
-93.599999999999909
 21
48.600000000000023
 31
0.0
  0
LINE
  8
DETAIL
  6
CONTINUOUS
 62
     5
 10
-93.599999999999909
 20
41.399999999999977
 30
0.0
 11
-93.599999999999909
 21
48.600000000000023
 31
0.0
  0
LINE
  8
DETAIL
  6
CONTINUOUS
 62
     5
 10
-86.399999999999864
 20
41.399999999999977
 30
0.0
 11
-86.399999999999864
 21
48.600000000000023
 31
0.0
  0
LINE
  8
DETAIL
  6
CONTINUOUS
 62
     5
 10
-86.399999999999864
 20
41.399999999999977
 30
0.0
 11
-93.599999999999909
 21
41.399999999999977
 31
0.0
  0
LINE
  8
DETAIL
  6
CONTINUOUS
 62
     5
 10
-77.399999999999864
 20
48.600000000000023
 30
0.0
 11
-84.599999999999909
 21
48.600000000000023
 31
0.0
  0
LINE
  8
DETAIL
  6
CONTINUOUS
 62
     5
 10
-84.599999999999909
 20
41.399999999999977
 30
0.0
 11
-84.599999999999909
 21
48.600000000000023
 31
0.0
  0
LINE
  8
DETAIL
  6
CONTINUOUS
 62
     5
 10
-77.399999999999864
 20
41.399999999999977
 30
0.0
 11
-77.399999999999864
 21
48.600000000000023
 31
0.0
  0
LINE
  8
DETAIL
  6
CONTINUOUS
 62
     5
 10
-77.399999999999864
 20
41.399999999999977
 30
0.0
 11
-84.599999999999909
 21
41.399999999999977
 31
0.0
  0
LINE
  8
DETAIL
  6
CONTINUOUS
 62
     5
 10
-68.399999999999864
 20
48.600000000000023
 30
0.0
 11
-75.599999999999909
 21
48.600000000000023
 31
0.0
  0
LINE
  8
DETAIL
  6
CONTINUOUS
 62
     5
 10
-75.599999999999909
 20
41.399999999999977
 30
0.0
 11
-75.599999999999909
 21
48.600000000000023
 31
0.0
  0
LINE
  8
DETAIL
  6
CONTINUOUS
 62
     5
 10
-68.399999999999864
 20
41.399999999999977
 30
0.0
 11
-68.399999999999864
 21
48.600000000000023
 31
0.0
  0
LINE
  8
DETAIL
  6
CONTINUOUS
 62
     5
 10
-68.399999999999864
 20
41.399999999999977
 30
0.0
 11
-75.599999999999909
 21
41.399999999999977
 31
0.0
  0
LINE
  8
DETAIL
  6
CONTINUOUS
 62
     5
 10
-59.399999999999856
 20
48.600000000000023
 30
0.0
 11
-66.599999999999909
 21
48.600000000000023
 31
0.0
  0
LINE
  8
DETAIL
  6
CONTINUOUS
 62
     5
 10
-66.599999999999909
 20
41.399999999999977
 30
0.0
 11
-66.599999999999909
 21
48.600000000000023
 31
0.0
  0
LINE
  8
DETAIL
  6
CONTINUOUS
 62
     5
 10
-59.399999999999856
 20
41.399999999999977
 30
0.0
 11
-59.399999999999856
 21
48.600000000000023
 31
0.0
  0
LINE
  8
DETAIL
  6
CONTINUOUS
 62
     5
 10
-59.399999999999856
 20
41.399999999999977
 30
0.0
 11
-66.599999999999909
 21
41.399999999999977
 31
0.0
  0
LINE
  8
DETAIL
  6
CONTINUOUS
 62
     5
 10
-50.399999999999856
 20
48.600000000000023
 30
0.0
 11
-57.599999999999909
 21
48.600000000000023
 31
0.0
  0
LINE
  8
DETAIL
  6
CONTINUOUS
 62
     5
 10
-57.599999999999909
 20
41.399999999999977
 30
0.0
 11
-57.599999999999909
 21
48.600000000000023
 31
0.0
  0
LINE
  8
DETAIL
  6
CONTINUOUS
 62
     5
 10
-50.399999999999856
 20
41.399999999999977
 30
0.0
 11
-50.399999999999856
 21
48.600000000000023
 31
0.0
  0
LINE
  8
DETAIL
  6
CONTINUOUS
 62
     5
 10
-50.399999999999856
 20
41.399999999999977
 30
0.0
 11
-57.599999999999909
 21
41.399999999999977
 31
0.0
  0
LINE
  8
DETAIL
  6
CONTINUOUS
 62
     5
 10
-41.399999999999856
 20
48.600000000000023
 30
0.0
 11
-48.599999999999909
 21
48.600000000000023
 31
0.0
  0
LINE
  8
DETAIL
  6
CONTINUOUS
 62
     5
 10
-48.599999999999909
 20
41.399999999999977
 30
0.0
 11
-48.599999999999909
 21
48.600000000000023
 31
0.0
  0
LINE
  8
DETAIL
  6
CONTINUOUS
 62
     5
 10
-41.399999999999856
 20
41.399999999999977
 30
0.0
 11
-41.399999999999856
 21
48.600000000000023
 31
0.0
  0
LINE
  8
DETAIL
  6
CONTINUOUS
 62
     5
 10
-41.399999999999856
 20
41.399999999999977
 30
0.0
 11
-48.599999999999909
 21
41.399999999999977
 31
0.0
  0
LINE
  8
DETAIL
  6
CONTINUOUS
 62
     5
 10
-86.399999999999864
 20
57.600000000000023
 30
0.0
 11
-93.599999999999909
 21
57.600000000000023
 31
0.0
  0
LINE
  8
DETAIL
  6
CONTINUOUS
 62
     5
 10
-93.599999999999909
 20
50.399999999999977
 30
0.0
 11
-93.599999999999909
 21
57.600000000000023
 31
0.0
  0
LINE
  8
DETAIL
  6
CONTINUOUS
 62
     5
 10
-86.399999999999864
 20
50.399999999999977
 30
0.0
 11
-86.399999999999864
 21
57.600000000000023
 31
0.0
  0
LINE
  8
DETAIL
  6
CONTINUOUS
 62
     5
 10
-86.399999999999864
 20
50.399999999999977
 30
0.0
 11
-93.599999999999909
 21
50.399999999999977
 31
0.0
  0
LINE
  8
DETAIL
  6
CONTINUOUS
 62
     5
 10
-77.399999999999864
 20
57.600000000000023
 30
0.0
 11
-84.599999999999909
 21
57.600000000000023
 31
0.0
  0
LINE
  8
DETAIL
  6
CONTINUOUS
 62
     5
 10
-84.599999999999909
 20
50.399999999999977
 30
0.0
 11
-84.599999999999909
 21
57.600000000000023
 31
0.0
  0
LINE
  8
DETAIL
  6
CONTINUOUS
 62
     5
 10
-77.399999999999864
 20
50.399999999999977
 30
0.0
 11
-77.399999999999864
 21
57.600000000000023
 31
0.0
  0
LINE
  8
DETAIL
  6
CONTINUOUS
 62
     5
 10
-77.399999999999864
 20
50.399999999999977
 30
0.0
 11
-84.599999999999909
 21
50.399999999999977
 31
0.0
  0
LINE
  8
DETAIL
  6
CONTINUOUS
 62
     5
 10
-68.399999999999864
 20
57.600000000000023
 30
0.0
 11
-75.599999999999909
 21
57.600000000000023
 31
0.0
  0
LINE
  8
DETAIL
  6
CONTINUOUS
 62
     5
 10
-75.599999999999909
 20
50.399999999999977
 30
0.0
 11
-75.599999999999909
 21
57.600000000000023
 31
0.0
  0
LINE
  8
DETAIL
  6
CONTINUOUS
 62
     5
 10
-68.399999999999864
 20
50.399999999999977
 30
0.0
 11
-68.399999999999864
 21
57.600000000000023
 31
0.0
  0
LINE
  8
DETAIL
  6
CONTINUOUS
 62
     5
 10
-68.399999999999864
 20
50.399999999999977
 30
0.0
 11
-75.599999999999909
 21
50.399999999999977
 31
0.0
  0
LINE
  8
DETAIL
  6
CONTINUOUS
 62
     5
 10
-59.399999999999856
 20
57.600000000000023
 30
0.0
 11
-66.599999999999909
 21
57.600000000000023
 31
0.0
  0
LINE
  8
DETAIL
  6
CONTINUOUS
 62
     5
 10
-66.599999999999909
 20
50.399999999999977
 30
0.0
 11
-66.599999999999909
 21
57.600000000000023
 31
0.0
  0
LINE
  8
DETAIL
  6
CONTINUOUS
 62
     5
 10
-59.399999999999856
 20
50.399999999999977
 30
0.0
 11
-59.399999999999856
 21
57.600000000000023
 31
0.0
  0
LINE
  8
DETAIL
  6
CONTINUOUS
 62
     5
 10
-59.399999999999856
 20
50.399999999999977
 30
0.0
 11
-66.599999999999909
 21
50.399999999999977
 31
0.0
  0
LINE
  8
DETAIL
  6
CONTINUOUS
 62
     5
 10
-50.399999999999856
 20
57.600000000000023
 30
0.0
 11
-57.599999999999909
 21
57.600000000000023
 31
0.0
  0
LINE
  8
DETAIL
  6
CONTINUOUS
 62
     5
 10
-57.599999999999909
 20
50.399999999999977
 30
0.0
 11
-57.599999999999909
 21
57.600000000000023
 31
0.0
  0
LINE
  8
DETAIL
  6
CONTINUOUS
 62
     5
 10
-50.399999999999856
 20
50.399999999999977
 30
0.0
 11
-50.399999999999856
 21
57.600000000000023
 31
0.0
  0
LINE
  8
DETAIL
  6
CONTINUOUS
 62
     5
 10
-50.399999999999856
 20
50.399999999999977
 30
0.0
 11
-57.599999999999909
 21
50.399999999999977
 31
0.0
  0
LINE
  8
DETAIL
  6
CONTINUOUS
 62
     5
 10
-41.399999999999856
 20
57.600000000000023
 30
0.0
 11
-48.599999999999909
 21
57.600000000000023
 31
0.0
  0
LINE
  8
DETAIL
  6
CONTINUOUS
 62
     5
 10
-48.599999999999909
 20
50.399999999999977
 30
0.0
 11
-48.599999999999909
 21
57.600000000000023
 31
0.0
  0
LINE
  8
DETAIL
  6
CONTINUOUS
 62
     5
 10
-41.399999999999856
 20
50.399999999999977
 30
0.0
 11
-41.399999999999856
 21
57.600000000000023
 31
0.0
  0
LINE
  8
DETAIL
  6
CONTINUOUS
 62
     5
 10
-41.399999999999856
 20
50.399999999999977
 30
0.0
 11
-48.599999999999909
 21
50.399999999999977
 31
0.0
  0
LINE
  8
DETAIL
  6
CONTINUOUS
 62
     5
 10
-39.599999999999909
 20
50.399999999999977
 30
0.0
 11
-39.599999999999909
 21
57.600000000000023
 31
0.0
  0
LINE
  8
DETAIL
  6
CONTINUOUS
 62
     5
 10
-86.399999999999864
 20
66.600000000000023
 30
0.0
 11
-93.599999999999909
 21
66.600000000000023
 31
0.0
  0
LINE
  8
DETAIL
  6
CONTINUOUS
 62
     5
 10
-93.599999999999909
 20
59.399999999999977
 30
0.0
 11
-93.599999999999909
 21
66.600000000000023
 31
0.0
  0
LINE
  8
DETAIL
  6
CONTINUOUS
 62
     5
 10
-86.399999999999864
 20
59.399999999999977
 30
0.0
 11
-86.399999999999864
 21
66.600000000000023
 31
0.0
  0
LINE
  8
DETAIL
  6
CONTINUOUS
 62
     5
 10
-86.399999999999864
 20
59.399999999999977
 30
0.0
 11
-93.599999999999909
 21
59.399999999999977
 31
0.0
  0
LINE
  8
DETAIL
  6
CONTINUOUS
 62
     5
 10
-77.399999999999864
 20
66.600000000000023
 30
0.0
 11
-84.599999999999909
 21
66.600000000000023
 31
0.0
  0
LINE
  8
DETAIL
  6
CONTINUOUS
 62
     5
 10
-84.599999999999909
 20
59.399999999999977
 30
0.0
 11
-84.599999999999909
 21
66.600000000000023
 31
0.0
  0
LINE
  8
DETAIL
  6
CONTINUOUS
 62
     5
 10
-77.399999999999864
 20
59.399999999999977
 30
0.0
 11
-77.399999999999864
 21
66.600000000000023
 31
0.0
  0
LINE
  8
DETAIL
  6
CONTINUOUS
 62
     5
 10
-77.399999999999864
 20
59.399999999999977
 30
0.0
 11
-84.599999999999909
 21
59.399999999999977
 31
0.0
  0
LINE
  8
DETAIL
  6
CONTINUOUS
 62
     5
 10
-68.399999999999864
 20
66.600000000000023
 30
0.0
 11
-75.599999999999909
 21
66.600000000000023
 31
0.0
  0
LINE
  8
DETAIL
  6
CONTINUOUS
 62
     5
 10
-75.599999999999909
 20
59.399999999999977
 30
0.0
 11
-75.599999999999909
 21
66.600000000000023
 31
0.0
  0
LINE
  8
DETAIL
  6
CONTINUOUS
 62
     5
 10
-68.399999999999864
 20
59.399999999999977
 30
0.0
 11
-68.399999999999864
 21
66.600000000000023
 31
0.0
  0
LINE
  8
DETAIL
  6
CONTINUOUS
 62
     5
 10
-68.399999999999864
 20
59.399999999999977
 30
0.0
 11
-75.599999999999909
 21
59.399999999999977
 31
0.0
  0
LINE
  8
DETAIL
  6
CONTINUOUS
 62
     5
 10
-59.399999999999856
 20
66.600000000000023
 30
0.0
 11
-66.599999999999909
 21
66.600000000000023
 31
0.0
  0
LINE
  8
DETAIL
  6
CONTINUOUS
 62
     5
 10
-66.599999999999909
 20
59.399999999999977
 30
0.0
 11
-66.599999999999909
 21
66.600000000000023
 31
0.0
  0
LINE
  8
DETAIL
  6
CONTINUOUS
 62
     5
 10
-59.399999999999856
 20
59.399999999999977
 30
0.0
 11
-59.399999999999856
 21
66.600000000000023
 31
0.0
  0
LINE
  8
DETAIL
  6
CONTINUOUS
 62
     5
 10
-59.399999999999856
 20
59.399999999999977
 30
0.0
 11
-66.599999999999909
 21
59.399999999999977
 31
0.0
  0
LINE
  8
DETAIL
  6
CONTINUOUS
 62
     5
 10
-50.399999999999856
 20
66.600000000000023
 30
0.0
 11
-57.599999999999909
 21
66.600000000000023
 31
0.0
  0
LINE
  8
DETAIL
  6
CONTINUOUS
 62
     5
 10
-57.599999999999909
 20
59.399999999999977
 30
0.0
 11
-57.599999999999909
 21
66.600000000000023
 31
0.0
  0
LINE
  8
DETAIL
  6
CONTINUOUS
 62
     5
 10
-50.399999999999856
 20
59.399999999999977
 30
0.0
 11
-50.399999999999856
 21
66.600000000000023
 31
0.0
  0
LINE
  8
DETAIL
  6
CONTINUOUS
 62
     5
 10
-50.399999999999856
 20
59.399999999999977
 30
0.0
 11
-57.599999999999909
 21
59.399999999999977
 31
0.0
  0
LINE
  8
DETAIL
  6
CONTINUOUS
 62
     5
 10
-41.399999999999856
 20
66.600000000000023
 30
0.0
 11
-48.599999999999909
 21
66.600000000000023
 31
0.0
  0
LINE
  8
DETAIL
  6
CONTINUOUS
 62
     5
 10
-48.599999999999909
 20
59.399999999999977
 30
0.0
 11
-48.599999999999909
 21
66.600000000000023
 31
0.0
  0
LINE
  8
DETAIL
  6
CONTINUOUS
 62
     5
 10
-41.399999999999856
 20
59.399999999999977
 30
0.0
 11
-41.399999999999856
 21
66.600000000000023
 31
0.0
  0
LINE
  8
DETAIL
  6
CONTINUOUS
 62
     5
 10
-41.399999999999856
 20
59.399999999999977
 30
0.0
 11
-48.599999999999909
 21
59.399999999999977
 31
0.0
  0
LINE
  8
DETAIL
  6
CONTINUOUS
 62
     5
 10
-39.599999999999909
 20
59.399999999999977
 30
0.0
 11
-39.599999999999909
 21
66.600000000000023
 31
0.0
  0
LINE
  8
DETAIL
  6
CONTINUOUS
 62
     5
 10
-86.399999999999864
 20
75.600000000000023
 30
0.0
 11
-93.599999999999909
 21
75.600000000000023
 31
0.0
  0
LINE
  8
DETAIL
  6
CONTINUOUS
 62
     5
 10
-93.599999999999909
 20
68.400000000000091
 30
0.0
 11
-93.599999999999909
 21
75.600000000000023
 31
0.0
  0
LINE
  8
DETAIL
  6
CONTINUOUS
 62
     5
 10
-86.399999999999864
 20
68.400000000000091
 30
0.0
 11
-86.399999999999864
 21
75.600000000000023
 31
0.0
  0
LINE
  8
DETAIL
  6
CONTINUOUS
 62
     5
 10
-86.399999999999864
 20
68.400000000000091
 30
0.0
 11
-93.599999999999909
 21
68.400000000000091
 31
0.0
  0
LINE
  8
DETAIL
  6
CONTINUOUS
 62
     5
 10
-77.399999999999864
 20
75.600000000000023
 30
0.0
 11
-84.599999999999909
 21
75.600000000000023
 31
0.0
  0
LINE
  8
DETAIL
  6
CONTINUOUS
 62
     5
 10
-84.599999999999909
 20
68.400000000000091
 30
0.0
 11
-84.599999999999909
 21
75.600000000000023
 31
0.0
  0
LINE
  8
DETAIL
  6
CONTINUOUS
 62
     5
 10
-77.399999999999864
 20
68.400000000000091
 30
0.0
 11
-77.399999999999864
 21
75.600000000000023
 31
0.0
  0
LINE
  8
DETAIL
  6
CONTINUOUS
 62
     5
 10
-77.399999999999864
 20
68.400000000000091
 30
0.0
 11
-84.599999999999909
 21
68.400000000000091
 31
0.0
  0
LINE
  8
DETAIL
  6
CONTINUOUS
 62
     5
 10
-68.399999999999864
 20
75.600000000000023
 30
0.0
 11
-75.599999999999909
 21
75.600000000000023
 31
0.0
  0
LINE
  8
DETAIL
  6
CONTINUOUS
 62
     5
 10
-75.599999999999909
 20
68.400000000000091
 30
0.0
 11
-75.599999999999909
 21
75.600000000000023
 31
0.0
  0
LINE
  8
DETAIL
  6
CONTINUOUS
 62
     5
 10
-68.399999999999864
 20
68.400000000000091
 30
0.0
 11
-68.399999999999864
 21
75.600000000000023
 31
0.0
  0
LINE
  8
DETAIL
  6
CONTINUOUS
 62
     5
 10
-68.399999999999864
 20
68.400000000000091
 30
0.0
 11
-75.599999999999909
 21
68.400000000000091
 31
0.0
  0
LINE
  8
DETAIL
  6
CONTINUOUS
 62
     5
 10
-59.399999999999856
 20
75.600000000000023
 30
0.0
 11
-66.599999999999909
 21
75.600000000000023
 31
0.0
  0
LINE
  8
DETAIL
  6
CONTINUOUS
 62
     5
 10
-66.599999999999909
 20
68.400000000000091
 30
0.0
 11
-66.599999999999909
 21
75.600000000000023
 31
0.0
  0
LINE
  8
DETAIL
  6
CONTINUOUS
 62
     5
 10
-59.399999999999856
 20
68.400000000000091
 30
0.0
 11
-59.399999999999856
 21
75.600000000000023
 31
0.0
  0
LINE
  8
DETAIL
  6
CONTINUOUS
 62
     5
 10
-59.399999999999856
 20
68.400000000000091
 30
0.0
 11
-66.599999999999909
 21
68.400000000000091
 31
0.0
  0
LINE
  8
DETAIL
  6
CONTINUOUS
 62
     5
 10
-50.399999999999856
 20
75.600000000000023
 30
0.0
 11
-57.599999999999909
 21
75.600000000000023
 31
0.0
  0
LINE
  8
DETAIL
  6
CONTINUOUS
 62
     5
 10
-57.599999999999909
 20
68.400000000000091
 30
0.0
 11
-57.599999999999909
 21
75.600000000000023
 31
0.0
  0
LINE
  8
DETAIL
  6
CONTINUOUS
 62
     5
 10
-50.399999999999856
 20
68.400000000000091
 30
0.0
 11
-50.399999999999856
 21
75.600000000000023
 31
0.0
  0
LINE
  8
DETAIL
  6
CONTINUOUS
 62
     5
 10
-50.399999999999856
 20
68.400000000000091
 30
0.0
 11
-57.599999999999909
 21
68.400000000000091
 31
0.0
  0
LINE
  8
DETAIL
  6
CONTINUOUS
 62
     5
 10
-41.399999999999856
 20
75.600000000000023
 30
0.0
 11
-48.599999999999909
 21
75.600000000000023
 31
0.0
  0
LINE
  8
DETAIL
  6
CONTINUOUS
 62
     5
 10
-48.599999999999909
 20
68.400000000000091
 30
0.0
 11
-48.599999999999909
 21
75.600000000000023
 31
0.0
  0
LINE
  8
DETAIL
  6
CONTINUOUS
 62
     5
 10
-41.399999999999856
 20
68.400000000000091
 30
0.0
 11
-41.399999999999856
 21
75.600000000000023
 31
0.0
  0
LINE
  8
DETAIL
  6
CONTINUOUS
 62
     5
 10
-41.399999999999856
 20
68.400000000000091
 30
0.0
 11
-48.599999999999909
 21
68.400000000000091
 31
0.0
  0
LINE
  8
DETAIL
  6
CONTINUOUS
 62
     5
 10
-39.599999999999909
 20
68.400000000000091
 30
0.0
 11
-39.599999999999909
 21
75.600000000000023
 31
0.0
  0
LINE
  8
DETAIL
  6
CONTINUOUS
 62
     5
 10
-86.399999999999864
 20
84.600000000000023
 30
0.0
 11
-93.599999999999909
 21
84.600000000000023
 31
0.0
  0
LINE
  8
DETAIL
  6
CONTINUOUS
 62
     5
 10
-93.599999999999909
 20
77.400000000000091
 30
0.0
 11
-93.599999999999909
 21
84.600000000000023
 31
0.0
  0
LINE
  8
DETAIL
  6
CONTINUOUS
 62
     5
 10
-86.399999999999864
 20
77.400000000000091
 30
0.0
 11
-86.399999999999864
 21
84.600000000000023
 31
0.0
  0
LINE
  8
DETAIL
  6
CONTINUOUS
 62
     5
 10
-86.399999999999864
 20
77.400000000000091
 30
0.0
 11
-93.599999999999909
 21
77.400000000000091
 31
0.0
  0
LINE
  8
DETAIL
  6
CONTINUOUS
 62
     5
 10
-77.399999999999864
 20
84.600000000000023
 30
0.0
 11
-84.599999999999909
 21
84.600000000000023
 31
0.0
  0
LINE
  8
DETAIL
  6
CONTINUOUS
 62
     5
 10
-84.599999999999909
 20
77.400000000000091
 30
0.0
 11
-84.599999999999909
 21
84.600000000000023
 31
0.0
  0
LINE
  8
DETAIL
  6
CONTINUOUS
 62
     5
 10
-77.399999999999864
 20
77.400000000000091
 30
0.0
 11
-77.399999999999864
 21
84.600000000000023
 31
0.0
  0
LINE
  8
DETAIL
  6
CONTINUOUS
 62
     5
 10
-77.399999999999864
 20
77.400000000000091
 30
0.0
 11
-84.599999999999909
 21
77.400000000000091
 31
0.0
  0
LINE
  8
DETAIL
  6
CONTINUOUS
 62
     5
 10
-68.399999999999864
 20
84.600000000000023
 30
0.0
 11
-75.599999999999909
 21
84.600000000000023
 31
0.0
  0
LINE
  8
DETAIL
  6
CONTINUOUS
 62
     5
 10
-75.599999999999909
 20
77.400000000000091
 30
0.0
 11
-75.599999999999909
 21
84.600000000000023
 31
0.0
  0
LINE
  8
DETAIL
  6
CONTINUOUS
 62
     5
 10
-68.399999999999864
 20
77.400000000000091
 30
0.0
 11
-68.399999999999864
 21
84.600000000000023
 31
0.0
  0
LINE
  8
DETAIL
  6
CONTINUOUS
 62
     5
 10
-68.399999999999864
 20
77.400000000000091
 30
0.0
 11
-75.599999999999909
 21
77.400000000000091
 31
0.0
  0
LINE
  8
DETAIL
  6
CONTINUOUS
 62
     5
 10
-59.399999999999856
 20
84.600000000000023
 30
0.0
 11
-66.599999999999909
 21
84.600000000000023
 31
0.0
  0
LINE
  8
DETAIL
  6
CONTINUOUS
 62
     5
 10
-66.599999999999909
 20
77.400000000000091
 30
0.0
 11
-66.599999999999909
 21
84.600000000000023
 31
0.0
  0
LINE
  8
DETAIL
  6
CONTINUOUS
 62
     5
 10
-59.399999999999856
 20
77.400000000000091
 30
0.0
 11
-59.399999999999856
 21
84.600000000000023
 31
0.0
  0
LINE
  8
DETAIL
  6
CONTINUOUS
 62
     5
 10
-59.399999999999856
 20
77.400000000000091
 30
0.0
 11
-66.599999999999909
 21
77.400000000000091
 31
0.0
  0
LINE
  8
DETAIL
  6
CONTINUOUS
 62
     5
 10
-50.399999999999856
 20
84.600000000000023
 30
0.0
 11
-57.599999999999909
 21
84.600000000000023
 31
0.0
  0
LINE
  8
DETAIL
  6
CONTINUOUS
 62
     5
 10
-57.599999999999909
 20
77.400000000000091
 30
0.0
 11
-57.599999999999909
 21
84.600000000000023
 31
0.0
  0
LINE
  8
DETAIL
  6
CONTINUOUS
 62
     5
 10
-50.399999999999856
 20
77.400000000000091
 30
0.0
 11
-50.399999999999856
 21
84.600000000000023
 31
0.0
  0
LINE
  8
DETAIL
  6
CONTINUOUS
 62
     5
 10
-50.399999999999856
 20
77.400000000000091
 30
0.0
 11
-57.599999999999909
 21
77.400000000000091
 31
0.0
  0
LINE
  8
DETAIL
  6
CONTINUOUS
 62
     5
 10
-41.399999999999856
 20
84.600000000000023
 30
0.0
 11
-48.599999999999909
 21
84.600000000000023
 31
0.0
  0
LINE
  8
DETAIL
  6
CONTINUOUS
 62
     5
 10
-48.599999999999909
 20
77.400000000000091
 30
0.0
 11
-48.599999999999909
 21
84.600000000000023
 31
0.0
  0
LINE
  8
DETAIL
  6
CONTINUOUS
 62
     5
 10
-41.399999999999856
 20
77.400000000000091
 30
0.0
 11
-41.399999999999856
 21
84.600000000000023
 31
0.0
  0
LINE
  8
DETAIL
  6
CONTINUOUS
 62
     5
 10
-41.399999999999856
 20
77.400000000000091
 30
0.0
 11
-48.599999999999909
 21
77.400000000000091
 31
0.0
  0
LINE
  8
DETAIL
  6
CONTINUOUS
 62
     5
 10
-39.599999999999909
 20
77.400000000000091
 30
0.0
 11
-39.599999999999909
 21
84.600000000000023
 31
0.0
  0
LINE
  8
DETAIL
  6
CONTINUOUS
 62
     5
 10
-86.399999999999864
 20
93.600000000000023
 30
0.0
 11
-93.599999999999909
 21
93.600000000000023
 31
0.0
  0
LINE
  8
DETAIL
  6
CONTINUOUS
 62
     5
 10
-93.599999999999909
 20
86.400000000000091
 30
0.0
 11
-93.599999999999909
 21
93.600000000000023
 31
0.0
  0
LINE
  8
DETAIL
  6
CONTINUOUS
 62
     5
 10
-86.399999999999864
 20
86.400000000000091
 30
0.0
 11
-86.399999999999864
 21
93.600000000000023
 31
0.0
  0
LINE
  8
DETAIL
  6
CONTINUOUS
 62
     5
 10
-86.399999999999864
 20
86.400000000000091
 30
0.0
 11
-93.599999999999909
 21
86.400000000000091
 31
0.0
  0
LINE
  8
DETAIL
  6
CONTINUOUS
 62
     5
 10
-77.399999999999864
 20
93.600000000000023
 30
0.0
 11
-84.599999999999909
 21
93.600000000000023
 31
0.0
  0
LINE
  8
DETAIL
  6
CONTINUOUS
 62
     5
 10
-84.599999999999909
 20
86.400000000000091
 30
0.0
 11
-84.599999999999909
 21
93.600000000000023
 31
0.0
  0
LINE
  8
DETAIL
  6
CONTINUOUS
 62
     5
 10
-77.399999999999864
 20
86.400000000000091
 30
0.0
 11
-77.399999999999864
 21
93.600000000000023
 31
0.0
  0
LINE
  8
DETAIL
  6
CONTINUOUS
 62
     5
 10
-77.399999999999864
 20
86.400000000000091
 30
0.0
 11
-84.599999999999909
 21
86.400000000000091
 31
0.0
  0
LINE
  8
DETAIL
  6
CONTINUOUS
 62
     5
 10
-68.399999999999864
 20
93.600000000000023
 30
0.0
 11
-75.599999999999909
 21
93.600000000000023
 31
0.0
  0
LINE
  8
DETAIL
  6
CONTINUOUS
 62
     5
 10
-75.599999999999909
 20
86.400000000000091
 30
0.0
 11
-75.599999999999909
 21
93.600000000000023
 31
0.0
  0
LINE
  8
DETAIL
  6
CONTINUOUS
 62
     5
 10
-68.399999999999864
 20
86.400000000000091
 30
0.0
 11
-68.399999999999864
 21
93.600000000000023
 31
0.0
  0
LINE
  8
DETAIL
  6
CONTINUOUS
 62
     5
 10
-68.399999999999864
 20
86.400000000000091
 30
0.0
 11
-75.599999999999909
 21
86.400000000000091
 31
0.0
  0
LINE
  8
DETAIL
  6
CONTINUOUS
 62
     5
 10
-59.399999999999856
 20
93.600000000000023
 30
0.0
 11
-66.599999999999909
 21
93.600000000000023
 31
0.0
  0
LINE
  8
DETAIL
  6
CONTINUOUS
 62
     5
 10
-66.599999999999909
 20
86.400000000000091
 30
0.0
 11
-66.599999999999909
 21
93.600000000000023
 31
0.0
  0
LINE
  8
DETAIL
  6
CONTINUOUS
 62
     5
 10
-59.399999999999856
 20
86.400000000000091
 30
0.0
 11
-59.399999999999856
 21
93.600000000000023
 31
0.0
  0
LINE
  8
DETAIL
  6
CONTINUOUS
 62
     5
 10
-59.399999999999856
 20
86.400000000000091
 30
0.0
 11
-66.599999999999909
 21
86.400000000000091
 31
0.0
  0
LINE
  8
DETAIL
  6
CONTINUOUS
 62
     5
 10
-50.399999999999856
 20
93.600000000000023
 30
0.0
 11
-57.599999999999909
 21
93.600000000000023
 31
0.0
  0
LINE
  8
DETAIL
  6
CONTINUOUS
 62
     5
 10
-57.599999999999909
 20
86.400000000000091
 30
0.0
 11
-57.599999999999909
 21
93.600000000000023
 31
0.0
  0
LINE
  8
DETAIL
  6
CONTINUOUS
 62
     5
 10
-50.399999999999856
 20
86.400000000000091
 30
0.0
 11
-50.399999999999856
 21
93.600000000000023
 31
0.0
  0
LINE
  8
DETAIL
  6
CONTINUOUS
 62
     5
 10
-50.399999999999856
 20
86.400000000000091
 30
0.0
 11
-57.599999999999909
 21
86.400000000000091
 31
0.0
  0
LINE
  8
DETAIL
  6
CONTINUOUS
 62
     5
 10
-41.399999999999856
 20
93.600000000000023
 30
0.0
 11
-48.599999999999909
 21
93.600000000000023
 31
0.0
  0
LINE
  8
DETAIL
  6
CONTINUOUS
 62
     5
 10
-48.599999999999909
 20
86.400000000000091
 30
0.0
 11
-48.599999999999909
 21
93.600000000000023
 31
0.0
  0
LINE
  8
DETAIL
  6
CONTINUOUS
 62
     5
 10
-41.399999999999856
 20
86.400000000000091
 30
0.0
 11
-41.399999999999856
 21
93.600000000000023
 31
0.0
  0
LINE
  8
DETAIL
  6
CONTINUOUS
 62
     5
 10
-41.399999999999856
 20
86.400000000000091
 30
0.0
 11
-48.599999999999909
 21
86.400000000000091
 31
0.0
  0
LINE
  8
DETAIL
  6
CONTINUOUS
 62
     5
 10
-39.599999999999909
 20
86.400000000000091
 30
0.0
 11
-39.599999999999909
 21
93.600000000000023
 31
0.0
  0
LINE
  8
DETAIL
  6
CONTINUOUS
 62
     5
 10
-59.399999999999856
 20
23.400000000000091
 30
0.0
 11
-66.599999999999909
 21
23.400000000000091
 31
0.0
  0
LINE
  8
DETAIL
  6
CONTINUOUS
 62
     5
 10
-59.399999999999856
 20
30.600000000000019
 30
0.0
 11
-59.399999999999856
 21
23.400000000000091
 31
0.0
  0
LINE
  8
DETAIL
  6
CONTINUOUS
 62
     5
 10
-101.0
 20
97.0
 30
0.0
 11
-99.5
 21
95.5
 31
0.0
  0
LINE
  8
DETAIL
  6
CONTINUOUS
 62
     5
 10
-97.0
 20
101.0
 30
0.0
 11
-95.5
 21
99.5
 31
0.0
  0
LINE
  8
DETAIL
  6
CONTINUOUS
 62
     5
 10
-77.399999999999864
 20
3.6000000000000232
 30
0.0
 11
-84.599999999999909
 21
3.6000000000000232
 31
0.0
  0
LINE
  8
DETAIL
  6
CONTINUOUS
 62
     5
 10
-68.399999999999864
 20
3.6000000000000232
 30
0.0
 11
-75.599999999999909
 21
3.6000000000000232
 31
0.0
  0
LINE
  8
DETAIL
  6
CONTINUOUS
 62
     5
 10
-59.399999999999856
 20
3.6000000000000232
 30
0.0
 11
-66.599999999999909
 21
3.6000000000000232
 31
0.0
  0
LINE
  8
DETAIL
  6
CONTINUOUS
 62
     5
 10
-50.399999999999856
 20
3.6000000000000232
 30
0.0
 11
-57.599999999999909
 21
3.6000000000000232
 31
0.0
  0
LINE
  8
DETAIL
  6
CONTINUOUS
 62
     5
 10
-41.399999999999856
 20
3.6000000000000232
 30
0.0
 11
-48.599999999999909
 21
3.6000000000000232
 31
0.0
  0
LINE
  8
DETAIL
  6
CONTINUOUS
 62
     5
 10
-32.399999999999856
 20
3.6000000000000232
 30
0.0
 11
-39.599999999999909
 21
3.6000000000000232
 31
0.0
  0
LINE
  8
DETAIL
  6
CONTINUOUS
 62
     5
 10
-68.399999999999864
 20
5.3999999999999773
 30
0.0
 11
-75.599999999999909
 21
5.3999999999999773
 31
0.0
  0
LINE
  8
DETAIL
  6
CONTINUOUS
 62
     5
 10
-68.399999999999864
 20
12.600000000000019
 30
0.0
 11
-75.599999999999909
 21
12.600000000000019
 31
0.0
  0
LINE
  8
DETAIL
  6
CONTINUOUS
 62
     5
 10
-75.599999999999909
 20
5.3999999999999773
 30
0.0
 11
-75.599999999999909
 21
12.600000000000019
 31
0.0
  0
LINE
  8
DETAIL
  6
CONTINUOUS
 62
     5
 10
-68.399999999999864
 20
5.3999999999999773
 30
0.0
 11
-68.399999999999864
 21
12.600000000000019
 31
0.0
  0
LINE
  8
DETAIL
  6
CONTINUOUS
 62
     5
 10
-59.399999999999856
 20
5.3999999999999773
 30
0.0
 11
-66.599999999999909
 21
5.3999999999999773
 31
0.0
  0
LINE
  8
DETAIL
  6
CONTINUOUS
 62
     5
 10
-59.399999999999856
 20
12.600000000000019
 30
0.0
 11
-66.599999999999909
 21
12.600000000000019
 31
0.0
  0
LINE
  8
DETAIL
  6
CONTINUOUS
 62
     5
 10
-66.599999999999909
 20
5.3999999999999773
 30
0.0
 11
-66.599999999999909
 21
12.600000000000019
 31
0.0
  0
LINE
  8
DETAIL
  6
CONTINUOUS
 62
     5
 10
-59.399999999999856
 20
5.3999999999999773
 30
0.0
 11
-59.399999999999856
 21
12.600000000000019
 31
0.0
  0
LINE
  8
DETAIL
  6
CONTINUOUS
 62
     5
 10
-50.399999999999856
 20
5.3999999999999773
 30
0.0
 11
-57.599999999999909
 21
5.3999999999999773
 31
0.0
  0
LINE
  8
DETAIL
  6
CONTINUOUS
 62
     5
 10
-50.399999999999856
 20
12.600000000000019
 30
0.0
 11
-57.599999999999909
 21
12.600000000000019
 31
0.0
  0
LINE
  8
DETAIL
  6
CONTINUOUS
 62
     5
 10
-57.599999999999909
 20
5.3999999999999773
 30
0.0
 11
-57.599999999999909
 21
12.600000000000019
 31
0.0
  0
LINE
  8
DETAIL
  6
CONTINUOUS
 62
     5
 10
-50.399999999999856
 20
5.3999999999999773
 30
0.0
 11
-50.399999999999856
 21
12.600000000000019
 31
0.0
  0
LINE
  8
DETAIL
  6
CONTINUOUS
 62
     5
 10
-41.399999999999856
 20
5.3999999999999773
 30
0.0
 11
-48.599999999999909
 21
5.3999999999999773
 31
0.0
  0
LINE
  8
DETAIL
  6
CONTINUOUS
 62
     5
 10
-41.399999999999856
 20
12.600000000000019
 30
0.0
 11
-48.599999999999909
 21
12.600000000000019
 31
0.0
  0
LINE
  8
DETAIL
  6
CONTINUOUS
 62
     5
 10
-48.599999999999909
 20
5.3999999999999773
 30
0.0
 11
-48.599999999999909
 21
12.600000000000019
 31
0.0
  0
LINE
  8
DETAIL
  6
CONTINUOUS
 62
     5
 10
-41.399999999999856
 20
5.3999999999999773
 30
0.0
 11
-41.399999999999856
 21
12.600000000000019
 31
0.0
  0
LINE
  8
DETAIL
  6
CONTINUOUS
 62
     5
 10
-32.399999999999856
 20
5.3999999999999773
 30
0.0
 11
-39.599999999999909
 21
5.3999999999999773
 31
0.0
  0
LINE
  8
DETAIL
  6
CONTINUOUS
 62
     5
 10
-32.399999999999856
 20
12.600000000000019
 30
0.0
 11
-39.599999999999909
 21
12.600000000000019
 31
0.0
  0
LINE
  8
DETAIL
  6
CONTINUOUS
 62
     5
 10
-39.599999999999909
 20
5.3999999999999773
 30
0.0
 11
-39.599999999999909
 21
12.600000000000019
 31
0.0
  0
LINE
  8
DETAIL
  6
CONTINUOUS
 62
     5
 10
-32.399999999999856
 20
5.3999999999999773
 30
0.0
 11
-32.399999999999856
 21
12.600000000000019
 31
0.0
  0
LINE
  8
DETAIL
  6
CONTINUOUS
 62
     5
 10
-59.399999999999856
 20
21.600000000000019
 30
0.0
 11
-66.599999999999909
 21
21.600000000000019
 31
0.0
  0
LINE
  8
DETAIL
  6
CONTINUOUS
 62
     5
 10
-66.599999999999909
 20
14.400000000000089
 30
0.0
 11
-66.599999999999909
 21
21.600000000000019
 31
0.0
  0
LINE
  8
DETAIL
  6
CONTINUOUS
 62
     5
 10
-59.399999999999856
 20
14.400000000000089
 30
0.0
 11
-59.399999999999856
 21
21.600000000000019
 31
0.0
  0
LINE
  8
DETAIL
  6
CONTINUOUS
 62
     5
 10
-59.399999999999856
 20
14.400000000000089
 30
0.0
 11
-66.599999999999909
 21
14.400000000000089
 31
0.0
  0
LINE
  8
DETAIL
  6
CONTINUOUS
 62
     5
 10
-50.399999999999856
 20
21.600000000000019
 30
0.0
 11
-57.599999999999909
 21
21.600000000000019
 31
0.0
  0
LINE
  8
DETAIL
  6
CONTINUOUS
 62
     5
 10
-57.599999999999909
 20
14.400000000000089
 30
0.0
 11
-57.599999999999909
 21
21.600000000000019
 31
0.0
  0
LINE
  8
DETAIL
  6
CONTINUOUS
 62
     5
 10
-50.399999999999856
 20
14.400000000000089
 30
0.0
 11
-50.399999999999856
 21
21.600000000000019
 31
0.0
  0
LINE
  8
DETAIL
  6
CONTINUOUS
 62
     5
 10
-50.399999999999856
 20
14.400000000000089
 30
0.0
 11
-57.599999999999909
 21
14.400000000000089
 31
0.0
  0
LINE
  8
DETAIL
  6
CONTINUOUS
 62
     5
 10
-41.399999999999856
 20
21.600000000000019
 30
0.0
 11
-48.599999999999909
 21
21.600000000000019
 31
0.0
  0
LINE
  8
DETAIL
  6
CONTINUOUS
 62
     5
 10
-48.599999999999909
 20
14.400000000000089
 30
0.0
 11
-48.599999999999909
 21
21.600000000000019
 31
0.0
  0
LINE
  8
DETAIL
  6
CONTINUOUS
 62
     5
 10
-41.399999999999856
 20
14.400000000000089
 30
0.0
 11
-41.399999999999856
 21
21.600000000000019
 31
0.0
  0
LINE
  8
DETAIL
  6
CONTINUOUS
 62
     5
 10
-41.399999999999856
 20
14.400000000000089
 30
0.0
 11
-48.599999999999909
 21
14.400000000000089
 31
0.0
  0
LINE
  8
DETAIL
  6
CONTINUOUS
 62
     5
 10
-32.399999999999856
 20
21.600000000000019
 30
0.0
 11
-39.599999999999909
 21
21.600000000000019
 31
0.0
  0
LINE
  8
DETAIL
  6
CONTINUOUS
 62
     5
 10
-39.599999999999909
 20
14.400000000000089
 30
0.0
 11
-39.599999999999909
 21
21.600000000000019
 31
0.0
  0
LINE
  8
DETAIL
  6
CONTINUOUS
 62
     5
 10
-32.399999999999856
 20
14.400000000000089
 30
0.0
 11
-32.399999999999856
 21
21.600000000000019
 31
0.0
  0
LINE
  8
DETAIL
  6
CONTINUOUS
 62
     5
 10
-32.399999999999856
 20
14.400000000000089
 30
0.0
 11
-39.599999999999909
 21
14.400000000000089
 31
0.0
  0
LINE
  8
DETAIL
  6
CONTINUOUS
 62
     5
 10
-50.399999999999856
 20
30.600000000000019
 30
0.0
 11
-57.599999999999909
 21
30.600000000000019
 31
0.0
  0
LINE
  8
DETAIL
  6
CONTINUOUS
 62
     5
 10
-57.599999999999909
 20
23.400000000000091
 30
0.0
 11
-57.599999999999909
 21
30.600000000000019
 31
0.0
  0
LINE
  8
DETAIL
  6
CONTINUOUS
 62
     5
 10
-50.399999999999856
 20
23.400000000000091
 30
0.0
 11
-50.399999999999856
 21
30.600000000000019
 31
0.0
  0
LINE
  8
DETAIL
  6
CONTINUOUS
 62
     5
 10
-50.399999999999856
 20
23.400000000000091
 30
0.0
 11
-57.599999999999909
 21
23.400000000000091
 31
0.0
  0
LINE
  8
DETAIL
  6
CONTINUOUS
 62
     5
 10
-50.399999999999856
 20
23.400000000000091
 30
0.0
 11
-57.599999999999909
 21
23.400000000000091
 31
0.0
  0
LINE
  8
DETAIL
  6
CONTINUOUS
 62
     5
 10
-50.399999999999856
 20
30.600000000000019
 30
0.0
 11
-50.399999999999856
 21
23.400000000000091
 31
0.0
  0
LINE
  8
DETAIL
  6
CONTINUOUS
 62
     5
 10
-41.399999999999856
 20
30.600000000000019
 30
0.0
 11
-48.599999999999909
 21
30.600000000000019
 31
0.0
  0
LINE
  8
DETAIL
  6
CONTINUOUS
 62
     5
 10
-48.599999999999909
 20
23.400000000000091
 30
0.0
 11
-48.599999999999909
 21
30.600000000000019
 31
0.0
  0
LINE
  8
DETAIL
  6
CONTINUOUS
 62
     5
 10
-41.399999999999856
 20
23.400000000000091
 30
0.0
 11
-41.399999999999856
 21
30.600000000000019
 31
0.0
  0
LINE
  8
DETAIL
  6
CONTINUOUS
 62
     5
 10
-41.399999999999856
 20
23.400000000000091
 30
0.0
 11
-48.599999999999909
 21
23.400000000000091
 31
0.0
  0
LINE
  8
DETAIL
  6
CONTINUOUS
 62
     5
 10
-41.399999999999856
 20
23.400000000000091
 30
0.0
 11
-48.599999999999909
 21
23.400000000000091
 31
0.0
  0
LINE
  8
DETAIL
  6
CONTINUOUS
 62
     5
 10
-41.399999999999856
 20
30.600000000000019
 30
0.0
 11
-41.399999999999856
 21
23.400000000000091
 31
0.0
  0
LINE
  8
DETAIL
  6
CONTINUOUS
 62
     5
 10
-32.399999999999856
 20
30.600000000000019
 30
0.0
 11
-39.599999999999909
 21
30.600000000000019
 31
0.0
  0
LINE
  8
DETAIL
  6
CONTINUOUS
 62
     5
 10
-39.599999999999909
 20
23.400000000000091
 30
0.0
 11
-39.599999999999909
 21
30.600000000000019
 31
0.0
  0
LINE
  8
DETAIL
  6
CONTINUOUS
 62
     5
 10
-32.399999999999856
 20
23.400000000000091
 30
0.0
 11
-32.399999999999856
 21
30.600000000000019
 31
0.0
  0
LINE
  8
DETAIL
  6
CONTINUOUS
 62
     5
 10
-32.399999999999856
 20
23.400000000000091
 30
0.0
 11
-39.599999999999909
 21
23.400000000000091
 31
0.0
  0
LINE
  8
DETAIL
  6
CONTINUOUS
 62
     5
 10
-32.399999999999856
 20
23.400000000000091
 30
0.0
 11
-39.599999999999909
 21
23.400000000000091
 31
0.0
  0
LINE
  8
DETAIL
  6
CONTINUOUS
 62
     5
 10
-32.399999999999856
 20
30.600000000000019
 30
0.0
 11
-32.399999999999856
 21
23.400000000000091
 31
0.0
  0
LINE
  8
DETAIL
  6
CONTINUOUS
 62
     5
 10
-41.399999999999856
 20
39.600000000000023
 30
0.0
 11
-48.599999999999909
 21
39.600000000000023
 31
0.0
  0
LINE
  8
DETAIL
  6
CONTINUOUS
 62
     5
 10
-48.599999999999909
 20
32.400000000000091
 30
0.0
 11
-48.599999999999909
 21
39.600000000000023
 31
0.0
  0
LINE
  8
DETAIL
  6
CONTINUOUS
 62
     5
 10
-41.399999999999856
 20
32.400000000000091
 30
0.0
 11
-41.399999999999856
 21
39.600000000000023
 31
0.0
  0
LINE
  8
DETAIL
  6
CONTINUOUS
 62
     5
 10
-41.399999999999856
 20
32.400000000000091
 30
0.0
 11
-48.599999999999909
 21
32.400000000000091
 31
0.0
  0
LINE
  8
DETAIL
  6
CONTINUOUS
 62
     5
 10
-32.399999999999856
 20
39.600000000000023
 30
0.0
 11
-39.599999999999909
 21
39.600000000000023
 31
0.0
  0
LINE
  8
DETAIL
  6
CONTINUOUS
 62
     5
 10
-39.599999999999909
 20
32.400000000000091
 30
0.0
 11
-39.599999999999909
 21
39.600000000000023
 31
0.0
  0
LINE
  8
DETAIL
  6
CONTINUOUS
 62
     5
 10
-32.399999999999856
 20
32.400000000000091
 30
0.0
 11
-32.399999999999856
 21
39.600000000000023
 31
0.0
  0
LINE
  8
DETAIL
  6
CONTINUOUS
 62
     5
 10
-32.399999999999856
 20
32.400000000000091
 30
0.0
 11
-39.599999999999909
 21
32.400000000000091
 31
0.0
  0
LINE
  8
DETAIL
  6
CONTINUOUS
 62
     5
 10
-23.39999999999986
 20
39.600000000000023
 30
0.0
 11
-30.599999999999909
 21
39.600000000000023
 31
0.0
  0
LINE
  8
DETAIL
  6
CONTINUOUS
 62
     5
 10
-30.599999999999909
 20
32.400000000000091
 30
0.0
 11
-30.599999999999909
 21
39.600000000000023
 31
0.0
  0
LINE
  8
DETAIL
  6
CONTINUOUS
 62
     5
 10
-23.39999999999986
 20
32.400000000000091
 30
0.0
 11
-23.39999999999986
 21
39.600000000000023
 31
0.0
  0
LINE
  8
DETAIL
  6
CONTINUOUS
 62
     5
 10
-23.39999999999986
 20
32.400000000000091
 30
0.0
 11
-30.599999999999909
 21
32.400000000000091
 31
0.0
  0
LINE
  8
DETAIL
  6
CONTINUOUS
 62
     5
 10
-14.39999999999986
 20
39.600000000000023
 30
0.0
 11
-21.599999999999909
 21
39.600000000000023
 31
0.0
  0
LINE
  8
DETAIL
  6
CONTINUOUS
 62
     5
 10
-21.599999999999909
 20
32.400000000000091
 30
0.0
 11
-21.599999999999909
 21
39.600000000000023
 31
0.0
  0
LINE
  8
DETAIL
  6
CONTINUOUS
 62
     5
 10
-14.39999999999986
 20
32.400000000000091
 30
0.0
 11
-14.39999999999986
 21
39.600000000000023
 31
0.0
  0
LINE
  8
DETAIL
  6
CONTINUOUS
 62
     5
 10
-14.39999999999986
 20
32.400000000000091
 30
0.0
 11
-21.599999999999909
 21
32.400000000000091
 31
0.0
  0
LINE
  8
DETAIL
  6
CONTINUOUS
 62
     5
 10
-5.3999999999998636
 20
39.600000000000023
 30
0.0
 11
-12.599999999999911
 21
39.600000000000023
 31
0.0
  0
LINE
  8
DETAIL
  6
CONTINUOUS
 62
     5
 10
-12.599999999999911
 20
32.400000000000091
 30
0.0
 11
-12.599999999999911
 21
39.600000000000023
 31
0.0
  0
LINE
  8
DETAIL
  6
CONTINUOUS
 62
     5
 10
-5.3999999999998636
 20
32.400000000000091
 30
0.0
 11
-5.3999999999998636
 21
39.600000000000023
 31
0.0
  0
LINE
  8
DETAIL
  6
CONTINUOUS
 62
     5
 10
-5.3999999999998636
 20
32.400000000000091
 30
0.0
 11
-12.599999999999911
 21
32.400000000000091
 31
0.0
  0
LINE
  8
DETAIL
  6
CONTINUOUS
 62
     5
 10
-32.399999999999856
 20
48.600000000000023
 30
0.0
 11
-39.599999999999909
 21
48.600000000000023
 31
0.0
  0
LINE
  8
DETAIL
  6
CONTINUOUS
 62
     5
 10
-39.599999999999909
 20
41.399999999999977
 30
0.0
 11
-39.599999999999909
 21
48.600000000000023
 31
0.0
  0
LINE
  8
DETAIL
  6
CONTINUOUS
 62
     5
 10
-32.399999999999856
 20
41.399999999999977
 30
0.0
 11
-32.399999999999856
 21
48.600000000000023
 31
0.0
  0
LINE
  8
DETAIL
  6
CONTINUOUS
 62
     5
 10
-32.399999999999856
 20
41.399999999999977
 30
0.0
 11
-39.599999999999909
 21
41.399999999999977
 31
0.0
  0
LINE
  8
DETAIL
  6
CONTINUOUS
 62
     5
 10
-23.39999999999986
 20
48.600000000000023
 30
0.0
 11
-30.599999999999909
 21
48.600000000000023
 31
0.0
  0
LINE
  8
DETAIL
  6
CONTINUOUS
 62
     5
 10
-30.599999999999909
 20
41.399999999999977
 30
0.0
 11
-30.599999999999909
 21
48.600000000000023
 31
0.0
  0
LINE
  8
DETAIL
  6
CONTINUOUS
 62
     5
 10
-23.39999999999986
 20
41.399999999999977
 30
0.0
 11
-23.39999999999986
 21
48.600000000000023
 31
0.0
  0
LINE
  8
DETAIL
  6
CONTINUOUS
 62
     5
 10
-23.39999999999986
 20
41.399999999999977
 30
0.0
 11
-30.599999999999909
 21
41.399999999999977
 31
0.0
  0
LINE
  8
DETAIL
  6
CONTINUOUS
 62
     5
 10
-14.39999999999986
 20
48.600000000000023
 30
0.0
 11
-21.599999999999909
 21
48.600000000000023
 31
0.0
  0
LINE
  8
DETAIL
  6
CONTINUOUS
 62
     5
 10
-21.599999999999909
 20
41.399999999999977
 30
0.0
 11
-21.599999999999909
 21
48.600000000000023
 31
0.0
  0
LINE
  8
DETAIL
  6
CONTINUOUS
 62
     5
 10
-14.39999999999986
 20
41.399999999999977
 30
0.0
 11
-14.39999999999986
 21
48.600000000000023
 31
0.0
  0
LINE
  8
DETAIL
  6
CONTINUOUS
 62
     5
 10
-14.39999999999986
 20
41.399999999999977
 30
0.0
 11
-21.599999999999909
 21
41.399999999999977
 31
0.0
  0
LINE
  8
DETAIL
  6
CONTINUOUS
 62
     5
 10
-5.3999999999998636
 20
48.600000000000023
 30
0.0
 11
-12.599999999999911
 21
48.600000000000023
 31
0.0
  0
LINE
  8
DETAIL
  6
CONTINUOUS
 62
     5
 10
-12.599999999999911
 20
41.399999999999977
 30
0.0
 11
-12.599999999999911
 21
48.600000000000023
 31
0.0
  0
LINE
  8
DETAIL
  6
CONTINUOUS
 62
     5
 10
-5.3999999999998636
 20
41.399999999999977
 30
0.0
 11
-5.3999999999998636
 21
48.600000000000023
 31
0.0
  0
LINE
  8
DETAIL
  6
CONTINUOUS
 62
     5
 10
-5.3999999999998636
 20
41.399999999999977
 30
0.0
 11
-12.599999999999911
 21
41.399999999999977
 31
0.0
  0
LINE
  8
DETAIL
  6
CONTINUOUS
 62
     5
 10
-23.39999999999986
 20
57.600000000000023
 30
0.0
 11
-30.599999999999909
 21
57.600000000000023
 31
0.0
  0
LINE
  8
DETAIL
  6
CONTINUOUS
 62
     5
 10
-23.39999999999986
 20
50.399999999999977
 30
0.0
 11
-23.39999999999986
 21
57.600000000000023
 31
0.0
  0
LINE
  8
DETAIL
  6
CONTINUOUS
 62
     5
 10
-23.39999999999986
 20
50.399999999999977
 30
0.0
 11
-30.599999999999909
 21
50.399999999999977
 31
0.0
  0
LINE
  8
DETAIL
  6
CONTINUOUS
 62
     5
 10
-23.39999999999986
 20
50.399999999999977
 30
0.0
 11
-30.599999999999909
 21
50.399999999999977
 31
0.0
  0
LINE
  8
DETAIL
  6
CONTINUOUS
 62
     5
 10
-23.39999999999986
 20
57.600000000000023
 30
0.0
 11
-23.39999999999986
 21
50.399999999999977
 31
0.0
  0
LINE
  8
DETAIL
  6
CONTINUOUS
 62
     5
 10
-30.599999999999909
 20
50.399999999999977
 30
0.0
 11
-30.599999999999909
 21
57.600000000000023
 31
0.0
  0
LINE
  8
DETAIL
  6
CONTINUOUS
 62
     5
 10
-14.39999999999986
 20
57.600000000000023
 30
0.0
 11
-21.599999999999909
 21
57.600000000000023
 31
0.0
  0
LINE
  8
DETAIL
  6
CONTINUOUS
 62
     5
 10
-14.39999999999986
 20
50.399999999999977
 30
0.0
 11
-14.39999999999986
 21
57.600000000000023
 31
0.0
  0
LINE
  8
DETAIL
  6
CONTINUOUS
 62
     5
 10
-14.39999999999986
 20
50.399999999999977
 30
0.0
 11
-21.599999999999909
 21
50.399999999999977
 31
0.0
  0
LINE
  8
DETAIL
  6
CONTINUOUS
 62
     5
 10
-14.39999999999986
 20
50.399999999999977
 30
0.0
 11
-21.599999999999909
 21
50.399999999999977
 31
0.0
  0
LINE
  8
DETAIL
  6
CONTINUOUS
 62
     5
 10
-14.39999999999986
 20
57.600000000000023
 30
0.0
 11
-14.39999999999986
 21
50.399999999999977
 31
0.0
  0
LINE
  8
DETAIL
  6
CONTINUOUS
 62
     5
 10
-21.599999999999909
 20
50.399999999999977
 30
0.0
 11
-21.599999999999909
 21
57.600000000000023
 31
0.0
  0
LINE
  8
DETAIL
  6
CONTINUOUS
 62
     5
 10
-5.3999999999998636
 20
57.600000000000023
 30
0.0
 11
-12.599999999999911
 21
57.600000000000023
 31
0.0
  0
LINE
  8
DETAIL
  6
CONTINUOUS
 62
     5
 10
-5.3999999999998636
 20
50.399999999999977
 30
0.0
 11
-5.3999999999998636
 21
57.600000000000023
 31
0.0
  0
LINE
  8
DETAIL
  6
CONTINUOUS
 62
     5
 10
-5.3999999999998636
 20
50.399999999999977
 30
0.0
 11
-12.599999999999911
 21
50.399999999999977
 31
0.0
  0
LINE
  8
DETAIL
  6
CONTINUOUS
 62
     5
 10
-5.3999999999998636
 20
50.399999999999977
 30
0.0
 11
-12.599999999999911
 21
50.399999999999977
 31
0.0
  0
LINE
  8
DETAIL
  6
CONTINUOUS
 62
     5
 10
-5.3999999999998636
 20
57.600000000000023
 30
0.0
 11
-5.3999999999998636
 21
50.399999999999977
 31
0.0
  0
LINE
  8
DETAIL
  6
CONTINUOUS
 62
     5
 10
-12.599999999999911
 20
50.399999999999977
 30
0.0
 11
-12.599999999999911
 21
57.600000000000023
 31
0.0
  0
LINE
  8
DETAIL
  6
CONTINUOUS
 62
     5
 10
-14.39999999999986
 20
66.600000000000023
 30
0.0
 11
-21.599999999999909
 21
66.600000000000023
 31
0.0
  0
LINE
  8
DETAIL
  6
CONTINUOUS
 62
     5
 10
-21.599999999999909
 20
59.399999999999977
 30
0.0
 11
-21.599999999999909
 21
66.600000000000023
 31
0.0
  0
LINE
  8
DETAIL
  6
CONTINUOUS
 62
     5
 10
-14.39999999999986
 20
59.399999999999977
 30
0.0
 11
-14.39999999999986
 21
66.600000000000023
 31
0.0
  0
LINE
  8
DETAIL
  6
CONTINUOUS
 62
     5
 10
-14.39999999999986
 20
59.399999999999977
 30
0.0
 11
-21.599999999999909
 21
59.399999999999977
 31
0.0
  0
LINE
  8
DETAIL
  6
CONTINUOUS
 62
     5
 10
-5.3999999999998636
 20
66.600000000000023
 30
0.0
 11
-12.599999999999911
 21
66.600000000000023
 31
0.0
  0
LINE
  8
DETAIL
  6
CONTINUOUS
 62
     5
 10
-12.599999999999911
 20
59.399999999999977
 30
0.0
 11
-12.599999999999911
 21
66.600000000000023
 31
0.0
  0
LINE
  8
DETAIL
  6
CONTINUOUS
 62
     5
 10
-5.3999999999998636
 20
59.399999999999977
 30
0.0
 11
-5.3999999999998636
 21
66.600000000000023
 31
0.0
  0
LINE
  8
DETAIL
  6
CONTINUOUS
 62
     5
 10
-5.3999999999998636
 20
59.399999999999977
 30
0.0
 11
-12.599999999999911
 21
59.399999999999977
 31
0.0
  0
LINE
  8
DETAIL
  6
CONTINUOUS
 62
     5
 10
-12.599999999999911
 20
68.400000000000091
 30
0.0
 11
-12.599999999999911
 21
75.600000000000023
 31
0.0
  0
LINE
  8
DETAIL
  6
CONTINUOUS
 62
     5
 10
-5.3999999999998636
 20
68.400000000000091
 30
0.0
 11
-5.3999999999998636
 21
75.600000000000023
 31
0.0
  0
LINE
  8
DETAIL
  6
CONTINUOUS
 62
     5
 10
-5.3999999999998636
 20
68.400000000000091
 30
0.0
 11
-12.599999999999911
 21
68.400000000000091
 31
0.0
  0
LINE
  8
DETAIL
  6
CONTINUOUS
 62
     5
 10
-5.3999999999998636
 20
68.400000000000091
 30
0.0
 11
-12.599999999999911
 21
68.400000000000091
 31
0.0
  0
LINE
  8
DETAIL
  6
CONTINUOUS
 62
     5
 10
-5.3999999999998636
 20
75.600000000000023
 30
0.0
 11
-5.3999999999998636
 21
68.400000000000091
 31
0.0
  0
LINE
  8
DETAIL
  6
CONTINUOUS
 62
     5
 10
-5.3999999999998636
 20
75.600000000000023
 30
0.0
 11
-12.599999999999911
 21
75.600000000000023
 31
0.0
  0
LINE
  8
DETAIL
  6
CONTINUOUS
 62
     5
 10
-3.5999999999999091
 20
77.400000000000091
 30
0.0
 11
-3.5999999999999091
 21
84.600000000000023
 31
0.0
  0
LINE
  8
DETAIL
  6
CONTINUOUS
 62
     5
 10
-3.5999999999999091
 20
68.400000000000091
 30
0.0
 11
-3.5999999999999091
 21
75.600000000000023
 31
0.0
  0
LINE
  8
DETAIL
  6
CONTINUOUS
 62
     5
 10
-3.5999999999999091
 20
59.399999999999977
 30
0.0
 11
-3.5999999999999091
 21
66.600000000000023
 31
0.0
  0
LINE
  8
DETAIL
  6
CONTINUOUS
 62
     5
 10
-3.5999999999999091
 20
50.399999999999977
 30
0.0
 11
-3.5999999999999091
 21
57.600000000000023
 31
0.0
  0
LINE
  8
DETAIL
  6
CONTINUOUS
 62
     5
 10
-3.5999999999999091
 20
41.399999999999977
 30
0.0
 11
-3.5999999999999091
 21
48.600000000000023
 31
0.0
  0
LINE
  8
DETAIL
  6
CONTINUOUS
 62
     5
 10
-3.5999999999999091
 20
32.400000000000091
 30
0.0
 11
-3.5999999999999091
 21
39.600000000000023
 31
0.0
  0
LINE
  8
DETAIL
  6
CONTINUOUS
 62
     5
 10
-136.20564899999999
 20
0.0
 30
0.0
 11
-136.20564899999999
 21
-136.20564899999999
 31
0.0
  0
LINE
  8
DETAIL
  6
CONTINUOUS
 62
     5
 10
0.0
 20
-136.20564899999999
 30
0.0
 11
-136.20564899999999
 21
-136.20564899999999
 31
0.0
  0
LINE
  8
DETAIL
  6
CONTINUOUS
 62
     5
 10
-3.5999999999999091
 20
-39.599999999999909
 30
0.0
 11
0.0
 21
-39.599999999999909
 31
0.0
  0
LINE
  8
DETAIL
  6
CONTINUOUS
 62
     5
 10
-3.5999999999999091
 20
-32.399999999999977
 30
0.0
 11
0.0
 21
-32.399999999999977
 31
0.0
  0
LINE
  8
DETAIL
  6
CONTINUOUS
 62
     5
 10
-3.5999999999999091
 20
-48.600000000000023
 30
0.0
 11
0.0
 21
-48.600000000000023
 31
0.0
  0
LINE
  8
DETAIL
  6
CONTINUOUS
 62
     5
 10
-3.5999999999999091
 20
-41.399999999999977
 30
0.0
 11
0.0
 21
-41.399999999999977
 31
0.0
  0
LINE
  8
DETAIL
  6
CONTINUOUS
 62
     5
 10
-3.5999999999999091
 20
-57.600000000000023
 30
0.0
 11
0.0
 21
-57.600000000000023
 31
0.0
  0
LINE
  8
DETAIL
  6
CONTINUOUS
 62
     5
 10
-3.5999999999999091
 20
-50.399999999999977
 30
0.0
 11
0.0
 21
-50.399999999999977
 31
0.0
  0
LINE
  8
DETAIL
  6
CONTINUOUS
 62
     5
 10
-3.5999999999999091
 20
-66.599999999999909
 30
0.0
 11
0.0
 21
-66.599999999999909
 31
0.0
  0
LINE
  8
DETAIL
  6
CONTINUOUS
 62
     5
 10
-3.5999999999999091
 20
-59.399999999999977
 30
0.0
 11
0.0
 21
-59.399999999999977
 31
0.0
  0
LINE
  8
DETAIL
  6
CONTINUOUS
 62
     5
 10
-3.5999999999999091
 20
-75.599999999999909
 30
0.0
 11
0.0
 21
-75.599999999999909
 31
0.0
  0
LINE
  8
DETAIL
  6
CONTINUOUS
 62
     5
 10
-3.5999999999999091
 20
-68.400000000000091
 30
0.0
 11
0.0
 21
-68.400000000000091
 31
0.0
  0
LINE
  8
DETAIL
  6
CONTINUOUS
 62
     5
 10
-3.5999999999999091
 20
-84.599999999999909
 30
0.0
 11
0.0
 21
-84.599999999999909
 31
0.0
  0
LINE
  8
DETAIL
  6
CONTINUOUS
 62
     5
 10
-3.5999999999999091
 20
-77.400000000000091
 30
0.0
 11
0.0
 21
-77.400000000000091
 31
0.0
  0
LINE
  8
DETAIL
  6
CONTINUOUS
 62
     5
 10
-3.5999999999999091
 20
-93.599999999999909
 30
0.0
 11
0.0
 21
-93.599999999999909
 31
0.0
  0
LINE
  8
DETAIL
  6
CONTINUOUS
 62
     5
 10
-3.5999999999999091
 20
-86.400000000000091
 30
0.0
 11
0.0
 21
-86.400000000000091
 31
0.0
  0
LINE
  8
DETAIL
  6
CONTINUOUS
 62
     5
 10
-86.399999999999864
 20
-3.5999999999999091
 30
0.0
 11
-86.399999999999864
 21
0.0
 31
0.0
  0
LINE
  8
DETAIL
  6
CONTINUOUS
 62
     5
 10
-93.599999999999909
 20
-3.5999999999999091
 30
0.0
 11
-93.599999999999909
 21
0.0
 31
0.0
  0
LINE
  8
DETAIL
  6
CONTINUOUS
 62
     5
 10
-32.399999999999856
 20
-3.5999999999999091
 30
0.0
 11
-32.399999999999856
 21
0.0
 31
0.0
  0
LINE
  8
DETAIL
  6
CONTINUOUS
 62
     5
 10
-39.599999999999909
 20
-3.5999999999999091
 30
0.0
 11
-39.599999999999909
 21
0.0
 31
0.0
  0
LINE
  8
DETAIL
  6
CONTINUOUS
 62
     5
 10
-41.399999999999856
 20
-3.5999999999999091
 30
0.0
 11
-41.399999999999856
 21
0.0
 31
0.0
  0
LINE
  8
DETAIL
  6
CONTINUOUS
 62
     5
 10
-48.599999999999909
 20
-3.5999999999999091
 30
0.0
 11
-48.599999999999909
 21
0.0
 31
0.0
  0
LINE
  8
DETAIL
  6
CONTINUOUS
 62
     5
 10
-50.399999999999856
 20
-3.5999999999999091
 30
0.0
 11
-50.399999999999856
 21
0.0
 31
0.0
  0
LINE
  8
DETAIL
  6
CONTINUOUS
 62
     5
 10
-57.599999999999909
 20
-3.5999999999999091
 30
0.0
 11
-57.599999999999909
 21
0.0
 31
0.0
  0
LINE
  8
DETAIL
  6
CONTINUOUS
 62
     5
 10
-59.399999999999856
 20
-3.5999999999999091
 30
0.0
 11
-59.399999999999856
 21
0.0
 31
0.0
  0
LINE
  8
DETAIL
  6
CONTINUOUS
 62
     5
 10
-66.599999999999909
 20
-3.5999999999999091
 30
0.0
 11
-66.599999999999909
 21
0.0
 31
0.0
  0
LINE
  8
DETAIL
  6
CONTINUOUS
 62
     5
 10
-68.399999999999864
 20
-3.5999999999999091
 30
0.0
 11
-68.399999999999864
 21
0.0
 31
0.0
  0
LINE
  8
DETAIL
  6
CONTINUOUS
 62
     5
 10
-75.599999999999909
 20
-3.5999999999999091
 30
0.0
 11
-75.599999999999909
 21
0.0
 31
0.0
  0
LINE
  8
DETAIL
  6
CONTINUOUS
 62
     5
 10
-77.399999999999864
 20
-3.5999999999999091
 30
0.0
 11
-77.399999999999864
 21
0.0
 31
0.0
  0
LINE
  8
DETAIL
  6
CONTINUOUS
 62
     5
 10
-84.599999999999909
 20
-3.5999999999999091
 30
0.0
 11
-84.599999999999909
 21
0.0
 31
0.0
  0
LINE
  8
DETAIL
  6
CONTINUOUS
 62
     5
 10
-99.5
 20
-95.5
 30
0.0
 11
-99.5
 21
0.0
 31
0.0
  0
LINE
  8
DETAIL
  6
CONTINUOUS
 62
     5
 10
-101.0
 20
-97.0
 30
0.0
 11
-101.0
 21
0.0
 31
0.0
  0
LINE
  8
DETAIL
  6
CONTINUOUS
 62
     5
 10
0.0
 20
-101.0
 30
0.0
 11
-97.0
 21
-101.0
 31
0.0
  0
LINE
  8
DETAIL
  6
CONTINUOUS
 62
     5
 10
0.0
 20
-99.5
 30
0.0
 11
-95.5
 21
-99.5
 31
0.0
  0
LINE
  8
DETAIL
  6
CONTINUOUS
 62
     5
 10
-32.399999999999856
 20
-57.600000000000023
 30
0.0
 11
-39.599999999999909
 21
-57.600000000000023
 31
0.0
  0
LINE
  8
DETAIL
  6
CONTINUOUS
 62
     5
 10
-32.399999999999856
 20
-50.399999999999977
 30
0.0
 11
-32.399999999999856
 21
-57.600000000000023
 31
0.0
  0
LINE
  8
DETAIL
  6
CONTINUOUS
 62
     5
 10
-32.399999999999856
 20
-50.399999999999977
 30
0.0
 11
-39.599999999999909
 21
-50.399999999999977
 31
0.0
  0
LINE
  8
DETAIL
  6
CONTINUOUS
 62
     5
 10
-23.39999999999986
 20
-57.600000000000023
 30
0.0
 11
-30.599999999999909
 21
-57.600000000000023
 31
0.0
  0
LINE
  8
DETAIL
  6
CONTINUOUS
 62
     5
 10
-32.399999999999856
 20
-66.599999999999909
 30
0.0
 11
-39.599999999999909
 21
-66.599999999999909
 31
0.0
  0
LINE
  8
DETAIL
  6
CONTINUOUS
 62
     5
 10
-32.399999999999856
 20
-59.399999999999977
 30
0.0
 11
-32.399999999999856
 21
-66.599999999999909
 31
0.0
  0
LINE
  8
DETAIL
  6
CONTINUOUS
 62
     5
 10
-32.399999999999856
 20
-59.399999999999977
 30
0.0
 11
-39.599999999999909
 21
-59.399999999999977
 31
0.0
  0
LINE
  8
DETAIL
  6
CONTINUOUS
 62
     5
 10
-23.39999999999986
 20
-66.599999999999909
 30
0.0
 11
-30.599999999999909
 21
-66.599999999999909
 31
0.0
  0
LINE
  8
DETAIL
  6
CONTINUOUS
 62
     5
 10
-30.599999999999909
 20
-59.399999999999977
 30
0.0
 11
-30.599999999999909
 21
-66.599999999999909
 31
0.0
  0
LINE
  8
DETAIL
  6
CONTINUOUS
 62
     5
 10
-23.39999999999986
 20
-59.399999999999977
 30
0.0
 11
-23.39999999999986
 21
-66.599999999999909
 31
0.0
  0
LINE
  8
DETAIL
  6
CONTINUOUS
 62
     5
 10
-23.39999999999986
 20
-59.399999999999977
 30
0.0
 11
-30.599999999999909
 21
-59.399999999999977
 31
0.0
  0
LINE
  8
DETAIL
  6
CONTINUOUS
 62
     5
 10
-32.399999999999856
 20
-75.599999999999909
 30
0.0
 11
-39.599999999999909
 21
-75.599999999999909
 31
0.0
  0
LINE
  8
DETAIL
  6
CONTINUOUS
 62
     5
 10
-32.399999999999856
 20
-68.400000000000091
 30
0.0
 11
-32.399999999999856
 21
-75.599999999999909
 31
0.0
  0
LINE
  8
DETAIL
  6
CONTINUOUS
 62
     5
 10
-32.399999999999856
 20
-68.400000000000091
 30
0.0
 11
-39.599999999999909
 21
-68.400000000000091
 31
0.0
  0
LINE
  8
DETAIL
  6
CONTINUOUS
 62
     5
 10
-23.39999999999986
 20
-75.599999999999909
 30
0.0
 11
-30.599999999999909
 21
-75.599999999999909
 31
0.0
  0
LINE
  8
DETAIL
  6
CONTINUOUS
 62
     5
 10
-30.599999999999909
 20
-68.400000000000091
 30
0.0
 11
-30.599999999999909
 21
-75.599999999999909
 31
0.0
  0
LINE
  8
DETAIL
  6
CONTINUOUS
 62
     5
 10
-23.39999999999986
 20
-68.400000000000091
 30
0.0
 11
-23.39999999999986
 21
-75.599999999999909
 31
0.0
  0
LINE
  8
DETAIL
  6
CONTINUOUS
 62
     5
 10
-23.39999999999986
 20
-68.400000000000091
 30
0.0
 11
-30.599999999999909
 21
-68.400000000000091
 31
0.0
  0
LINE
  8
DETAIL
  6
CONTINUOUS
 62
     5
 10
-14.39999999999986
 20
-75.599999999999909
 30
0.0
 11
-21.599999999999909
 21
-75.599999999999909
 31
0.0
  0
LINE
  8
DETAIL
  6
CONTINUOUS
 62
     5
 10
-21.599999999999909
 20
-68.400000000000091
 30
0.0
 11
-21.599999999999909
 21
-75.599999999999909
 31
0.0
  0
LINE
  8
DETAIL
  6
CONTINUOUS
 62
     5
 10
-14.39999999999986
 20
-68.400000000000091
 30
0.0
 11
-14.39999999999986
 21
-75.599999999999909
 31
0.0
  0
LINE
  8
DETAIL
  6
CONTINUOUS
 62
     5
 10
-14.39999999999986
 20
-68.400000000000091
 30
0.0
 11
-21.599999999999909
 21
-68.400000000000091
 31
0.0
  0
LINE
  8
DETAIL
  6
CONTINUOUS
 62
     5
 10
-32.399999999999856
 20
-84.599999999999909
 30
0.0
 11
-39.599999999999909
 21
-84.599999999999909
 31
0.0
  0
LINE
  8
DETAIL
  6
CONTINUOUS
 62
     5
 10
-32.399999999999856
 20
-77.400000000000091
 30
0.0
 11
-32.399999999999856
 21
-84.599999999999909
 31
0.0
  0
LINE
  8
DETAIL
  6
CONTINUOUS
 62
     5
 10
-32.399999999999856
 20
-77.400000000000091
 30
0.0
 11
-39.599999999999909
 21
-77.400000000000091
 31
0.0
  0
LINE
  8
DETAIL
  6
CONTINUOUS
 62
     5
 10
-23.39999999999986
 20
-84.599999999999909
 30
0.0
 11
-30.599999999999909
 21
-84.599999999999909
 31
0.0
  0
LINE
  8
DETAIL
  6
CONTINUOUS
 62
     5
 10
-30.599999999999909
 20
-77.400000000000091
 30
0.0
 11
-30.599999999999909
 21
-84.599999999999909
 31
0.0
  0
LINE
  8
DETAIL
  6
CONTINUOUS
 62
     5
 10
-23.39999999999986
 20
-77.400000000000091
 30
0.0
 11
-23.39999999999986
 21
-84.599999999999909
 31
0.0
  0
LINE
  8
DETAIL
  6
CONTINUOUS
 62
     5
 10
-23.39999999999986
 20
-77.400000000000091
 30
0.0
 11
-30.599999999999909
 21
-77.400000000000091
 31
0.0
  0
LINE
  8
DETAIL
  6
CONTINUOUS
 62
     5
 10
-14.39999999999986
 20
-84.599999999999909
 30
0.0
 11
-21.599999999999909
 21
-84.599999999999909
 31
0.0
  0
LINE
  8
DETAIL
  6
CONTINUOUS
 62
     5
 10
-21.599999999999909
 20
-77.400000000000091
 30
0.0
 11
-21.599999999999909
 21
-84.599999999999909
 31
0.0
  0
LINE
  8
DETAIL
  6
CONTINUOUS
 62
     5
 10
-14.39999999999986
 20
-77.400000000000091
 30
0.0
 11
-14.39999999999986
 21
-84.599999999999909
 31
0.0
  0
LINE
  8
DETAIL
  6
CONTINUOUS
 62
     5
 10
-14.39999999999986
 20
-77.400000000000091
 30
0.0
 11
-21.599999999999909
 21
-77.400000000000091
 31
0.0
  0
LINE
  8
DETAIL
  6
CONTINUOUS
 62
     5
 10
-5.3999999999998636
 20
-84.599999999999909
 30
0.0
 11
-12.599999999999911
 21
-84.599999999999909
 31
0.0
  0
LINE
  8
DETAIL
  6
CONTINUOUS
 62
     5
 10
-12.599999999999911
 20
-77.400000000000091
 30
0.0
 11
-12.599999999999911
 21
-84.599999999999909
 31
0.0
  0
LINE
  8
DETAIL
  6
CONTINUOUS
 62
     5
 10
-5.3999999999998636
 20
-77.400000000000091
 30
0.0
 11
-5.3999999999998636
 21
-84.599999999999909
 31
0.0
  0
LINE
  8
DETAIL
  6
CONTINUOUS
 62
     5
 10
-5.3999999999998636
 20
-77.400000000000091
 30
0.0
 11
-12.599999999999911
 21
-77.400000000000091
 31
0.0
  0
LINE
  8
DETAIL
  6
CONTINUOUS
 62
     5
 10
-32.399999999999856
 20
-93.599999999999909
 30
0.0
 11
-39.599999999999909
 21
-93.599999999999909
 31
0.0
  0
LINE
  8
DETAIL
  6
CONTINUOUS
 62
     5
 10
-32.399999999999856
 20
-86.400000000000091
 30
0.0
 11
-32.399999999999856
 21
-93.599999999999909
 31
0.0
  0
LINE
  8
DETAIL
  6
CONTINUOUS
 62
     5
 10
-32.399999999999856
 20
-86.400000000000091
 30
0.0
 11
-39.599999999999909
 21
-86.400000000000091
 31
0.0
  0
LINE
  8
DETAIL
  6
CONTINUOUS
 62
     5
 10
-23.39999999999986
 20
-93.599999999999909
 30
0.0
 11
-30.599999999999909
 21
-93.599999999999909
 31
0.0
  0
LINE
  8
DETAIL
  6
CONTINUOUS
 62
     5
 10
-30.599999999999909
 20
-86.400000000000091
 30
0.0
 11
-30.599999999999909
 21
-93.599999999999909
 31
0.0
  0
LINE
  8
DETAIL
  6
CONTINUOUS
 62
     5
 10
-23.39999999999986
 20
-86.400000000000091
 30
0.0
 11
-23.39999999999986
 21
-93.599999999999909
 31
0.0
  0
LINE
  8
DETAIL
  6
CONTINUOUS
 62
     5
 10
-23.39999999999986
 20
-86.400000000000091
 30
0.0
 11
-30.599999999999909
 21
-86.400000000000091
 31
0.0
  0
LINE
  8
DETAIL
  6
CONTINUOUS
 62
     5
 10
-14.39999999999986
 20
-93.599999999999909
 30
0.0
 11
-21.599999999999909
 21
-93.599999999999909
 31
0.0
  0
LINE
  8
DETAIL
  6
CONTINUOUS
 62
     5
 10
-21.599999999999909
 20
-86.400000000000091
 30
0.0
 11
-21.599999999999909
 21
-93.599999999999909
 31
0.0
  0
LINE
  8
DETAIL
  6
CONTINUOUS
 62
     5
 10
-14.39999999999986
 20
-86.400000000000091
 30
0.0
 11
-14.39999999999986
 21
-93.599999999999909
 31
0.0
  0
LINE
  8
DETAIL
  6
CONTINUOUS
 62
     5
 10
-14.39999999999986
 20
-86.400000000000091
 30
0.0
 11
-21.599999999999909
 21
-86.400000000000091
 31
0.0
  0
LINE
  8
DETAIL
  6
CONTINUOUS
 62
     5
 10
-5.3999999999998636
 20
-93.599999999999909
 30
0.0
 11
-12.599999999999911
 21
-93.599999999999909
 31
0.0
  0
LINE
  8
DETAIL
  6
CONTINUOUS
 62
     5
 10
-12.599999999999911
 20
-86.400000000000091
 30
0.0
 11
-12.599999999999911
 21
-93.599999999999909
 31
0.0
  0
LINE
  8
DETAIL
  6
CONTINUOUS
 62
     5
 10
-5.3999999999998636
 20
-86.400000000000091
 30
0.0
 11
-5.3999999999998636
 21
-93.599999999999909
 31
0.0
  0
LINE
  8
DETAIL
  6
CONTINUOUS
 62
     5
 10
-5.3999999999998636
 20
-86.400000000000091
 30
0.0
 11
-12.599999999999911
 21
-86.400000000000091
 31
0.0
  0
LINE
  8
DETAIL
  6
CONTINUOUS
 62
     5
 10
-3.5999999999999091
 20
-86.400000000000091
 30
0.0
 11
-3.5999999999999091
 21
-93.599999999999909
 31
0.0
  0
LINE
  8
DETAIL
  6
CONTINUOUS
 62
     5
 10
-14.39999999999986
 20
-68.400000000000091
 30
0.0
 11
-21.599999999999909
 21
-68.400000000000091
 31
0.0
  0
LINE
  8
DETAIL
  6
CONTINUOUS
 62
     5
 10
-14.39999999999986
 20
-75.599999999999909
 30
0.0
 11
-14.39999999999986
 21
-68.400000000000091
 31
0.0
  0
LINE
  8
DETAIL
  6
CONTINUOUS
 62
     5
 10
-32.399999999999856
 20
-59.399999999999977
 30
0.0
 11
-39.599999999999909
 21
-59.399999999999977
 31
0.0
  0
LINE
  8
DETAIL
  6
CONTINUOUS
 62
     5
 10
-32.399999999999856
 20
-50.399999999999977
 30
0.0
 11
-39.599999999999909
 21
-50.399999999999977
 31
0.0
  0
LINE
  8
DETAIL
  6
CONTINUOUS
 62
     5
 10
-32.399999999999856
 20
-57.600000000000023
 30
0.0
 11
-32.399999999999856
 21
-50.399999999999977
 31
0.0
  0
LINE
  8
DETAIL
  6
CONTINUOUS
 62
     5
 10
-86.399999999999864
 20
-3.5999999999999091
 30
0.0
 11
-93.599999999999909
 21
-3.5999999999999091
 31
0.0
  0
LINE
  8
DETAIL
  6
CONTINUOUS
 62
     5
 10
-86.399999999999864
 20
-12.599999999999911
 30
0.0
 11
-93.599999999999909
 21
-12.599999999999911
 31
0.0
  0
LINE
  8
DETAIL
  6
CONTINUOUS
 62
     5
 10
-93.599999999999909
 20
-5.3999999999999773
 30
0.0
 11
-93.599999999999909
 21
-12.599999999999911
 31
0.0
  0
LINE
  8
DETAIL
  6
CONTINUOUS
 62
     5
 10
-86.399999999999864
 20
-5.3999999999999773
 30
0.0
 11
-86.399999999999864
 21
-12.599999999999911
 31
0.0
  0
LINE
  8
DETAIL
  6
CONTINUOUS
 62
     5
 10
-86.399999999999864
 20
-5.3999999999999773
 30
0.0
 11
-93.599999999999909
 21
-5.3999999999999773
 31
0.0
  0
LINE
  8
DETAIL
  6
CONTINUOUS
 62
     5
 10
-77.399999999999864
 20
-12.599999999999911
 30
0.0
 11
-84.599999999999909
 21
-12.599999999999911
 31
0.0
  0
LINE
  8
DETAIL
  6
CONTINUOUS
 62
     5
 10
-84.599999999999909
 20
-5.3999999999999773
 30
0.0
 11
-84.599999999999909
 21
-12.599999999999911
 31
0.0
  0
LINE
  8
DETAIL
  6
CONTINUOUS
 62
     5
 10
-77.399999999999864
 20
-5.3999999999999773
 30
0.0
 11
-77.399999999999864
 21
-12.599999999999911
 31
0.0
  0
LINE
  8
DETAIL
  6
CONTINUOUS
 62
     5
 10
-77.399999999999864
 20
-5.3999999999999773
 30
0.0
 11
-84.599999999999909
 21
-5.3999999999999773
 31
0.0
  0
LINE
  8
DETAIL
  6
CONTINUOUS
 62
     5
 10
-86.399999999999864
 20
-21.600000000000019
 30
0.0
 11
-93.599999999999909
 21
-21.600000000000019
 31
0.0
  0
LINE
  8
DETAIL
  6
CONTINUOUS
 62
     5
 10
-93.599999999999909
 20
-14.399999999999981
 30
0.0
 11
-93.599999999999909
 21
-21.600000000000019
 31
0.0
  0
LINE
  8
DETAIL
  6
CONTINUOUS
 62
     5
 10
-86.399999999999864
 20
-14.399999999999981
 30
0.0
 11
-86.399999999999864
 21
-21.600000000000019
 31
0.0
  0
LINE
  8
DETAIL
  6
CONTINUOUS
 62
     5
 10
-86.399999999999864
 20
-14.399999999999981
 30
0.0
 11
-93.599999999999909
 21
-14.399999999999981
 31
0.0
  0
LINE
  8
DETAIL
  6
CONTINUOUS
 62
     5
 10
-77.399999999999864
 20
-21.600000000000019
 30
0.0
 11
-84.599999999999909
 21
-21.600000000000019
 31
0.0
  0
LINE
  8
DETAIL
  6
CONTINUOUS
 62
     5
 10
-84.599999999999909
 20
-14.399999999999981
 30
0.0
 11
-84.599999999999909
 21
-21.600000000000019
 31
0.0
  0
LINE
  8
DETAIL
  6
CONTINUOUS
 62
     5
 10
-77.399999999999864
 20
-14.399999999999981
 30
0.0
 11
-77.399999999999864
 21
-21.600000000000019
 31
0.0
  0
LINE
  8
DETAIL
  6
CONTINUOUS
 62
     5
 10
-77.399999999999864
 20
-14.399999999999981
 30
0.0
 11
-84.599999999999909
 21
-14.399999999999981
 31
0.0
  0
LINE
  8
DETAIL
  6
CONTINUOUS
 62
     5
 10
-68.399999999999864
 20
-21.600000000000019
 30
0.0
 11
-75.599999999999909
 21
-21.600000000000019
 31
0.0
  0
LINE
  8
DETAIL
  6
CONTINUOUS
 62
     5
 10
-75.599999999999909
 20
-14.399999999999981
 30
0.0
 11
-75.599999999999909
 21
-21.600000000000019
 31
0.0
  0
LINE
  8
DETAIL
  6
CONTINUOUS
 62
     5
 10
-68.399999999999864
 20
-14.399999999999981
 30
0.0
 11
-68.399999999999864
 21
-21.600000000000019
 31
0.0
  0
LINE
  8
DETAIL
  6
CONTINUOUS
 62
     5
 10
-68.399999999999864
 20
-14.399999999999981
 30
0.0
 11
-75.599999999999909
 21
-14.399999999999981
 31
0.0
  0
LINE
  8
DETAIL
  6
CONTINUOUS
 62
     5
 10
-86.399999999999864
 20
-30.600000000000019
 30
0.0
 11
-93.599999999999909
 21
-30.600000000000019
 31
0.0
  0
LINE
  8
DETAIL
  6
CONTINUOUS
 62
     5
 10
-93.599999999999909
 20
-23.399999999999981
 30
0.0
 11
-93.599999999999909
 21
-30.600000000000019
 31
0.0
  0
LINE
  8
DETAIL
  6
CONTINUOUS
 62
     5
 10
-86.399999999999864
 20
-23.399999999999981
 30
0.0
 11
-86.399999999999864
 21
-30.600000000000019
 31
0.0
  0
LINE
  8
DETAIL
  6
CONTINUOUS
 62
     5
 10
-86.399999999999864
 20
-23.399999999999981
 30
0.0
 11
-93.599999999999909
 21
-23.399999999999981
 31
0.0
  0
LINE
  8
DETAIL
  6
CONTINUOUS
 62
     5
 10
-77.399999999999864
 20
-30.600000000000019
 30
0.0
 11
-84.599999999999909
 21
-30.600000000000019
 31
0.0
  0
LINE
  8
DETAIL
  6
CONTINUOUS
 62
     5
 10
-84.599999999999909
 20
-23.399999999999981
 30
0.0
 11
-84.599999999999909
 21
-30.600000000000019
 31
0.0
  0
LINE
  8
DETAIL
  6
CONTINUOUS
 62
     5
 10
-77.399999999999864
 20
-23.399999999999981
 30
0.0
 11
-77.399999999999864
 21
-30.600000000000019
 31
0.0
  0
LINE
  8
DETAIL
  6
CONTINUOUS
 62
     5
 10
-77.399999999999864
 20
-23.399999999999981
 30
0.0
 11
-84.599999999999909
 21
-23.399999999999981
 31
0.0
  0
LINE
  8
DETAIL
  6
CONTINUOUS
 62
     5
 10
-68.399999999999864
 20
-30.600000000000019
 30
0.0
 11
-75.599999999999909
 21
-30.600000000000019
 31
0.0
  0
LINE
  8
DETAIL
  6
CONTINUOUS
 62
     5
 10
-75.599999999999909
 20
-23.399999999999981
 30
0.0
 11
-75.599999999999909
 21
-30.600000000000019
 31
0.0
  0
LINE
  8
DETAIL
  6
CONTINUOUS
 62
     5
 10
-68.399999999999864
 20
-23.399999999999981
 30
0.0
 11
-68.399999999999864
 21
-30.600000000000019
 31
0.0
  0
LINE
  8
DETAIL
  6
CONTINUOUS
 62
     5
 10
-68.399999999999864
 20
-23.399999999999981
 30
0.0
 11
-75.599999999999909
 21
-23.399999999999981
 31
0.0
  0
LINE
  8
DETAIL
  6
CONTINUOUS
 62
     5
 10
-59.399999999999856
 20
-30.600000000000019
 30
0.0
 11
-66.599999999999909
 21
-30.600000000000019
 31
0.0
  0
LINE
  8
DETAIL
  6
CONTINUOUS
 62
     5
 10
-66.599999999999909
 20
-23.399999999999981
 30
0.0
 11
-66.599999999999909
 21
-30.600000000000019
 31
0.0
  0
LINE
  8
DETAIL
  6
CONTINUOUS
 62
     5
 10
-59.399999999999856
 20
-23.399999999999981
 30
0.0
 11
-59.399999999999856
 21
-30.600000000000019
 31
0.0
  0
LINE
  8
DETAIL
  6
CONTINUOUS
 62
     5
 10
-59.399999999999856
 20
-23.399999999999981
 30
0.0
 11
-66.599999999999909
 21
-23.399999999999981
 31
0.0
  0
LINE
  8
DETAIL
  6
CONTINUOUS
 62
     5
 10
-86.399999999999864
 20
-39.599999999999909
 30
0.0
 11
-93.599999999999909
 21
-39.599999999999909
 31
0.0
  0
LINE
  8
DETAIL
  6
CONTINUOUS
 62
     5
 10
-93.599999999999909
 20
-32.399999999999977
 30
0.0
 11
-93.599999999999909
 21
-39.599999999999909
 31
0.0
  0
LINE
  8
DETAIL
  6
CONTINUOUS
 62
     5
 10
-86.399999999999864
 20
-32.399999999999977
 30
0.0
 11
-86.399999999999864
 21
-39.599999999999909
 31
0.0
  0
LINE
  8
DETAIL
  6
CONTINUOUS
 62
     5
 10
-86.399999999999864
 20
-32.399999999999977
 30
0.0
 11
-93.599999999999909
 21
-32.399999999999977
 31
0.0
  0
LINE
  8
DETAIL
  6
CONTINUOUS
 62
     5
 10
-77.399999999999864
 20
-39.599999999999909
 30
0.0
 11
-84.599999999999909
 21
-39.599999999999909
 31
0.0
  0
LINE
  8
DETAIL
  6
CONTINUOUS
 62
     5
 10
-84.599999999999909
 20
-32.399999999999977
 30
0.0
 11
-84.599999999999909
 21
-39.599999999999909
 31
0.0
  0
LINE
  8
DETAIL
  6
CONTINUOUS
 62
     5
 10
-77.399999999999864
 20
-32.399999999999977
 30
0.0
 11
-77.399999999999864
 21
-39.599999999999909
 31
0.0
  0
LINE
  8
DETAIL
  6
CONTINUOUS
 62
     5
 10
-77.399999999999864
 20
-32.399999999999977
 30
0.0
 11
-84.599999999999909
 21
-32.399999999999977
 31
0.0
  0
LINE
  8
DETAIL
  6
CONTINUOUS
 62
     5
 10
-68.399999999999864
 20
-39.599999999999909
 30
0.0
 11
-75.599999999999909
 21
-39.599999999999909
 31
0.0
  0
LINE
  8
DETAIL
  6
CONTINUOUS
 62
     5
 10
-75.599999999999909
 20
-32.399999999999977
 30
0.0
 11
-75.599999999999909
 21
-39.599999999999909
 31
0.0
  0
LINE
  8
DETAIL
  6
CONTINUOUS
 62
     5
 10
-68.399999999999864
 20
-32.399999999999977
 30
0.0
 11
-68.399999999999864
 21
-39.599999999999909
 31
0.0
  0
LINE
  8
DETAIL
  6
CONTINUOUS
 62
     5
 10
-68.399999999999864
 20
-32.399999999999977
 30
0.0
 11
-75.599999999999909
 21
-32.399999999999977
 31
0.0
  0
LINE
  8
DETAIL
  6
CONTINUOUS
 62
     5
 10
-59.399999999999856
 20
-39.599999999999909
 30
0.0
 11
-66.599999999999909
 21
-39.599999999999909
 31
0.0
  0
LINE
  8
DETAIL
  6
CONTINUOUS
 62
     5
 10
-66.599999999999909
 20
-32.399999999999977
 30
0.0
 11
-66.599999999999909
 21
-39.599999999999909
 31
0.0
  0
LINE
  8
DETAIL
  6
CONTINUOUS
 62
     5
 10
-59.399999999999856
 20
-32.399999999999977
 30
0.0
 11
-59.399999999999856
 21
-39.599999999999909
 31
0.0
  0
LINE
  8
DETAIL
  6
CONTINUOUS
 62
     5
 10
-59.399999999999856
 20
-32.399999999999977
 30
0.0
 11
-66.599999999999909
 21
-32.399999999999977
 31
0.0
  0
LINE
  8
DETAIL
  6
CONTINUOUS
 62
     5
 10
-50.399999999999856
 20
-39.599999999999909
 30
0.0
 11
-57.599999999999909
 21
-39.599999999999909
 31
0.0
  0
LINE
  8
DETAIL
  6
CONTINUOUS
 62
     5
 10
-57.599999999999909
 20
-32.399999999999977
 30
0.0
 11
-57.599999999999909
 21
-39.599999999999909
 31
0.0
  0
LINE
  8
DETAIL
  6
CONTINUOUS
 62
     5
 10
-50.399999999999856
 20
-32.399999999999977
 30
0.0
 11
-50.399999999999856
 21
-39.599999999999909
 31
0.0
  0
LINE
  8
DETAIL
  6
CONTINUOUS
 62
     5
 10
-50.399999999999856
 20
-32.399999999999977
 30
0.0
 11
-57.599999999999909
 21
-32.399999999999977
 31
0.0
  0
LINE
  8
DETAIL
  6
CONTINUOUS
 62
     5
 10
-86.399999999999864
 20
-48.600000000000023
 30
0.0
 11
-93.599999999999909
 21
-48.600000000000023
 31
0.0
  0
LINE
  8
DETAIL
  6
CONTINUOUS
 62
     5
 10
-93.599999999999909
 20
-41.399999999999977
 30
0.0
 11
-93.599999999999909
 21
-48.600000000000023
 31
0.0
  0
LINE
  8
DETAIL
  6
CONTINUOUS
 62
     5
 10
-86.399999999999864
 20
-41.399999999999977
 30
0.0
 11
-86.399999999999864
 21
-48.600000000000023
 31
0.0
  0
LINE
  8
DETAIL
  6
CONTINUOUS
 62
     5
 10
-86.399999999999864
 20
-41.399999999999977
 30
0.0
 11
-93.599999999999909
 21
-41.399999999999977
 31
0.0
  0
LINE
  8
DETAIL
  6
CONTINUOUS
 62
     5
 10
-77.399999999999864
 20
-48.600000000000023
 30
0.0
 11
-84.599999999999909
 21
-48.600000000000023
 31
0.0
  0
LINE
  8
DETAIL
  6
CONTINUOUS
 62
     5
 10
-84.599999999999909
 20
-41.399999999999977
 30
0.0
 11
-84.599999999999909
 21
-48.600000000000023
 31
0.0
  0
LINE
  8
DETAIL
  6
CONTINUOUS
 62
     5
 10
-77.399999999999864
 20
-41.399999999999977
 30
0.0
 11
-77.399999999999864
 21
-48.600000000000023
 31
0.0
  0
LINE
  8
DETAIL
  6
CONTINUOUS
 62
     5
 10
-77.399999999999864
 20
-41.399999999999977
 30
0.0
 11
-84.599999999999909
 21
-41.399999999999977
 31
0.0
  0
LINE
  8
DETAIL
  6
CONTINUOUS
 62
     5
 10
-68.399999999999864
 20
-48.600000000000023
 30
0.0
 11
-75.599999999999909
 21
-48.600000000000023
 31
0.0
  0
LINE
  8
DETAIL
  6
CONTINUOUS
 62
     5
 10
-75.599999999999909
 20
-41.399999999999977
 30
0.0
 11
-75.599999999999909
 21
-48.600000000000023
 31
0.0
  0
LINE
  8
DETAIL
  6
CONTINUOUS
 62
     5
 10
-68.399999999999864
 20
-41.399999999999977
 30
0.0
 11
-68.399999999999864
 21
-48.600000000000023
 31
0.0
  0
LINE
  8
DETAIL
  6
CONTINUOUS
 62
     5
 10
-68.399999999999864
 20
-41.399999999999977
 30
0.0
 11
-75.599999999999909
 21
-41.399999999999977
 31
0.0
  0
LINE
  8
DETAIL
  6
CONTINUOUS
 62
     5
 10
-59.399999999999856
 20
-48.600000000000023
 30
0.0
 11
-66.599999999999909
 21
-48.600000000000023
 31
0.0
  0
LINE
  8
DETAIL
  6
CONTINUOUS
 62
     5
 10
-66.599999999999909
 20
-41.399999999999977
 30
0.0
 11
-66.599999999999909
 21
-48.600000000000023
 31
0.0
  0
LINE
  8
DETAIL
  6
CONTINUOUS
 62
     5
 10
-59.399999999999856
 20
-41.399999999999977
 30
0.0
 11
-59.399999999999856
 21
-48.600000000000023
 31
0.0
  0
LINE
  8
DETAIL
  6
CONTINUOUS
 62
     5
 10
-59.399999999999856
 20
-41.399999999999977
 30
0.0
 11
-66.599999999999909
 21
-41.399999999999977
 31
0.0
  0
LINE
  8
DETAIL
  6
CONTINUOUS
 62
     5
 10
-50.399999999999856
 20
-48.600000000000023
 30
0.0
 11
-57.599999999999909
 21
-48.600000000000023
 31
0.0
  0
LINE
  8
DETAIL
  6
CONTINUOUS
 62
     5
 10
-57.599999999999909
 20
-41.399999999999977
 30
0.0
 11
-57.599999999999909
 21
-48.600000000000023
 31
0.0
  0
LINE
  8
DETAIL
  6
CONTINUOUS
 62
     5
 10
-50.399999999999856
 20
-41.399999999999977
 30
0.0
 11
-50.399999999999856
 21
-48.600000000000023
 31
0.0
  0
LINE
  8
DETAIL
  6
CONTINUOUS
 62
     5
 10
-50.399999999999856
 20
-41.399999999999977
 30
0.0
 11
-57.599999999999909
 21
-41.399999999999977
 31
0.0
  0
LINE
  8
DETAIL
  6
CONTINUOUS
 62
     5
 10
-41.399999999999856
 20
-48.600000000000023
 30
0.0
 11
-48.599999999999909
 21
-48.600000000000023
 31
0.0
  0
LINE
  8
DETAIL
  6
CONTINUOUS
 62
     5
 10
-48.599999999999909
 20
-41.399999999999977
 30
0.0
 11
-48.599999999999909
 21
-48.600000000000023
 31
0.0
  0
LINE
  8
DETAIL
  6
CONTINUOUS
 62
     5
 10
-41.399999999999856
 20
-41.399999999999977
 30
0.0
 11
-41.399999999999856
 21
-48.600000000000023
 31
0.0
  0
LINE
  8
DETAIL
  6
CONTINUOUS
 62
     5
 10
-41.399999999999856
 20
-41.399999999999977
 30
0.0
 11
-48.599999999999909
 21
-41.399999999999977
 31
0.0
  0
LINE
  8
DETAIL
  6
CONTINUOUS
 62
     5
 10
-86.399999999999864
 20
-57.600000000000023
 30
0.0
 11
-93.599999999999909
 21
-57.600000000000023
 31
0.0
  0
LINE
  8
DETAIL
  6
CONTINUOUS
 62
     5
 10
-93.599999999999909
 20
-50.399999999999977
 30
0.0
 11
-93.599999999999909
 21
-57.600000000000023
 31
0.0
  0
LINE
  8
DETAIL
  6
CONTINUOUS
 62
     5
 10
-86.399999999999864
 20
-50.399999999999977
 30
0.0
 11
-86.399999999999864
 21
-57.600000000000023
 31
0.0
  0
LINE
  8
DETAIL
  6
CONTINUOUS
 62
     5
 10
-86.399999999999864
 20
-50.399999999999977
 30
0.0
 11
-93.599999999999909
 21
-50.399999999999977
 31
0.0
  0
LINE
  8
DETAIL
  6
CONTINUOUS
 62
     5
 10
-77.399999999999864
 20
-57.600000000000023
 30
0.0
 11
-84.599999999999909
 21
-57.600000000000023
 31
0.0
  0
LINE
  8
DETAIL
  6
CONTINUOUS
 62
     5
 10
-84.599999999999909
 20
-50.399999999999977
 30
0.0
 11
-84.599999999999909
 21
-57.600000000000023
 31
0.0
  0
LINE
  8
DETAIL
  6
CONTINUOUS
 62
     5
 10
-77.399999999999864
 20
-50.399999999999977
 30
0.0
 11
-77.399999999999864
 21
-57.600000000000023
 31
0.0
  0
LINE
  8
DETAIL
  6
CONTINUOUS
 62
     5
 10
-77.399999999999864
 20
-50.399999999999977
 30
0.0
 11
-84.599999999999909
 21
-50.399999999999977
 31
0.0
  0
LINE
  8
DETAIL
  6
CONTINUOUS
 62
     5
 10
-68.399999999999864
 20
-57.600000000000023
 30
0.0
 11
-75.599999999999909
 21
-57.600000000000023
 31
0.0
  0
LINE
  8
DETAIL
  6
CONTINUOUS
 62
     5
 10
-75.599999999999909
 20
-50.399999999999977
 30
0.0
 11
-75.599999999999909
 21
-57.600000000000023
 31
0.0
  0
LINE
  8
DETAIL
  6
CONTINUOUS
 62
     5
 10
-68.399999999999864
 20
-50.399999999999977
 30
0.0
 11
-68.399999999999864
 21
-57.600000000000023
 31
0.0
  0
LINE
  8
DETAIL
  6
CONTINUOUS
 62
     5
 10
-68.399999999999864
 20
-50.399999999999977
 30
0.0
 11
-75.599999999999909
 21
-50.399999999999977
 31
0.0
  0
LINE
  8
DETAIL
  6
CONTINUOUS
 62
     5
 10
-59.399999999999856
 20
-57.600000000000023
 30
0.0
 11
-66.599999999999909
 21
-57.600000000000023
 31
0.0
  0
LINE
  8
DETAIL
  6
CONTINUOUS
 62
     5
 10
-66.599999999999909
 20
-50.399999999999977
 30
0.0
 11
-66.599999999999909
 21
-57.600000000000023
 31
0.0
  0
LINE
  8
DETAIL
  6
CONTINUOUS
 62
     5
 10
-59.399999999999856
 20
-50.399999999999977
 30
0.0
 11
-59.399999999999856
 21
-57.600000000000023
 31
0.0
  0
LINE
  8
DETAIL
  6
CONTINUOUS
 62
     5
 10
-59.399999999999856
 20
-50.399999999999977
 30
0.0
 11
-66.599999999999909
 21
-50.399999999999977
 31
0.0
  0
LINE
  8
DETAIL
  6
CONTINUOUS
 62
     5
 10
-50.399999999999856
 20
-57.600000000000023
 30
0.0
 11
-57.599999999999909
 21
-57.600000000000023
 31
0.0
  0
LINE
  8
DETAIL
  6
CONTINUOUS
 62
     5
 10
-57.599999999999909
 20
-50.399999999999977
 30
0.0
 11
-57.599999999999909
 21
-57.600000000000023
 31
0.0
  0
LINE
  8
DETAIL
  6
CONTINUOUS
 62
     5
 10
-50.399999999999856
 20
-50.399999999999977
 30
0.0
 11
-50.399999999999856
 21
-57.600000000000023
 31
0.0
  0
LINE
  8
DETAIL
  6
CONTINUOUS
 62
     5
 10
-50.399999999999856
 20
-50.399999999999977
 30
0.0
 11
-57.599999999999909
 21
-50.399999999999977
 31
0.0
  0
LINE
  8
DETAIL
  6
CONTINUOUS
 62
     5
 10
-41.399999999999856
 20
-57.600000000000023
 30
0.0
 11
-48.599999999999909
 21
-57.600000000000023
 31
0.0
  0
LINE
  8
DETAIL
  6
CONTINUOUS
 62
     5
 10
-48.599999999999909
 20
-50.399999999999977
 30
0.0
 11
-48.599999999999909
 21
-57.600000000000023
 31
0.0
  0
LINE
  8
DETAIL
  6
CONTINUOUS
 62
     5
 10
-41.399999999999856
 20
-50.399999999999977
 30
0.0
 11
-41.399999999999856
 21
-57.600000000000023
 31
0.0
  0
LINE
  8
DETAIL
  6
CONTINUOUS
 62
     5
 10
-41.399999999999856
 20
-50.399999999999977
 30
0.0
 11
-48.599999999999909
 21
-50.399999999999977
 31
0.0
  0
LINE
  8
DETAIL
  6
CONTINUOUS
 62
     5
 10
-39.599999999999909
 20
-50.399999999999977
 30
0.0
 11
-39.599999999999909
 21
-57.600000000000023
 31
0.0
  0
LINE
  8
DETAIL
  6
CONTINUOUS
 62
     5
 10
-86.399999999999864
 20
-66.599999999999909
 30
0.0
 11
-93.599999999999909
 21
-66.599999999999909
 31
0.0
  0
LINE
  8
DETAIL
  6
CONTINUOUS
 62
     5
 10
-93.599999999999909
 20
-59.399999999999977
 30
0.0
 11
-93.599999999999909
 21
-66.599999999999909
 31
0.0
  0
LINE
  8
DETAIL
  6
CONTINUOUS
 62
     5
 10
-86.399999999999864
 20
-59.399999999999977
 30
0.0
 11
-86.399999999999864
 21
-66.599999999999909
 31
0.0
  0
LINE
  8
DETAIL
  6
CONTINUOUS
 62
     5
 10
-86.399999999999864
 20
-59.399999999999977
 30
0.0
 11
-93.599999999999909
 21
-59.399999999999977
 31
0.0
  0
LINE
  8
DETAIL
  6
CONTINUOUS
 62
     5
 10
-77.399999999999864
 20
-66.599999999999909
 30
0.0
 11
-84.599999999999909
 21
-66.599999999999909
 31
0.0
  0
LINE
  8
DETAIL
  6
CONTINUOUS
 62
     5
 10
-84.599999999999909
 20
-59.399999999999977
 30
0.0
 11
-84.599999999999909
 21
-66.599999999999909
 31
0.0
  0
LINE
  8
DETAIL
  6
CONTINUOUS
 62
     5
 10
-77.399999999999864
 20
-59.399999999999977
 30
0.0
 11
-77.399999999999864
 21
-66.599999999999909
 31
0.0
  0
LINE
  8
DETAIL
  6
CONTINUOUS
 62
     5
 10
-77.399999999999864
 20
-59.399999999999977
 30
0.0
 11
-84.599999999999909
 21
-59.399999999999977
 31
0.0
  0
LINE
  8
DETAIL
  6
CONTINUOUS
 62
     5
 10
-68.399999999999864
 20
-66.599999999999909
 30
0.0
 11
-75.599999999999909
 21
-66.599999999999909
 31
0.0
  0
LINE
  8
DETAIL
  6
CONTINUOUS
 62
     5
 10
-75.599999999999909
 20
-59.399999999999977
 30
0.0
 11
-75.599999999999909
 21
-66.599999999999909
 31
0.0
  0
LINE
  8
DETAIL
  6
CONTINUOUS
 62
     5
 10
-68.399999999999864
 20
-59.399999999999977
 30
0.0
 11
-68.399999999999864
 21
-66.599999999999909
 31
0.0
  0
LINE
  8
DETAIL
  6
CONTINUOUS
 62
     5
 10
-68.399999999999864
 20
-59.399999999999977
 30
0.0
 11
-75.599999999999909
 21
-59.399999999999977
 31
0.0
  0
LINE
  8
DETAIL
  6
CONTINUOUS
 62
     5
 10
-59.399999999999856
 20
-66.599999999999909
 30
0.0
 11
-66.599999999999909
 21
-66.599999999999909
 31
0.0
  0
LINE
  8
DETAIL
  6
CONTINUOUS
 62
     5
 10
-66.599999999999909
 20
-59.399999999999977
 30
0.0
 11
-66.599999999999909
 21
-66.599999999999909
 31
0.0
  0
LINE
  8
DETAIL
  6
CONTINUOUS
 62
     5
 10
-59.399999999999856
 20
-59.399999999999977
 30
0.0
 11
-59.399999999999856
 21
-66.599999999999909
 31
0.0
  0
LINE
  8
DETAIL
  6
CONTINUOUS
 62
     5
 10
-59.399999999999856
 20
-59.399999999999977
 30
0.0
 11
-66.599999999999909
 21
-59.399999999999977
 31
0.0
  0
LINE
  8
DETAIL
  6
CONTINUOUS
 62
     5
 10
-50.399999999999856
 20
-66.599999999999909
 30
0.0
 11
-57.599999999999909
 21
-66.599999999999909
 31
0.0
  0
LINE
  8
DETAIL
  6
CONTINUOUS
 62
     5
 10
-57.599999999999909
 20
-59.399999999999977
 30
0.0
 11
-57.599999999999909
 21
-66.599999999999909
 31
0.0
  0
LINE
  8
DETAIL
  6
CONTINUOUS
 62
     5
 10
-50.399999999999856
 20
-59.399999999999977
 30
0.0
 11
-50.399999999999856
 21
-66.599999999999909
 31
0.0
  0
LINE
  8
DETAIL
  6
CONTINUOUS
 62
     5
 10
-50.399999999999856
 20
-59.399999999999977
 30
0.0
 11
-57.599999999999909
 21
-59.399999999999977
 31
0.0
  0
LINE
  8
DETAIL
  6
CONTINUOUS
 62
     5
 10
-41.399999999999856
 20
-66.599999999999909
 30
0.0
 11
-48.599999999999909
 21
-66.599999999999909
 31
0.0
  0
LINE
  8
DETAIL
  6
CONTINUOUS
 62
     5
 10
-48.599999999999909
 20
-59.399999999999977
 30
0.0
 11
-48.599999999999909
 21
-66.599999999999909
 31
0.0
  0
LINE
  8
DETAIL
  6
CONTINUOUS
 62
     5
 10
-41.399999999999856
 20
-59.399999999999977
 30
0.0
 11
-41.399999999999856
 21
-66.599999999999909
 31
0.0
  0
LINE
  8
DETAIL
  6
CONTINUOUS
 62
     5
 10
-41.399999999999856
 20
-59.399999999999977
 30
0.0
 11
-48.599999999999909
 21
-59.399999999999977
 31
0.0
  0
LINE
  8
DETAIL
  6
CONTINUOUS
 62
     5
 10
-39.599999999999909
 20
-59.399999999999977
 30
0.0
 11
-39.599999999999909
 21
-66.599999999999909
 31
0.0
  0
LINE
  8
DETAIL
  6
CONTINUOUS
 62
     5
 10
-86.399999999999864
 20
-75.599999999999909
 30
0.0
 11
-93.599999999999909
 21
-75.599999999999909
 31
0.0
  0
LINE
  8
DETAIL
  6
CONTINUOUS
 62
     5
 10
-93.599999999999909
 20
-68.400000000000091
 30
0.0
 11
-93.599999999999909
 21
-75.599999999999909
 31
0.0
  0
LINE
  8
DETAIL
  6
CONTINUOUS
 62
     5
 10
-86.399999999999864
 20
-68.400000000000091
 30
0.0
 11
-86.399999999999864
 21
-75.599999999999909
 31
0.0
  0
LINE
  8
DETAIL
  6
CONTINUOUS
 62
     5
 10
-86.399999999999864
 20
-68.400000000000091
 30
0.0
 11
-93.599999999999909
 21
-68.400000000000091
 31
0.0
  0
LINE
  8
DETAIL
  6
CONTINUOUS
 62
     5
 10
-77.399999999999864
 20
-75.599999999999909
 30
0.0
 11
-84.599999999999909
 21
-75.599999999999909
 31
0.0
  0
LINE
  8
DETAIL
  6
CONTINUOUS
 62
     5
 10
-84.599999999999909
 20
-68.400000000000091
 30
0.0
 11
-84.599999999999909
 21
-75.599999999999909
 31
0.0
  0
LINE
  8
DETAIL
  6
CONTINUOUS
 62
     5
 10
-77.399999999999864
 20
-68.400000000000091
 30
0.0
 11
-77.399999999999864
 21
-75.599999999999909
 31
0.0
  0
LINE
  8
DETAIL
  6
CONTINUOUS
 62
     5
 10
-77.399999999999864
 20
-68.400000000000091
 30
0.0
 11
-84.599999999999909
 21
-68.400000000000091
 31
0.0
  0
LINE
  8
DETAIL
  6
CONTINUOUS
 62
     5
 10
-68.399999999999864
 20
-75.599999999999909
 30
0.0
 11
-75.599999999999909
 21
-75.599999999999909
 31
0.0
  0
LINE
  8
DETAIL
  6
CONTINUOUS
 62
     5
 10
-75.599999999999909
 20
-68.400000000000091
 30
0.0
 11
-75.599999999999909
 21
-75.599999999999909
 31
0.0
  0
LINE
  8
DETAIL
  6
CONTINUOUS
 62
     5
 10
-68.399999999999864
 20
-68.400000000000091
 30
0.0
 11
-68.399999999999864
 21
-75.599999999999909
 31
0.0
  0
LINE
  8
DETAIL
  6
CONTINUOUS
 62
     5
 10
-68.399999999999864
 20
-68.400000000000091
 30
0.0
 11
-75.599999999999909
 21
-68.400000000000091
 31
0.0
  0
LINE
  8
DETAIL
  6
CONTINUOUS
 62
     5
 10
-59.399999999999856
 20
-75.599999999999909
 30
0.0
 11
-66.599999999999909
 21
-75.599999999999909
 31
0.0
  0
LINE
  8
DETAIL
  6
CONTINUOUS
 62
     5
 10
-66.599999999999909
 20
-68.400000000000091
 30
0.0
 11
-66.599999999999909
 21
-75.599999999999909
 31
0.0
  0
LINE
  8
DETAIL
  6
CONTINUOUS
 62
     5
 10
-59.399999999999856
 20
-68.400000000000091
 30
0.0
 11
-59.399999999999856
 21
-75.599999999999909
 31
0.0
  0
LINE
  8
DETAIL
  6
CONTINUOUS
 62
     5
 10
-59.399999999999856
 20
-68.400000000000091
 30
0.0
 11
-66.599999999999909
 21
-68.400000000000091
 31
0.0
  0
LINE
  8
DETAIL
  6
CONTINUOUS
 62
     5
 10
-50.399999999999856
 20
-75.599999999999909
 30
0.0
 11
-57.599999999999909
 21
-75.599999999999909
 31
0.0
  0
LINE
  8
DETAIL
  6
CONTINUOUS
 62
     5
 10
-57.599999999999909
 20
-68.400000000000091
 30
0.0
 11
-57.599999999999909
 21
-75.599999999999909
 31
0.0
  0
LINE
  8
DETAIL
  6
CONTINUOUS
 62
     5
 10
-50.399999999999856
 20
-68.400000000000091
 30
0.0
 11
-50.399999999999856
 21
-75.599999999999909
 31
0.0
  0
LINE
  8
DETAIL
  6
CONTINUOUS
 62
     5
 10
-50.399999999999856
 20
-68.400000000000091
 30
0.0
 11
-57.599999999999909
 21
-68.400000000000091
 31
0.0
  0
LINE
  8
DETAIL
  6
CONTINUOUS
 62
     5
 10
-41.399999999999856
 20
-75.599999999999909
 30
0.0
 11
-48.599999999999909
 21
-75.599999999999909
 31
0.0
  0
LINE
  8
DETAIL
  6
CONTINUOUS
 62
     5
 10
-48.599999999999909
 20
-68.400000000000091
 30
0.0
 11
-48.599999999999909
 21
-75.599999999999909
 31
0.0
  0
LINE
  8
DETAIL
  6
CONTINUOUS
 62
     5
 10
-41.399999999999856
 20
-68.400000000000091
 30
0.0
 11
-41.399999999999856
 21
-75.599999999999909
 31
0.0
  0
LINE
  8
DETAIL
  6
CONTINUOUS
 62
     5
 10
-41.399999999999856
 20
-68.400000000000091
 30
0.0
 11
-48.599999999999909
 21
-68.400000000000091
 31
0.0
  0
LINE
  8
DETAIL
  6
CONTINUOUS
 62
     5
 10
-39.599999999999909
 20
-68.400000000000091
 30
0.0
 11
-39.599999999999909
 21
-75.599999999999909
 31
0.0
  0
LINE
  8
DETAIL
  6
CONTINUOUS
 62
     5
 10
-86.399999999999864
 20
-84.599999999999909
 30
0.0
 11
-93.599999999999909
 21
-84.599999999999909
 31
0.0
  0
LINE
  8
DETAIL
  6
CONTINUOUS
 62
     5
 10
-93.599999999999909
 20
-77.400000000000091
 30
0.0
 11
-93.599999999999909
 21
-84.599999999999909
 31
0.0
  0
LINE
  8
DETAIL
  6
CONTINUOUS
 62
     5
 10
-86.399999999999864
 20
-77.400000000000091
 30
0.0
 11
-86.399999999999864
 21
-84.599999999999909
 31
0.0
  0
LINE
  8
DETAIL
  6
CONTINUOUS
 62
     5
 10
-86.399999999999864
 20
-77.400000000000091
 30
0.0
 11
-93.599999999999909
 21
-77.400000000000091
 31
0.0
  0
LINE
  8
DETAIL
  6
CONTINUOUS
 62
     5
 10
-77.399999999999864
 20
-84.599999999999909
 30
0.0
 11
-84.599999999999909
 21
-84.599999999999909
 31
0.0
  0
LINE
  8
DETAIL
  6
CONTINUOUS
 62
     5
 10
-84.599999999999909
 20
-77.400000000000091
 30
0.0
 11
-84.599999999999909
 21
-84.599999999999909
 31
0.0
  0
LINE
  8
DETAIL
  6
CONTINUOUS
 62
     5
 10
-77.399999999999864
 20
-77.400000000000091
 30
0.0
 11
-77.399999999999864
 21
-84.599999999999909
 31
0.0
  0
LINE
  8
DETAIL
  6
CONTINUOUS
 62
     5
 10
-77.399999999999864
 20
-77.400000000000091
 30
0.0
 11
-84.599999999999909
 21
-77.400000000000091
 31
0.0
  0
LINE
  8
DETAIL
  6
CONTINUOUS
 62
     5
 10
-68.399999999999864
 20
-84.599999999999909
 30
0.0
 11
-75.599999999999909
 21
-84.599999999999909
 31
0.0
  0
LINE
  8
DETAIL
  6
CONTINUOUS
 62
     5
 10
-75.599999999999909
 20
-77.400000000000091
 30
0.0
 11
-75.599999999999909
 21
-84.599999999999909
 31
0.0
  0
LINE
  8
DETAIL
  6
CONTINUOUS
 62
     5
 10
-68.399999999999864
 20
-77.400000000000091
 30
0.0
 11
-68.399999999999864
 21
-84.599999999999909
 31
0.0
  0
LINE
  8
DETAIL
  6
CONTINUOUS
 62
     5
 10
-68.399999999999864
 20
-77.400000000000091
 30
0.0
 11
-75.599999999999909
 21
-77.400000000000091
 31
0.0
  0
LINE
  8
DETAIL
  6
CONTINUOUS
 62
     5
 10
-59.399999999999856
 20
-84.599999999999909
 30
0.0
 11
-66.599999999999909
 21
-84.599999999999909
 31
0.0
  0
LINE
  8
DETAIL
  6
CONTINUOUS
 62
     5
 10
-66.599999999999909
 20
-77.400000000000091
 30
0.0
 11
-66.599999999999909
 21
-84.599999999999909
 31
0.0
  0
LINE
  8
DETAIL
  6
CONTINUOUS
 62
     5
 10
-59.399999999999856
 20
-77.400000000000091
 30
0.0
 11
-59.399999999999856
 21
-84.599999999999909
 31
0.0
  0
LINE
  8
DETAIL
  6
CONTINUOUS
 62
     5
 10
-59.399999999999856
 20
-77.400000000000091
 30
0.0
 11
-66.599999999999909
 21
-77.400000000000091
 31
0.0
  0
LINE
  8
DETAIL
  6
CONTINUOUS
 62
     5
 10
-50.399999999999856
 20
-84.599999999999909
 30
0.0
 11
-57.599999999999909
 21
-84.599999999999909
 31
0.0
  0
LINE
  8
DETAIL
  6
CONTINUOUS
 62
     5
 10
-57.599999999999909
 20
-77.400000000000091
 30
0.0
 11
-57.599999999999909
 21
-84.599999999999909
 31
0.0
  0
LINE
  8
DETAIL
  6
CONTINUOUS
 62
     5
 10
-50.399999999999856
 20
-77.400000000000091
 30
0.0
 11
-50.399999999999856
 21
-84.599999999999909
 31
0.0
  0
LINE
  8
DETAIL
  6
CONTINUOUS
 62
     5
 10
-50.399999999999856
 20
-77.400000000000091
 30
0.0
 11
-57.599999999999909
 21
-77.400000000000091
 31
0.0
  0
LINE
  8
DETAIL
  6
CONTINUOUS
 62
     5
 10
-41.399999999999856
 20
-84.599999999999909
 30
0.0
 11
-48.599999999999909
 21
-84.599999999999909
 31
0.0
  0
LINE
  8
DETAIL
  6
CONTINUOUS
 62
     5
 10
-48.599999999999909
 20
-77.400000000000091
 30
0.0
 11
-48.599999999999909
 21
-84.599999999999909
 31
0.0
  0
LINE
  8
DETAIL
  6
CONTINUOUS
 62
     5
 10
-41.399999999999856
 20
-77.400000000000091
 30
0.0
 11
-41.399999999999856
 21
-84.599999999999909
 31
0.0
  0
LINE
  8
DETAIL
  6
CONTINUOUS
 62
     5
 10
-41.399999999999856
 20
-77.400000000000091
 30
0.0
 11
-48.599999999999909
 21
-77.400000000000091
 31
0.0
  0
LINE
  8
DETAIL
  6
CONTINUOUS
 62
     5
 10
-39.599999999999909
 20
-77.400000000000091
 30
0.0
 11
-39.599999999999909
 21
-84.599999999999909
 31
0.0
  0
LINE
  8
DETAIL
  6
CONTINUOUS
 62
     5
 10
-86.399999999999864
 20
-93.599999999999909
 30
0.0
 11
-93.599999999999909
 21
-93.599999999999909
 31
0.0
  0
LINE
  8
DETAIL
  6
CONTINUOUS
 62
     5
 10
-93.599999999999909
 20
-86.400000000000091
 30
0.0
 11
-93.599999999999909
 21
-93.599999999999909
 31
0.0
  0
LINE
  8
DETAIL
  6
CONTINUOUS
 62
     5
 10
-86.399999999999864
 20
-86.400000000000091
 30
0.0
 11
-86.399999999999864
 21
-93.599999999999909
 31
0.0
  0
LINE
  8
DETAIL
  6
CONTINUOUS
 62
     5
 10
-86.399999999999864
 20
-86.400000000000091
 30
0.0
 11
-93.599999999999909
 21
-86.400000000000091
 31
0.0
  0
LINE
  8
DETAIL
  6
CONTINUOUS
 62
     5
 10
-77.399999999999864
 20
-93.599999999999909
 30
0.0
 11
-84.599999999999909
 21
-93.599999999999909
 31
0.0
  0
LINE
  8
DETAIL
  6
CONTINUOUS
 62
     5
 10
-84.599999999999909
 20
-86.400000000000091
 30
0.0
 11
-84.599999999999909
 21
-93.599999999999909
 31
0.0
  0
LINE
  8
DETAIL
  6
CONTINUOUS
 62
     5
 10
-77.399999999999864
 20
-86.400000000000091
 30
0.0
 11
-77.399999999999864
 21
-93.599999999999909
 31
0.0
  0
LINE
  8
DETAIL
  6
CONTINUOUS
 62
     5
 10
-77.399999999999864
 20
-86.400000000000091
 30
0.0
 11
-84.599999999999909
 21
-86.400000000000091
 31
0.0
  0
LINE
  8
DETAIL
  6
CONTINUOUS
 62
     5
 10
-68.399999999999864
 20
-93.599999999999909
 30
0.0
 11
-75.599999999999909
 21
-93.599999999999909
 31
0.0
  0
LINE
  8
DETAIL
  6
CONTINUOUS
 62
     5
 10
-75.599999999999909
 20
-86.400000000000091
 30
0.0
 11
-75.599999999999909
 21
-93.599999999999909
 31
0.0
  0
LINE
  8
DETAIL
  6
CONTINUOUS
 62
     5
 10
-68.399999999999864
 20
-86.400000000000091
 30
0.0
 11
-68.399999999999864
 21
-93.599999999999909
 31
0.0
  0
LINE
  8
DETAIL
  6
CONTINUOUS
 62
     5
 10
-68.399999999999864
 20
-86.400000000000091
 30
0.0
 11
-75.599999999999909
 21
-86.400000000000091
 31
0.0
  0
LINE
  8
DETAIL
  6
CONTINUOUS
 62
     5
 10
-59.399999999999856
 20
-93.599999999999909
 30
0.0
 11
-66.599999999999909
 21
-93.599999999999909
 31
0.0
  0
LINE
  8
DETAIL
  6
CONTINUOUS
 62
     5
 10
-66.599999999999909
 20
-86.400000000000091
 30
0.0
 11
-66.599999999999909
 21
-93.599999999999909
 31
0.0
  0
LINE
  8
DETAIL
  6
CONTINUOUS
 62
     5
 10
-59.399999999999856
 20
-86.400000000000091
 30
0.0
 11
-59.399999999999856
 21
-93.599999999999909
 31
0.0
  0
LINE
  8
DETAIL
  6
CONTINUOUS
 62
     5
 10
-59.399999999999856
 20
-86.400000000000091
 30
0.0
 11
-66.599999999999909
 21
-86.400000000000091
 31
0.0
  0
LINE
  8
DETAIL
  6
CONTINUOUS
 62
     5
 10
-50.399999999999856
 20
-93.599999999999909
 30
0.0
 11
-57.599999999999909
 21
-93.599999999999909
 31
0.0
  0
LINE
  8
DETAIL
  6
CONTINUOUS
 62
     5
 10
-57.599999999999909
 20
-86.400000000000091
 30
0.0
 11
-57.599999999999909
 21
-93.599999999999909
 31
0.0
  0
LINE
  8
DETAIL
  6
CONTINUOUS
 62
     5
 10
-50.399999999999856
 20
-86.400000000000091
 30
0.0
 11
-50.399999999999856
 21
-93.599999999999909
 31
0.0
  0
LINE
  8
DETAIL
  6
CONTINUOUS
 62
     5
 10
-50.399999999999856
 20
-86.400000000000091
 30
0.0
 11
-57.599999999999909
 21
-86.400000000000091
 31
0.0
  0
LINE
  8
DETAIL
  6
CONTINUOUS
 62
     5
 10
-41.399999999999856
 20
-93.599999999999909
 30
0.0
 11
-48.599999999999909
 21
-93.599999999999909
 31
0.0
  0
LINE
  8
DETAIL
  6
CONTINUOUS
 62
     5
 10
-48.599999999999909
 20
-86.400000000000091
 30
0.0
 11
-48.599999999999909
 21
-93.599999999999909
 31
0.0
  0
LINE
  8
DETAIL
  6
CONTINUOUS
 62
     5
 10
-41.399999999999856
 20
-86.400000000000091
 30
0.0
 11
-41.399999999999856
 21
-93.599999999999909
 31
0.0
  0
LINE
  8
DETAIL
  6
CONTINUOUS
 62
     5
 10
-41.399999999999856
 20
-86.400000000000091
 30
0.0
 11
-48.599999999999909
 21
-86.400000000000091
 31
0.0
  0
LINE
  8
DETAIL
  6
CONTINUOUS
 62
     5
 10
-39.599999999999909
 20
-86.400000000000091
 30
0.0
 11
-39.599999999999909
 21
-93.599999999999909
 31
0.0
  0
LINE
  8
DETAIL
  6
CONTINUOUS
 62
     5
 10
-59.399999999999856
 20
-23.399999999999981
 30
0.0
 11
-66.599999999999909
 21
-23.399999999999981
 31
0.0
  0
LINE
  8
DETAIL
  6
CONTINUOUS
 62
     5
 10
-59.399999999999856
 20
-30.600000000000019
 30
0.0
 11
-59.399999999999856
 21
-23.399999999999981
 31
0.0
  0
LINE
  8
DETAIL
  6
CONTINUOUS
 62
     5
 10
-101.0
 20
-97.0
 30
0.0
 11
-99.5
 21
-95.5
 31
0.0
  0
LINE
  8
DETAIL
  6
CONTINUOUS
 62
     5
 10
-97.0
 20
-101.0
 30
0.0
 11
-95.5
 21
-99.5
 31
0.0
  0
LINE
  8
DETAIL
  6
CONTINUOUS
 62
     5
 10
-77.399999999999864
 20
-3.5999999999999091
 30
0.0
 11
-84.599999999999909
 21
-3.5999999999999091
 31
0.0
  0
LINE
  8
DETAIL
  6
CONTINUOUS
 62
     5
 10
-68.399999999999864
 20
-3.5999999999999091
 30
0.0
 11
-75.599999999999909
 21
-3.5999999999999091
 31
0.0
  0
LINE
  8
DETAIL
  6
CONTINUOUS
 62
     5
 10
-59.399999999999856
 20
-3.5999999999999091
 30
0.0
 11
-66.599999999999909
 21
-3.5999999999999091
 31
0.0
  0
LINE
  8
DETAIL
  6
CONTINUOUS
 62
     5
 10
-50.399999999999856
 20
-3.5999999999999091
 30
0.0
 11
-57.599999999999909
 21
-3.5999999999999091
 31
0.0
  0
LINE
  8
DETAIL
  6
CONTINUOUS
 62
     5
 10
-41.399999999999856
 20
-3.5999999999999091
 30
0.0
 11
-48.599999999999909
 21
-3.5999999999999091
 31
0.0
  0
LINE
  8
DETAIL
  6
CONTINUOUS
 62
     5
 10
-32.399999999999856
 20
-3.5999999999999091
 30
0.0
 11
-39.599999999999909
 21
-3.5999999999999091
 31
0.0
  0
LINE
  8
DETAIL
  6
CONTINUOUS
 62
     5
 10
-68.399999999999864
 20
-5.3999999999999773
 30
0.0
 11
-75.599999999999909
 21
-5.3999999999999773
 31
0.0
  0
LINE
  8
DETAIL
  6
CONTINUOUS
 62
     5
 10
-68.399999999999864
 20
-12.599999999999911
 30
0.0
 11
-75.599999999999909
 21
-12.599999999999911
 31
0.0
  0
LINE
  8
DETAIL
  6
CONTINUOUS
 62
     5
 10
-75.599999999999909
 20
-5.3999999999999773
 30
0.0
 11
-75.599999999999909
 21
-12.599999999999911
 31
0.0
  0
LINE
  8
DETAIL
  6
CONTINUOUS
 62
     5
 10
-68.399999999999864
 20
-5.3999999999999773
 30
0.0
 11
-68.399999999999864
 21
-12.599999999999911
 31
0.0
  0
LINE
  8
DETAIL
  6
CONTINUOUS
 62
     5
 10
-59.399999999999856
 20
-5.3999999999999773
 30
0.0
 11
-66.599999999999909
 21
-5.3999999999999773
 31
0.0
  0
LINE
  8
DETAIL
  6
CONTINUOUS
 62
     5
 10
-59.399999999999856
 20
-12.599999999999911
 30
0.0
 11
-66.599999999999909
 21
-12.599999999999911
 31
0.0
  0
LINE
  8
DETAIL
  6
CONTINUOUS
 62
     5
 10
-66.599999999999909
 20
-5.3999999999999773
 30
0.0
 11
-66.599999999999909
 21
-12.599999999999911
 31
0.0
  0
LINE
  8
DETAIL
  6
CONTINUOUS
 62
     5
 10
-59.399999999999856
 20
-5.3999999999999773
 30
0.0
 11
-59.399999999999856
 21
-12.599999999999911
 31
0.0
  0
LINE
  8
DETAIL
  6
CONTINUOUS
 62
     5
 10
-50.399999999999856
 20
-5.3999999999999773
 30
0.0
 11
-57.599999999999909
 21
-5.3999999999999773
 31
0.0
  0
LINE
  8
DETAIL
  6
CONTINUOUS
 62
     5
 10
-50.399999999999856
 20
-12.599999999999911
 30
0.0
 11
-57.599999999999909
 21
-12.599999999999911
 31
0.0
  0
LINE
  8
DETAIL
  6
CONTINUOUS
 62
     5
 10
-57.599999999999909
 20
-5.3999999999999773
 30
0.0
 11
-57.599999999999909
 21
-12.599999999999911
 31
0.0
  0
LINE
  8
DETAIL
  6
CONTINUOUS
 62
     5
 10
-50.399999999999856
 20
-5.3999999999999773
 30
0.0
 11
-50.399999999999856
 21
-12.599999999999911
 31
0.0
  0
LINE
  8
DETAIL
  6
CONTINUOUS
 62
     5
 10
-41.399999999999856
 20
-5.3999999999999773
 30
0.0
 11
-48.599999999999909
 21
-5.3999999999999773
 31
0.0
  0
LINE
  8
DETAIL
  6
CONTINUOUS
 62
     5
 10
-41.399999999999856
 20
-12.599999999999911
 30
0.0
 11
-48.599999999999909
 21
-12.599999999999911
 31
0.0
  0
LINE
  8
DETAIL
  6
CONTINUOUS
 62
     5
 10
-48.599999999999909
 20
-5.3999999999999773
 30
0.0
 11
-48.599999999999909
 21
-12.599999999999911
 31
0.0
  0
LINE
  8
DETAIL
  6
CONTINUOUS
 62
     5
 10
-41.399999999999856
 20
-5.3999999999999773
 30
0.0
 11
-41.399999999999856
 21
-12.599999999999911
 31
0.0
  0
LINE
  8
DETAIL
  6
CONTINUOUS
 62
     5
 10
-32.399999999999856
 20
-5.3999999999999773
 30
0.0
 11
-39.599999999999909
 21
-5.3999999999999773
 31
0.0
  0
LINE
  8
DETAIL
  6
CONTINUOUS
 62
     5
 10
-32.399999999999856
 20
-12.599999999999911
 30
0.0
 11
-39.599999999999909
 21
-12.599999999999911
 31
0.0
  0
LINE
  8
DETAIL
  6
CONTINUOUS
 62
     5
 10
-39.599999999999909
 20
-5.3999999999999773
 30
0.0
 11
-39.599999999999909
 21
-12.599999999999911
 31
0.0
  0
LINE
  8
DETAIL
  6
CONTINUOUS
 62
     5
 10
-32.399999999999856
 20
-5.3999999999999773
 30
0.0
 11
-32.399999999999856
 21
-12.599999999999911
 31
0.0
  0
LINE
  8
DETAIL
  6
CONTINUOUS
 62
     5
 10
-59.399999999999856
 20
-21.600000000000019
 30
0.0
 11
-66.599999999999909
 21
-21.600000000000019
 31
0.0
  0
LINE
  8
DETAIL
  6
CONTINUOUS
 62
     5
 10
-66.599999999999909
 20
-14.399999999999981
 30
0.0
 11
-66.599999999999909
 21
-21.600000000000019
 31
0.0
  0
LINE
  8
DETAIL
  6
CONTINUOUS
 62
     5
 10
-59.399999999999856
 20
-14.399999999999981
 30
0.0
 11
-59.399999999999856
 21
-21.600000000000019
 31
0.0
  0
LINE
  8
DETAIL
  6
CONTINUOUS
 62
     5
 10
-59.399999999999856
 20
-14.399999999999981
 30
0.0
 11
-66.599999999999909
 21
-14.399999999999981
 31
0.0
  0
LINE
  8
DETAIL
  6
CONTINUOUS
 62
     5
 10
-50.399999999999856
 20
-21.600000000000019
 30
0.0
 11
-57.599999999999909
 21
-21.600000000000019
 31
0.0
  0
LINE
  8
DETAIL
  6
CONTINUOUS
 62
     5
 10
-57.599999999999909
 20
-14.399999999999981
 30
0.0
 11
-57.599999999999909
 21
-21.600000000000019
 31
0.0
  0
LINE
  8
DETAIL
  6
CONTINUOUS
 62
     5
 10
-50.399999999999856
 20
-14.399999999999981
 30
0.0
 11
-50.399999999999856
 21
-21.600000000000019
 31
0.0
  0
LINE
  8
DETAIL
  6
CONTINUOUS
 62
     5
 10
-50.399999999999856
 20
-14.399999999999981
 30
0.0
 11
-57.599999999999909
 21
-14.399999999999981
 31
0.0
  0
LINE
  8
DETAIL
  6
CONTINUOUS
 62
     5
 10
-41.399999999999856
 20
-21.600000000000019
 30
0.0
 11
-48.599999999999909
 21
-21.600000000000019
 31
0.0
  0
LINE
  8
DETAIL
  6
CONTINUOUS
 62
     5
 10
-48.599999999999909
 20
-14.399999999999981
 30
0.0
 11
-48.599999999999909
 21
-21.600000000000019
 31
0.0
  0
LINE
  8
DETAIL
  6
CONTINUOUS
 62
     5
 10
-41.399999999999856
 20
-14.399999999999981
 30
0.0
 11
-41.399999999999856
 21
-21.600000000000019
 31
0.0
  0
LINE
  8
DETAIL
  6
CONTINUOUS
 62
     5
 10
-41.399999999999856
 20
-14.399999999999981
 30
0.0
 11
-48.599999999999909
 21
-14.399999999999981
 31
0.0
  0
LINE
  8
DETAIL
  6
CONTINUOUS
 62
     5
 10
-32.399999999999856
 20
-21.600000000000019
 30
0.0
 11
-39.599999999999909
 21
-21.600000000000019
 31
0.0
  0
LINE
  8
DETAIL
  6
CONTINUOUS
 62
     5
 10
-39.599999999999909
 20
-14.399999999999981
 30
0.0
 11
-39.599999999999909
 21
-21.600000000000019
 31
0.0
  0
LINE
  8
DETAIL
  6
CONTINUOUS
 62
     5
 10
-32.399999999999856
 20
-14.399999999999981
 30
0.0
 11
-32.399999999999856
 21
-21.600000000000019
 31
0.0
  0
LINE
  8
DETAIL
  6
CONTINUOUS
 62
     5
 10
-32.399999999999856
 20
-14.399999999999981
 30
0.0
 11
-39.599999999999909
 21
-14.399999999999981
 31
0.0
  0
LINE
  8
DETAIL
  6
CONTINUOUS
 62
     5
 10
-50.399999999999856
 20
-30.600000000000019
 30
0.0
 11
-57.599999999999909
 21
-30.600000000000019
 31
0.0
  0
LINE
  8
DETAIL
  6
CONTINUOUS
 62
     5
 10
-57.599999999999909
 20
-23.399999999999981
 30
0.0
 11
-57.599999999999909
 21
-30.600000000000019
 31
0.0
  0
LINE
  8
DETAIL
  6
CONTINUOUS
 62
     5
 10
-50.399999999999856
 20
-23.399999999999981
 30
0.0
 11
-50.399999999999856
 21
-30.600000000000019
 31
0.0
  0
LINE
  8
DETAIL
  6
CONTINUOUS
 62
     5
 10
-50.399999999999856
 20
-23.399999999999981
 30
0.0
 11
-57.599999999999909
 21
-23.399999999999981
 31
0.0
  0
LINE
  8
DETAIL
  6
CONTINUOUS
 62
     5
 10
-50.399999999999856
 20
-23.399999999999981
 30
0.0
 11
-57.599999999999909
 21
-23.399999999999981
 31
0.0
  0
LINE
  8
DETAIL
  6
CONTINUOUS
 62
     5
 10
-50.399999999999856
 20
-30.600000000000019
 30
0.0
 11
-50.399999999999856
 21
-23.399999999999981
 31
0.0
  0
LINE
  8
DETAIL
  6
CONTINUOUS
 62
     5
 10
-41.399999999999856
 20
-30.600000000000019
 30
0.0
 11
-48.599999999999909
 21
-30.600000000000019
 31
0.0
  0
LINE
  8
DETAIL
  6
CONTINUOUS
 62
     5
 10
-48.599999999999909
 20
-23.399999999999981
 30
0.0
 11
-48.599999999999909
 21
-30.600000000000019
 31
0.0
  0
LINE
  8
DETAIL
  6
CONTINUOUS
 62
     5
 10
-41.399999999999856
 20
-23.399999999999981
 30
0.0
 11
-41.399999999999856
 21
-30.600000000000019
 31
0.0
  0
LINE
  8
DETAIL
  6
CONTINUOUS
 62
     5
 10
-41.399999999999856
 20
-23.399999999999981
 30
0.0
 11
-48.599999999999909
 21
-23.399999999999981
 31
0.0
  0
LINE
  8
DETAIL
  6
CONTINUOUS
 62
     5
 10
-41.399999999999856
 20
-23.399999999999981
 30
0.0
 11
-48.599999999999909
 21
-23.399999999999981
 31
0.0
  0
LINE
  8
DETAIL
  6
CONTINUOUS
 62
     5
 10
-41.399999999999856
 20
-30.600000000000019
 30
0.0
 11
-41.399999999999856
 21
-23.399999999999981
 31
0.0
  0
LINE
  8
DETAIL
  6
CONTINUOUS
 62
     5
 10
-32.399999999999856
 20
-30.600000000000019
 30
0.0
 11
-39.599999999999909
 21
-30.600000000000019
 31
0.0
  0
LINE
  8
DETAIL
  6
CONTINUOUS
 62
     5
 10
-39.599999999999909
 20
-23.399999999999981
 30
0.0
 11
-39.599999999999909
 21
-30.600000000000019
 31
0.0
  0
LINE
  8
DETAIL
  6
CONTINUOUS
 62
     5
 10
-32.399999999999856
 20
-23.399999999999981
 30
0.0
 11
-32.399999999999856
 21
-30.600000000000019
 31
0.0
  0
LINE
  8
DETAIL
  6
CONTINUOUS
 62
     5
 10
-32.399999999999856
 20
-23.399999999999981
 30
0.0
 11
-39.599999999999909
 21
-23.399999999999981
 31
0.0
  0
LINE
  8
DETAIL
  6
CONTINUOUS
 62
     5
 10
-32.399999999999856
 20
-23.399999999999981
 30
0.0
 11
-39.599999999999909
 21
-23.399999999999981
 31
0.0
  0
LINE
  8
DETAIL
  6
CONTINUOUS
 62
     5
 10
-32.399999999999856
 20
-30.600000000000019
 30
0.0
 11
-32.399999999999856
 21
-23.399999999999981
 31
0.0
  0
LINE
  8
DETAIL
  6
CONTINUOUS
 62
     5
 10
-41.399999999999856
 20
-39.599999999999909
 30
0.0
 11
-48.599999999999909
 21
-39.599999999999909
 31
0.0
  0
LINE
  8
DETAIL
  6
CONTINUOUS
 62
     5
 10
-48.599999999999909
 20
-32.399999999999977
 30
0.0
 11
-48.599999999999909
 21
-39.599999999999909
 31
0.0
  0
LINE
  8
DETAIL
  6
CONTINUOUS
 62
     5
 10
-41.399999999999856
 20
-32.399999999999977
 30
0.0
 11
-41.399999999999856
 21
-39.599999999999909
 31
0.0
  0
LINE
  8
DETAIL
  6
CONTINUOUS
 62
     5
 10
-41.399999999999856
 20
-32.399999999999977
 30
0.0
 11
-48.599999999999909
 21
-32.399999999999977
 31
0.0
  0
LINE
  8
DETAIL
  6
CONTINUOUS
 62
     5
 10
-32.399999999999856
 20
-39.599999999999909
 30
0.0
 11
-39.599999999999909
 21
-39.599999999999909
 31
0.0
  0
LINE
  8
DETAIL
  6
CONTINUOUS
 62
     5
 10
-39.599999999999909
 20
-32.399999999999977
 30
0.0
 11
-39.599999999999909
 21
-39.599999999999909
 31
0.0
  0
LINE
  8
DETAIL
  6
CONTINUOUS
 62
     5
 10
-32.399999999999856
 20
-32.399999999999977
 30
0.0
 11
-32.399999999999856
 21
-39.599999999999909
 31
0.0
  0
LINE
  8
DETAIL
  6
CONTINUOUS
 62
     5
 10
-32.399999999999856
 20
-32.399999999999977
 30
0.0
 11
-39.599999999999909
 21
-32.399999999999977
 31
0.0
  0
LINE
  8
DETAIL
  6
CONTINUOUS
 62
     5
 10
-23.39999999999986
 20
-39.599999999999909
 30
0.0
 11
-30.599999999999909
 21
-39.599999999999909
 31
0.0
  0
LINE
  8
DETAIL
  6
CONTINUOUS
 62
     5
 10
-30.599999999999909
 20
-32.399999999999977
 30
0.0
 11
-30.599999999999909
 21
-39.599999999999909
 31
0.0
  0
LINE
  8
DETAIL
  6
CONTINUOUS
 62
     5
 10
-23.39999999999986
 20
-32.399999999999977
 30
0.0
 11
-23.39999999999986
 21
-39.599999999999909
 31
0.0
  0
LINE
  8
DETAIL
  6
CONTINUOUS
 62
     5
 10
-23.39999999999986
 20
-32.399999999999977
 30
0.0
 11
-30.599999999999909
 21
-32.399999999999977
 31
0.0
  0
LINE
  8
DETAIL
  6
CONTINUOUS
 62
     5
 10
-14.39999999999986
 20
-39.599999999999909
 30
0.0
 11
-21.599999999999909
 21
-39.599999999999909
 31
0.0
  0
LINE
  8
DETAIL
  6
CONTINUOUS
 62
     5
 10
-21.599999999999909
 20
-32.399999999999977
 30
0.0
 11
-21.599999999999909
 21
-39.599999999999909
 31
0.0
  0
LINE
  8
DETAIL
  6
CONTINUOUS
 62
     5
 10
-14.39999999999986
 20
-32.399999999999977
 30
0.0
 11
-14.39999999999986
 21
-39.599999999999909
 31
0.0
  0
LINE
  8
DETAIL
  6
CONTINUOUS
 62
     5
 10
-14.39999999999986
 20
-32.399999999999977
 30
0.0
 11
-21.599999999999909
 21
-32.399999999999977
 31
0.0
  0
LINE
  8
DETAIL
  6
CONTINUOUS
 62
     5
 10
-5.3999999999998636
 20
-39.599999999999909
 30
0.0
 11
-12.599999999999911
 21
-39.599999999999909
 31
0.0
  0
LINE
  8
DETAIL
  6
CONTINUOUS
 62
     5
 10
-12.599999999999911
 20
-32.399999999999977
 30
0.0
 11
-12.599999999999911
 21
-39.599999999999909
 31
0.0
  0
LINE
  8
DETAIL
  6
CONTINUOUS
 62
     5
 10
-5.3999999999998636
 20
-32.399999999999977
 30
0.0
 11
-5.3999999999998636
 21
-39.599999999999909
 31
0.0
  0
LINE
  8
DETAIL
  6
CONTINUOUS
 62
     5
 10
-5.3999999999998636
 20
-32.399999999999977
 30
0.0
 11
-12.599999999999911
 21
-32.399999999999977
 31
0.0
  0
LINE
  8
DETAIL
  6
CONTINUOUS
 62
     5
 10
-32.399999999999856
 20
-48.600000000000023
 30
0.0
 11
-39.599999999999909
 21
-48.600000000000023
 31
0.0
  0
LINE
  8
DETAIL
  6
CONTINUOUS
 62
     5
 10
-39.599999999999909
 20
-41.399999999999977
 30
0.0
 11
-39.599999999999909
 21
-48.600000000000023
 31
0.0
  0
LINE
  8
DETAIL
  6
CONTINUOUS
 62
     5
 10
-32.399999999999856
 20
-41.399999999999977
 30
0.0
 11
-32.399999999999856
 21
-48.600000000000023
 31
0.0
  0
LINE
  8
DETAIL
  6
CONTINUOUS
 62
     5
 10
-32.399999999999856
 20
-41.399999999999977
 30
0.0
 11
-39.599999999999909
 21
-41.399999999999977
 31
0.0
  0
LINE
  8
DETAIL
  6
CONTINUOUS
 62
     5
 10
-23.39999999999986
 20
-48.600000000000023
 30
0.0
 11
-30.599999999999909
 21
-48.600000000000023
 31
0.0
  0
LINE
  8
DETAIL
  6
CONTINUOUS
 62
     5
 10
-30.599999999999909
 20
-41.399999999999977
 30
0.0
 11
-30.599999999999909
 21
-48.600000000000023
 31
0.0
  0
LINE
  8
DETAIL
  6
CONTINUOUS
 62
     5
 10
-23.39999999999986
 20
-41.399999999999977
 30
0.0
 11
-23.39999999999986
 21
-48.600000000000023
 31
0.0
  0
LINE
  8
DETAIL
  6
CONTINUOUS
 62
     5
 10
-23.39999999999986
 20
-41.399999999999977
 30
0.0
 11
-30.599999999999909
 21
-41.399999999999977
 31
0.0
  0
LINE
  8
DETAIL
  6
CONTINUOUS
 62
     5
 10
-14.39999999999986
 20
-48.600000000000023
 30
0.0
 11
-21.599999999999909
 21
-48.600000000000023
 31
0.0
  0
LINE
  8
DETAIL
  6
CONTINUOUS
 62
     5
 10
-21.599999999999909
 20
-41.399999999999977
 30
0.0
 11
-21.599999999999909
 21
-48.600000000000023
 31
0.0
  0
LINE
  8
DETAIL
  6
CONTINUOUS
 62
     5
 10
-14.39999999999986
 20
-41.399999999999977
 30
0.0
 11
-14.39999999999986
 21
-48.600000000000023
 31
0.0
  0
LINE
  8
DETAIL
  6
CONTINUOUS
 62
     5
 10
-14.39999999999986
 20
-41.399999999999977
 30
0.0
 11
-21.599999999999909
 21
-41.399999999999977
 31
0.0
  0
LINE
  8
DETAIL
  6
CONTINUOUS
 62
     5
 10
-5.3999999999998636
 20
-48.600000000000023
 30
0.0
 11
-12.599999999999911
 21
-48.600000000000023
 31
0.0
  0
LINE
  8
DETAIL
  6
CONTINUOUS
 62
     5
 10
-12.599999999999911
 20
-41.399999999999977
 30
0.0
 11
-12.599999999999911
 21
-48.600000000000023
 31
0.0
  0
LINE
  8
DETAIL
  6
CONTINUOUS
 62
     5
 10
-5.3999999999998636
 20
-41.399999999999977
 30
0.0
 11
-5.3999999999998636
 21
-48.600000000000023
 31
0.0
  0
LINE
  8
DETAIL
  6
CONTINUOUS
 62
     5
 10
-5.3999999999998636
 20
-41.399999999999977
 30
0.0
 11
-12.599999999999911
 21
-41.399999999999977
 31
0.0
  0
LINE
  8
DETAIL
  6
CONTINUOUS
 62
     5
 10
-23.39999999999986
 20
-57.600000000000023
 30
0.0
 11
-30.599999999999909
 21
-57.600000000000023
 31
0.0
  0
LINE
  8
DETAIL
  6
CONTINUOUS
 62
     5
 10
-23.39999999999986
 20
-50.399999999999977
 30
0.0
 11
-23.39999999999986
 21
-57.600000000000023
 31
0.0
  0
LINE
  8
DETAIL
  6
CONTINUOUS
 62
     5
 10
-23.39999999999986
 20
-50.399999999999977
 30
0.0
 11
-30.599999999999909
 21
-50.399999999999977
 31
0.0
  0
LINE
  8
DETAIL
  6
CONTINUOUS
 62
     5
 10
-23.39999999999986
 20
-50.399999999999977
 30
0.0
 11
-30.599999999999909
 21
-50.399999999999977
 31
0.0
  0
LINE
  8
DETAIL
  6
CONTINUOUS
 62
     5
 10
-23.39999999999986
 20
-57.600000000000023
 30
0.0
 11
-23.39999999999986
 21
-50.399999999999977
 31
0.0
  0
LINE
  8
DETAIL
  6
CONTINUOUS
 62
     5
 10
-30.599999999999909
 20
-50.399999999999977
 30
0.0
 11
-30.599999999999909
 21
-57.600000000000023
 31
0.0
  0
LINE
  8
DETAIL
  6
CONTINUOUS
 62
     5
 10
-14.39999999999986
 20
-57.600000000000023
 30
0.0
 11
-21.599999999999909
 21
-57.600000000000023
 31
0.0
  0
LINE
  8
DETAIL
  6
CONTINUOUS
 62
     5
 10
-14.39999999999986
 20
-50.399999999999977
 30
0.0
 11
-14.39999999999986
 21
-57.600000000000023
 31
0.0
  0
LINE
  8
DETAIL
  6
CONTINUOUS
 62
     5
 10
-14.39999999999986
 20
-50.399999999999977
 30
0.0
 11
-21.599999999999909
 21
-50.399999999999977
 31
0.0
  0
LINE
  8
DETAIL
  6
CONTINUOUS
 62
     5
 10
-14.39999999999986
 20
-50.399999999999977
 30
0.0
 11
-21.599999999999909
 21
-50.399999999999977
 31
0.0
  0
LINE
  8
DETAIL
  6
CONTINUOUS
 62
     5
 10
-14.39999999999986
 20
-57.600000000000023
 30
0.0
 11
-14.39999999999986
 21
-50.399999999999977
 31
0.0
  0
LINE
  8
DETAIL
  6
CONTINUOUS
 62
     5
 10
-21.599999999999909
 20
-50.399999999999977
 30
0.0
 11
-21.599999999999909
 21
-57.600000000000023
 31
0.0
  0
LINE
  8
DETAIL
  6
CONTINUOUS
 62
     5
 10
-5.3999999999998636
 20
-57.600000000000023
 30
0.0
 11
-12.599999999999911
 21
-57.600000000000023
 31
0.0
  0
LINE
  8
DETAIL
  6
CONTINUOUS
 62
     5
 10
-5.3999999999998636
 20
-50.399999999999977
 30
0.0
 11
-5.3999999999998636
 21
-57.600000000000023
 31
0.0
  0
LINE
  8
DETAIL
  6
CONTINUOUS
 62
     5
 10
-5.3999999999998636
 20
-50.399999999999977
 30
0.0
 11
-12.599999999999911
 21
-50.399999999999977
 31
0.0
  0
LINE
  8
DETAIL
  6
CONTINUOUS
 62
     5
 10
-5.3999999999998636
 20
-50.399999999999977
 30
0.0
 11
-12.599999999999911
 21
-50.399999999999977
 31
0.0
  0
LINE
  8
DETAIL
  6
CONTINUOUS
 62
     5
 10
-5.3999999999998636
 20
-57.600000000000023
 30
0.0
 11
-5.3999999999998636
 21
-50.399999999999977
 31
0.0
  0
LINE
  8
DETAIL
  6
CONTINUOUS
 62
     5
 10
-12.599999999999911
 20
-50.399999999999977
 30
0.0
 11
-12.599999999999911
 21
-57.600000000000023
 31
0.0
  0
LINE
  8
DETAIL
  6
CONTINUOUS
 62
     5
 10
-14.39999999999986
 20
-66.599999999999909
 30
0.0
 11
-21.599999999999909
 21
-66.599999999999909
 31
0.0
  0
LINE
  8
DETAIL
  6
CONTINUOUS
 62
     5
 10
-21.599999999999909
 20
-59.399999999999977
 30
0.0
 11
-21.599999999999909
 21
-66.599999999999909
 31
0.0
  0
LINE
  8
DETAIL
  6
CONTINUOUS
 62
     5
 10
-14.39999999999986
 20
-59.399999999999977
 30
0.0
 11
-14.39999999999986
 21
-66.599999999999909
 31
0.0
  0
LINE
  8
DETAIL
  6
CONTINUOUS
 62
     5
 10
-14.39999999999986
 20
-59.399999999999977
 30
0.0
 11
-21.599999999999909
 21
-59.399999999999977
 31
0.0
  0
LINE
  8
DETAIL
  6
CONTINUOUS
 62
     5
 10
-5.3999999999998636
 20
-66.599999999999909
 30
0.0
 11
-12.599999999999911
 21
-66.599999999999909
 31
0.0
  0
LINE
  8
DETAIL
  6
CONTINUOUS
 62
     5
 10
-12.599999999999911
 20
-59.399999999999977
 30
0.0
 11
-12.599999999999911
 21
-66.599999999999909
 31
0.0
  0
LINE
  8
DETAIL
  6
CONTINUOUS
 62
     5
 10
-5.3999999999998636
 20
-59.399999999999977
 30
0.0
 11
-5.3999999999998636
 21
-66.599999999999909
 31
0.0
  0
LINE
  8
DETAIL
  6
CONTINUOUS
 62
     5
 10
-5.3999999999998636
 20
-59.399999999999977
 30
0.0
 11
-12.599999999999911
 21
-59.399999999999977
 31
0.0
  0
LINE
  8
DETAIL
  6
CONTINUOUS
 62
     5
 10
-12.599999999999911
 20
-68.400000000000091
 30
0.0
 11
-12.599999999999911
 21
-75.599999999999909
 31
0.0
  0
LINE
  8
DETAIL
  6
CONTINUOUS
 62
     5
 10
-5.3999999999998636
 20
-68.400000000000091
 30
0.0
 11
-5.3999999999998636
 21
-75.599999999999909
 31
0.0
  0
LINE
  8
DETAIL
  6
CONTINUOUS
 62
     5
 10
-5.3999999999998636
 20
-68.400000000000091
 30
0.0
 11
-12.599999999999911
 21
-68.400000000000091
 31
0.0
  0
LINE
  8
DETAIL
  6
CONTINUOUS
 62
     5
 10
-5.3999999999998636
 20
-68.400000000000091
 30
0.0
 11
-12.599999999999911
 21
-68.400000000000091
 31
0.0
  0
LINE
  8
DETAIL
  6
CONTINUOUS
 62
     5
 10
-5.3999999999998636
 20
-75.599999999999909
 30
0.0
 11
-5.3999999999998636
 21
-68.400000000000091
 31
0.0
  0
LINE
  8
DETAIL
  6
CONTINUOUS
 62
     5
 10
-5.3999999999998636
 20
-75.599999999999909
 30
0.0
 11
-12.599999999999911
 21
-75.599999999999909
 31
0.0
  0
LINE
  8
DETAIL
  6
CONTINUOUS
 62
     5
 10
-3.5999999999999091
 20
-77.400000000000091
 30
0.0
 11
-3.5999999999999091
 21
-84.599999999999909
 31
0.0
  0
LINE
  8
DETAIL
  6
CONTINUOUS
 62
     5
 10
-3.5999999999999091
 20
-68.400000000000091
 30
0.0
 11
-3.5999999999999091
 21
-75.599999999999909
 31
0.0
  0
LINE
  8
DETAIL
  6
CONTINUOUS
 62
     5
 10
-3.5999999999999091
 20
-59.399999999999977
 30
0.0
 11
-3.5999999999999091
 21
-66.599999999999909
 31
0.0
  0
LINE
  8
DETAIL
  6
CONTINUOUS
 62
     5
 10
-3.5999999999999091
 20
-50.399999999999977
 30
0.0
 11
-3.5999999999999091
 21
-57.600000000000023
 31
0.0
  0
LINE
  8
DETAIL
  6
CONTINUOUS
 62
     5
 10
-3.5999999999999091
 20
-41.399999999999977
 30
0.0
 11
-3.5999999999999091
 21
-48.600000000000023
 31
0.0
  0
LINE
  8
DETAIL
  6
CONTINUOUS
 62
     5
 10
-3.5999999999999091
 20
-32.399999999999977
 30
0.0
 11
-3.5999999999999091
 21
-39.599999999999909
 31
0.0
  0
LINE
  8
DETAIL
  6
CONTINUOUS
 62
     5
 10
136.20564899999999
 20
0.0
 30
0.0
 11
136.20564899999999
 21
-136.20564899999999
 31
0.0
  0
LINE
  8
DETAIL
  6
CONTINUOUS
 62
     5
 10
0.0
 20
-136.20564899999999
 30
0.0
 11
136.20564899999999
 21
-136.20564899999999
 31
0.0
  0
LINE
  8
DETAIL
  6
CONTINUOUS
 62
     5
 10
3.600000000000136
 20
-39.599999999999909
 30
0.0
 11
0.0
 21
-39.599999999999909
 31
0.0
  0
LINE
  8
DETAIL
  6
CONTINUOUS
 62
     5
 10
3.600000000000136
 20
-32.399999999999977
 30
0.0
 11
0.0
 21
-32.399999999999977
 31
0.0
  0
LINE
  8
DETAIL
  6
CONTINUOUS
 62
     5
 10
3.600000000000136
 20
-48.600000000000023
 30
0.0
 11
0.0
 21
-48.600000000000023
 31
0.0
  0
LINE
  8
DETAIL
  6
CONTINUOUS
 62
     5
 10
3.600000000000136
 20
-41.399999999999977
 30
0.0
 11
0.0
 21
-41.399999999999977
 31
0.0
  0
LINE
  8
DETAIL
  6
CONTINUOUS
 62
     5
 10
3.600000000000136
 20
-57.600000000000023
 30
0.0
 11
0.0
 21
-57.600000000000023
 31
0.0
  0
LINE
  8
DETAIL
  6
CONTINUOUS
 62
     5
 10
3.600000000000136
 20
-50.399999999999977
 30
0.0
 11
0.0
 21
-50.399999999999977
 31
0.0
  0
LINE
  8
DETAIL
  6
CONTINUOUS
 62
     5
 10
3.600000000000136
 20
-66.599999999999909
 30
0.0
 11
0.0
 21
-66.599999999999909
 31
0.0
  0
LINE
  8
DETAIL
  6
CONTINUOUS
 62
     5
 10
3.600000000000136
 20
-59.399999999999977
 30
0.0
 11
0.0
 21
-59.399999999999977
 31
0.0
  0
LINE
  8
DETAIL
  6
CONTINUOUS
 62
     5
 10
3.600000000000136
 20
-75.599999999999909
 30
0.0
 11
0.0
 21
-75.599999999999909
 31
0.0
  0
LINE
  8
DETAIL
  6
CONTINUOUS
 62
     5
 10
3.600000000000136
 20
-68.400000000000091
 30
0.0
 11
0.0
 21
-68.400000000000091
 31
0.0
  0
LINE
  8
DETAIL
  6
CONTINUOUS
 62
     5
 10
3.600000000000136
 20
-84.599999999999909
 30
0.0
 11
0.0
 21
-84.599999999999909
 31
0.0
  0
LINE
  8
DETAIL
  6
CONTINUOUS
 62
     5
 10
3.600000000000136
 20
-77.400000000000091
 30
0.0
 11
0.0
 21
-77.400000000000091
 31
0.0
  0
LINE
  8
DETAIL
  6
CONTINUOUS
 62
     5
 10
3.600000000000136
 20
-93.599999999999909
 30
0.0
 11
0.0
 21
-93.599999999999909
 31
0.0
  0
LINE
  8
DETAIL
  6
CONTINUOUS
 62
     5
 10
3.600000000000136
 20
-86.400000000000091
 30
0.0
 11
0.0
 21
-86.400000000000091
 31
0.0
  0
LINE
  8
DETAIL
  6
CONTINUOUS
 62
     5
 10
86.400000000000091
 20
-3.5999999999999091
 30
0.0
 11
86.400000000000091
 21
0.0
 31
0.0
  0
LINE
  8
DETAIL
  6
CONTINUOUS
 62
     5
 10
93.600000000000136
 20
-3.5999999999999091
 30
0.0
 11
93.600000000000136
 21
0.0
 31
0.0
  0
LINE
  8
DETAIL
  6
CONTINUOUS
 62
     5
 10
32.400000000000091
 20
-3.5999999999999091
 30
0.0
 11
32.400000000000091
 21
0.0
 31
0.0
  0
LINE
  8
DETAIL
  6
CONTINUOUS
 62
     5
 10
39.600000000000144
 20
-3.5999999999999091
 30
0.0
 11
39.600000000000144
 21
0.0
 31
0.0
  0
LINE
  8
DETAIL
  6
CONTINUOUS
 62
     5
 10
41.400000000000091
 20
-3.5999999999999091
 30
0.0
 11
41.400000000000091
 21
0.0
 31
0.0
  0
LINE
  8
DETAIL
  6
CONTINUOUS
 62
     5
 10
48.600000000000144
 20
-3.5999999999999091
 30
0.0
 11
48.600000000000144
 21
0.0
 31
0.0
  0
LINE
  8
DETAIL
  6
CONTINUOUS
 62
     5
 10
50.400000000000091
 20
-3.5999999999999091
 30
0.0
 11
50.400000000000091
 21
0.0
 31
0.0
  0
LINE
  8
DETAIL
  6
CONTINUOUS
 62
     5
 10
57.600000000000144
 20
-3.5999999999999091
 30
0.0
 11
57.600000000000144
 21
0.0
 31
0.0
  0
LINE
  8
DETAIL
  6
CONTINUOUS
 62
     5
 10
59.400000000000091
 20
-3.5999999999999091
 30
0.0
 11
59.400000000000091
 21
0.0
 31
0.0
  0
LINE
  8
DETAIL
  6
CONTINUOUS
 62
     5
 10
66.600000000000136
 20
-3.5999999999999091
 30
0.0
 11
66.600000000000136
 21
0.0
 31
0.0
  0
LINE
  8
DETAIL
  6
CONTINUOUS
 62
     5
 10
68.400000000000091
 20
-3.5999999999999091
 30
0.0
 11
68.400000000000091
 21
0.0
 31
0.0
  0
LINE
  8
DETAIL
  6
CONTINUOUS
 62
     5
 10
75.600000000000136
 20
-3.5999999999999091
 30
0.0
 11
75.600000000000136
 21
0.0
 31
0.0
  0
LINE
  8
DETAIL
  6
CONTINUOUS
 62
     5
 10
77.400000000000091
 20
-3.5999999999999091
 30
0.0
 11
77.400000000000091
 21
0.0
 31
0.0
  0
LINE
  8
DETAIL
  6
CONTINUOUS
 62
     5
 10
84.600000000000136
 20
-3.5999999999999091
 30
0.0
 11
84.600000000000136
 21
0.0
 31
0.0
  0
LINE
  8
DETAIL
  6
CONTINUOUS
 62
     5
 10
99.5
 20
-95.5
 30
0.0
 11
99.5
 21
0.0
 31
0.0
  0
LINE
  8
DETAIL
  6
CONTINUOUS
 62
     5
 10
101.0
 20
-97.0
 30
0.0
 11
101.0
 21
0.0
 31
0.0
  0
LINE
  8
DETAIL
  6
CONTINUOUS
 62
     5
 10
0.0
 20
-101.0
 30
0.0
 11
97.0
 21
-101.0
 31
0.0
  0
LINE
  8
DETAIL
  6
CONTINUOUS
 62
     5
 10
0.0
 20
-99.5
 30
0.0
 11
95.5
 21
-99.5
 31
0.0
  0
LINE
  8
DETAIL
  6
CONTINUOUS
 62
     5
 10
32.400000000000091
 20
-57.600000000000023
 30
0.0
 11
39.600000000000144
 21
-57.600000000000023
 31
0.0
  0
LINE
  8
DETAIL
  6
CONTINUOUS
 62
     5
 10
32.400000000000091
 20
-50.399999999999977
 30
0.0
 11
32.400000000000091
 21
-57.600000000000023
 31
0.0
  0
LINE
  8
DETAIL
  6
CONTINUOUS
 62
     5
 10
32.400000000000091
 20
-50.399999999999977
 30
0.0
 11
39.600000000000144
 21
-50.399999999999977
 31
0.0
  0
LINE
  8
DETAIL
  6
CONTINUOUS
 62
     5
 10
23.400000000000091
 20
-57.600000000000023
 30
0.0
 11
30.60000000000014
 21
-57.600000000000023
 31
0.0
  0
LINE
  8
DETAIL
  6
CONTINUOUS
 62
     5
 10
32.400000000000091
 20
-66.599999999999909
 30
0.0
 11
39.600000000000144
 21
-66.599999999999909
 31
0.0
  0
LINE
  8
DETAIL
  6
CONTINUOUS
 62
     5
 10
32.400000000000091
 20
-59.399999999999977
 30
0.0
 11
32.400000000000091
 21
-66.599999999999909
 31
0.0
  0
LINE
  8
DETAIL
  6
CONTINUOUS
 62
     5
 10
32.400000000000091
 20
-59.399999999999977
 30
0.0
 11
39.600000000000144
 21
-59.399999999999977
 31
0.0
  0
LINE
  8
DETAIL
  6
CONTINUOUS
 62
     5
 10
23.400000000000091
 20
-66.599999999999909
 30
0.0
 11
30.60000000000014
 21
-66.599999999999909
 31
0.0
  0
LINE
  8
DETAIL
  6
CONTINUOUS
 62
     5
 10
30.60000000000014
 20
-59.399999999999977
 30
0.0
 11
30.60000000000014
 21
-66.599999999999909
 31
0.0
  0
LINE
  8
DETAIL
  6
CONTINUOUS
 62
     5
 10
23.400000000000091
 20
-59.399999999999977
 30
0.0
 11
23.400000000000091
 21
-66.599999999999909
 31
0.0
  0
LINE
  8
DETAIL
  6
CONTINUOUS
 62
     5
 10
23.400000000000091
 20
-59.399999999999977
 30
0.0
 11
30.60000000000014
 21
-59.399999999999977
 31
0.0
  0
LINE
  8
DETAIL
  6
CONTINUOUS
 62
     5
 10
32.400000000000091
 20
-75.599999999999909
 30
0.0
 11
39.600000000000144
 21
-75.599999999999909
 31
0.0
  0
LINE
  8
DETAIL
  6
CONTINUOUS
 62
     5
 10
32.400000000000091
 20
-68.400000000000091
 30
0.0
 11
32.400000000000091
 21
-75.599999999999909
 31
0.0
  0
LINE
  8
DETAIL
  6
CONTINUOUS
 62
     5
 10
32.400000000000091
 20
-68.400000000000091
 30
0.0
 11
39.600000000000144
 21
-68.400000000000091
 31
0.0
  0
LINE
  8
DETAIL
  6
CONTINUOUS
 62
     5
 10
23.400000000000091
 20
-75.599999999999909
 30
0.0
 11
30.60000000000014
 21
-75.599999999999909
 31
0.0
  0
LINE
  8
DETAIL
  6
CONTINUOUS
 62
     5
 10
30.60000000000014
 20
-68.400000000000091
 30
0.0
 11
30.60000000000014
 21
-75.599999999999909
 31
0.0
  0
LINE
  8
DETAIL
  6
CONTINUOUS
 62
     5
 10
23.400000000000091
 20
-68.400000000000091
 30
0.0
 11
23.400000000000091
 21
-75.599999999999909
 31
0.0
  0
LINE
  8
DETAIL
  6
CONTINUOUS
 62
     5
 10
23.400000000000091
 20
-68.400000000000091
 30
0.0
 11
30.60000000000014
 21
-68.400000000000091
 31
0.0
  0
LINE
  8
DETAIL
  6
CONTINUOUS
 62
     5
 10
14.400000000000089
 20
-75.599999999999909
 30
0.0
 11
21.60000000000014
 21
-75.599999999999909
 31
0.0
  0
LINE
  8
DETAIL
  6
CONTINUOUS
 62
     5
 10
21.60000000000014
 20
-68.400000000000091
 30
0.0
 11
21.60000000000014
 21
-75.599999999999909
 31
0.0
  0
LINE
  8
DETAIL
  6
CONTINUOUS
 62
     5
 10
14.400000000000089
 20
-68.400000000000091
 30
0.0
 11
14.400000000000089
 21
-75.599999999999909
 31
0.0
  0
LINE
  8
DETAIL
  6
CONTINUOUS
 62
     5
 10
14.400000000000089
 20
-68.400000000000091
 30
0.0
 11
21.60000000000014
 21
-68.400000000000091
 31
0.0
  0
LINE
  8
DETAIL
  6
CONTINUOUS
 62
     5
 10
32.400000000000091
 20
-84.599999999999909
 30
0.0
 11
39.600000000000144
 21
-84.599999999999909
 31
0.0
  0
LINE
  8
DETAIL
  6
CONTINUOUS
 62
     5
 10
32.400000000000091
 20
-77.400000000000091
 30
0.0
 11
32.400000000000091
 21
-84.599999999999909
 31
0.0
  0
LINE
  8
DETAIL
  6
CONTINUOUS
 62
     5
 10
32.400000000000091
 20
-77.400000000000091
 30
0.0
 11
39.600000000000144
 21
-77.400000000000091
 31
0.0
  0
LINE
  8
DETAIL
  6
CONTINUOUS
 62
     5
 10
23.400000000000091
 20
-84.599999999999909
 30
0.0
 11
30.60000000000014
 21
-84.599999999999909
 31
0.0
  0
LINE
  8
DETAIL
  6
CONTINUOUS
 62
     5
 10
30.60000000000014
 20
-77.400000000000091
 30
0.0
 11
30.60000000000014
 21
-84.599999999999909
 31
0.0
  0
LINE
  8
DETAIL
  6
CONTINUOUS
 62
     5
 10
23.400000000000091
 20
-77.400000000000091
 30
0.0
 11
23.400000000000091
 21
-84.599999999999909
 31
0.0
  0
LINE
  8
DETAIL
  6
CONTINUOUS
 62
     5
 10
23.400000000000091
 20
-77.400000000000091
 30
0.0
 11
30.60000000000014
 21
-77.400000000000091
 31
0.0
  0
LINE
  8
DETAIL
  6
CONTINUOUS
 62
     5
 10
14.400000000000089
 20
-84.599999999999909
 30
0.0
 11
21.60000000000014
 21
-84.599999999999909
 31
0.0
  0
LINE
  8
DETAIL
  6
CONTINUOUS
 62
     5
 10
21.60000000000014
 20
-77.400000000000091
 30
0.0
 11
21.60000000000014
 21
-84.599999999999909
 31
0.0
  0
LINE
  8
DETAIL
  6
CONTINUOUS
 62
     5
 10
14.400000000000089
 20
-77.400000000000091
 30
0.0
 11
14.400000000000089
 21
-84.599999999999909
 31
0.0
  0
LINE
  8
DETAIL
  6
CONTINUOUS
 62
     5
 10
14.400000000000089
 20
-77.400000000000091
 30
0.0
 11
21.60000000000014
 21
-77.400000000000091
 31
0.0
  0
LINE
  8
DETAIL
  6
CONTINUOUS
 62
     5
 10
5.4000000000000909
 20
-84.599999999999909
 30
0.0
 11
12.60000000000014
 21
-84.599999999999909
 31
0.0
  0
LINE
  8
DETAIL
  6
CONTINUOUS
 62
     5
 10
12.60000000000014
 20
-77.400000000000091
 30
0.0
 11
12.60000000000014
 21
-84.599999999999909
 31
0.0
  0
LINE
  8
DETAIL
  6
CONTINUOUS
 62
     5
 10
5.4000000000000909
 20
-77.400000000000091
 30
0.0
 11
5.4000000000000909
 21
-84.599999999999909
 31
0.0
  0
LINE
  8
DETAIL
  6
CONTINUOUS
 62
     5
 10
5.4000000000000909
 20
-77.400000000000091
 30
0.0
 11
12.60000000000014
 21
-77.400000000000091
 31
0.0
  0
LINE
  8
DETAIL
  6
CONTINUOUS
 62
     5
 10
32.400000000000091
 20
-93.599999999999909
 30
0.0
 11
39.600000000000144
 21
-93.599999999999909
 31
0.0
  0
LINE
  8
DETAIL
  6
CONTINUOUS
 62
     5
 10
32.400000000000091
 20
-86.400000000000091
 30
0.0
 11
32.400000000000091
 21
-93.599999999999909
 31
0.0
  0
LINE
  8
DETAIL
  6
CONTINUOUS
 62
     5
 10
32.400000000000091
 20
-86.400000000000091
 30
0.0
 11
39.600000000000144
 21
-86.400000000000091
 31
0.0
  0
LINE
  8
DETAIL
  6
CONTINUOUS
 62
     5
 10
23.400000000000091
 20
-93.599999999999909
 30
0.0
 11
30.60000000000014
 21
-93.599999999999909
 31
0.0
  0
LINE
  8
DETAIL
  6
CONTINUOUS
 62
     5
 10
30.60000000000014
 20
-86.400000000000091
 30
0.0
 11
30.60000000000014
 21
-93.599999999999909
 31
0.0
  0
LINE
  8
DETAIL
  6
CONTINUOUS
 62
     5
 10
23.400000000000091
 20
-86.400000000000091
 30
0.0
 11
23.400000000000091
 21
-93.599999999999909
 31
0.0
  0
LINE
  8
DETAIL
  6
CONTINUOUS
 62
     5
 10
23.400000000000091
 20
-86.400000000000091
 30
0.0
 11
30.60000000000014
 21
-86.400000000000091
 31
0.0
  0
LINE
  8
DETAIL
  6
CONTINUOUS
 62
     5
 10
14.400000000000089
 20
-93.599999999999909
 30
0.0
 11
21.60000000000014
 21
-93.599999999999909
 31
0.0
  0
LINE
  8
DETAIL
  6
CONTINUOUS
 62
     5
 10
21.60000000000014
 20
-86.400000000000091
 30
0.0
 11
21.60000000000014
 21
-93.599999999999909
 31
0.0
  0
LINE
  8
DETAIL
  6
CONTINUOUS
 62
     5
 10
14.400000000000089
 20
-86.400000000000091
 30
0.0
 11
14.400000000000089
 21
-93.599999999999909
 31
0.0
  0
LINE
  8
DETAIL
  6
CONTINUOUS
 62
     5
 10
14.400000000000089
 20
-86.400000000000091
 30
0.0
 11
21.60000000000014
 21
-86.400000000000091
 31
0.0
  0
LINE
  8
DETAIL
  6
CONTINUOUS
 62
     5
 10
5.4000000000000909
 20
-93.599999999999909
 30
0.0
 11
12.60000000000014
 21
-93.599999999999909
 31
0.0
  0
LINE
  8
DETAIL
  6
CONTINUOUS
 62
     5
 10
12.60000000000014
 20
-86.400000000000091
 30
0.0
 11
12.60000000000014
 21
-93.599999999999909
 31
0.0
  0
LINE
  8
DETAIL
  6
CONTINUOUS
 62
     5
 10
5.4000000000000909
 20
-86.400000000000091
 30
0.0
 11
5.4000000000000909
 21
-93.599999999999909
 31
0.0
  0
LINE
  8
DETAIL
  6
CONTINUOUS
 62
     5
 10
5.4000000000000909
 20
-86.400000000000091
 30
0.0
 11
12.60000000000014
 21
-86.400000000000091
 31
0.0
  0
LINE
  8
DETAIL
  6
CONTINUOUS
 62
     5
 10
3.600000000000136
 20
-86.400000000000091
 30
0.0
 11
3.600000000000136
 21
-93.599999999999909
 31
0.0
  0
LINE
  8
DETAIL
  6
CONTINUOUS
 62
     5
 10
14.400000000000089
 20
-68.400000000000091
 30
0.0
 11
21.60000000000014
 21
-68.400000000000091
 31
0.0
  0
LINE
  8
DETAIL
  6
CONTINUOUS
 62
     5
 10
14.400000000000089
 20
-75.599999999999909
 30
0.0
 11
14.400000000000089
 21
-68.400000000000091
 31
0.0
  0
LINE
  8
DETAIL
  6
CONTINUOUS
 62
     5
 10
32.400000000000091
 20
-59.399999999999977
 30
0.0
 11
39.600000000000144
 21
-59.399999999999977
 31
0.0
  0
LINE
  8
DETAIL
  6
CONTINUOUS
 62
     5
 10
32.400000000000091
 20
-50.399999999999977
 30
0.0
 11
39.600000000000144
 21
-50.399999999999977
 31
0.0
  0
LINE
  8
DETAIL
  6
CONTINUOUS
 62
     5
 10
32.400000000000091
 20
-57.600000000000023
 30
0.0
 11
32.400000000000091
 21
-50.399999999999977
 31
0.0
  0
LINE
  8
DETAIL
  6
CONTINUOUS
 62
     5
 10
86.400000000000091
 20
-3.5999999999999091
 30
0.0
 11
93.600000000000136
 21
-3.5999999999999091
 31
0.0
  0
LINE
  8
DETAIL
  6
CONTINUOUS
 62
     5
 10
86.400000000000091
 20
-12.599999999999911
 30
0.0
 11
93.600000000000136
 21
-12.599999999999911
 31
0.0
  0
LINE
  8
DETAIL
  6
CONTINUOUS
 62
     5
 10
93.600000000000136
 20
-5.3999999999999773
 30
0.0
 11
93.600000000000136
 21
-12.599999999999911
 31
0.0
  0
LINE
  8
DETAIL
  6
CONTINUOUS
 62
     5
 10
86.400000000000091
 20
-5.3999999999999773
 30
0.0
 11
86.400000000000091
 21
-12.599999999999911
 31
0.0
  0
LINE
  8
DETAIL
  6
CONTINUOUS
 62
     5
 10
86.400000000000091
 20
-5.3999999999999773
 30
0.0
 11
93.600000000000136
 21
-5.3999999999999773
 31
0.0
  0
LINE
  8
DETAIL
  6
CONTINUOUS
 62
     5
 10
77.400000000000091
 20
-12.599999999999911
 30
0.0
 11
84.600000000000136
 21
-12.599999999999911
 31
0.0
  0
LINE
  8
DETAIL
  6
CONTINUOUS
 62
     5
 10
84.600000000000136
 20
-5.3999999999999773
 30
0.0
 11
84.600000000000136
 21
-12.599999999999911
 31
0.0
  0
LINE
  8
DETAIL
  6
CONTINUOUS
 62
     5
 10
77.400000000000091
 20
-5.3999999999999773
 30
0.0
 11
77.400000000000091
 21
-12.599999999999911
 31
0.0
  0
LINE
  8
DETAIL
  6
CONTINUOUS
 62
     5
 10
77.400000000000091
 20
-5.3999999999999773
 30
0.0
 11
84.600000000000136
 21
-5.3999999999999773
 31
0.0
  0
LINE
  8
DETAIL
  6
CONTINUOUS
 62
     5
 10
86.400000000000091
 20
-21.600000000000019
 30
0.0
 11
93.600000000000136
 21
-21.600000000000019
 31
0.0
  0
LINE
  8
DETAIL
  6
CONTINUOUS
 62
     5
 10
93.600000000000136
 20
-14.399999999999981
 30
0.0
 11
93.600000000000136
 21
-21.600000000000019
 31
0.0
  0
LINE
  8
DETAIL
  6
CONTINUOUS
 62
     5
 10
86.400000000000091
 20
-14.399999999999981
 30
0.0
 11
86.400000000000091
 21
-21.600000000000019
 31
0.0
  0
LINE
  8
DETAIL
  6
CONTINUOUS
 62
     5
 10
86.400000000000091
 20
-14.399999999999981
 30
0.0
 11
93.600000000000136
 21
-14.399999999999981
 31
0.0
  0
LINE
  8
DETAIL
  6
CONTINUOUS
 62
     5
 10
77.400000000000091
 20
-21.600000000000019
 30
0.0
 11
84.600000000000136
 21
-21.600000000000019
 31
0.0
  0
LINE
  8
DETAIL
  6
CONTINUOUS
 62
     5
 10
84.600000000000136
 20
-14.399999999999981
 30
0.0
 11
84.600000000000136
 21
-21.600000000000019
 31
0.0
  0
LINE
  8
DETAIL
  6
CONTINUOUS
 62
     5
 10
77.400000000000091
 20
-14.399999999999981
 30
0.0
 11
77.400000000000091
 21
-21.600000000000019
 31
0.0
  0
LINE
  8
DETAIL
  6
CONTINUOUS
 62
     5
 10
77.400000000000091
 20
-14.399999999999981
 30
0.0
 11
84.600000000000136
 21
-14.399999999999981
 31
0.0
  0
LINE
  8
DETAIL
  6
CONTINUOUS
 62
     5
 10
68.400000000000091
 20
-21.600000000000019
 30
0.0
 11
75.600000000000136
 21
-21.600000000000019
 31
0.0
  0
LINE
  8
DETAIL
  6
CONTINUOUS
 62
     5
 10
75.600000000000136
 20
-14.399999999999981
 30
0.0
 11
75.600000000000136
 21
-21.600000000000019
 31
0.0
  0
LINE
  8
DETAIL
  6
CONTINUOUS
 62
     5
 10
68.400000000000091
 20
-14.399999999999981
 30
0.0
 11
68.400000000000091
 21
-21.600000000000019
 31
0.0
  0
LINE
  8
DETAIL
  6
CONTINUOUS
 62
     5
 10
68.400000000000091
 20
-14.399999999999981
 30
0.0
 11
75.600000000000136
 21
-14.399999999999981
 31
0.0
  0
LINE
  8
DETAIL
  6
CONTINUOUS
 62
     5
 10
86.400000000000091
 20
-30.600000000000019
 30
0.0
 11
93.600000000000136
 21
-30.600000000000019
 31
0.0
  0
LINE
  8
DETAIL
  6
CONTINUOUS
 62
     5
 10
93.600000000000136
 20
-23.399999999999981
 30
0.0
 11
93.600000000000136
 21
-30.600000000000019
 31
0.0
  0
LINE
  8
DETAIL
  6
CONTINUOUS
 62
     5
 10
86.400000000000091
 20
-23.399999999999981
 30
0.0
 11
86.400000000000091
 21
-30.600000000000019
 31
0.0
  0
LINE
  8
DETAIL
  6
CONTINUOUS
 62
     5
 10
86.400000000000091
 20
-23.399999999999981
 30
0.0
 11
93.600000000000136
 21
-23.399999999999981
 31
0.0
  0
LINE
  8
DETAIL
  6
CONTINUOUS
 62
     5
 10
77.400000000000091
 20
-30.600000000000019
 30
0.0
 11
84.600000000000136
 21
-30.600000000000019
 31
0.0
  0
LINE
  8
DETAIL
  6
CONTINUOUS
 62
     5
 10
84.600000000000136
 20
-23.399999999999981
 30
0.0
 11
84.600000000000136
 21
-30.600000000000019
 31
0.0
  0
LINE
  8
DETAIL
  6
CONTINUOUS
 62
     5
 10
77.400000000000091
 20
-23.399999999999981
 30
0.0
 11
77.400000000000091
 21
-30.600000000000019
 31
0.0
  0
LINE
  8
DETAIL
  6
CONTINUOUS
 62
     5
 10
77.400000000000091
 20
-23.399999999999981
 30
0.0
 11
84.600000000000136
 21
-23.399999999999981
 31
0.0
  0
LINE
  8
DETAIL
  6
CONTINUOUS
 62
     5
 10
68.400000000000091
 20
-30.600000000000019
 30
0.0
 11
75.600000000000136
 21
-30.600000000000019
 31
0.0
  0
LINE
  8
DETAIL
  6
CONTINUOUS
 62
     5
 10
75.600000000000136
 20
-23.399999999999981
 30
0.0
 11
75.600000000000136
 21
-30.600000000000019
 31
0.0
  0
LINE
  8
DETAIL
  6
CONTINUOUS
 62
     5
 10
68.400000000000091
 20
-23.399999999999981
 30
0.0
 11
68.400000000000091
 21
-30.600000000000019
 31
0.0
  0
LINE
  8
DETAIL
  6
CONTINUOUS
 62
     5
 10
68.400000000000091
 20
-23.399999999999981
 30
0.0
 11
75.600000000000136
 21
-23.399999999999981
 31
0.0
  0
LINE
  8
DETAIL
  6
CONTINUOUS
 62
     5
 10
59.400000000000091
 20
-30.600000000000019
 30
0.0
 11
66.600000000000136
 21
-30.600000000000019
 31
0.0
  0
LINE
  8
DETAIL
  6
CONTINUOUS
 62
     5
 10
66.600000000000136
 20
-23.399999999999981
 30
0.0
 11
66.600000000000136
 21
-30.600000000000019
 31
0.0
  0
LINE
  8
DETAIL
  6
CONTINUOUS
 62
     5
 10
59.400000000000091
 20
-23.399999999999981
 30
0.0
 11
59.400000000000091
 21
-30.600000000000019
 31
0.0
  0
LINE
  8
DETAIL
  6
CONTINUOUS
 62
     5
 10
59.400000000000091
 20
-23.399999999999981
 30
0.0
 11
66.600000000000136
 21
-23.399999999999981
 31
0.0
  0
LINE
  8
DETAIL
  6
CONTINUOUS
 62
     5
 10
86.400000000000091
 20
-39.599999999999909
 30
0.0
 11
93.600000000000136
 21
-39.599999999999909
 31
0.0
  0
LINE
  8
DETAIL
  6
CONTINUOUS
 62
     5
 10
93.600000000000136
 20
-32.399999999999977
 30
0.0
 11
93.600000000000136
 21
-39.599999999999909
 31
0.0
  0
LINE
  8
DETAIL
  6
CONTINUOUS
 62
     5
 10
86.400000000000091
 20
-32.399999999999977
 30
0.0
 11
86.400000000000091
 21
-39.599999999999909
 31
0.0
  0
LINE
  8
DETAIL
  6
CONTINUOUS
 62
     5
 10
86.400000000000091
 20
-32.399999999999977
 30
0.0
 11
93.600000000000136
 21
-32.399999999999977
 31
0.0
  0
LINE
  8
DETAIL
  6
CONTINUOUS
 62
     5
 10
77.400000000000091
 20
-39.599999999999909
 30
0.0
 11
84.600000000000136
 21
-39.599999999999909
 31
0.0
  0
LINE
  8
DETAIL
  6
CONTINUOUS
 62
     5
 10
84.600000000000136
 20
-32.399999999999977
 30
0.0
 11
84.600000000000136
 21
-39.599999999999909
 31
0.0
  0
LINE
  8
DETAIL
  6
CONTINUOUS
 62
     5
 10
77.400000000000091
 20
-32.399999999999977
 30
0.0
 11
77.400000000000091
 21
-39.599999999999909
 31
0.0
  0
LINE
  8
DETAIL
  6
CONTINUOUS
 62
     5
 10
77.400000000000091
 20
-32.399999999999977
 30
0.0
 11
84.600000000000136
 21
-32.399999999999977
 31
0.0
  0
LINE
  8
DETAIL
  6
CONTINUOUS
 62
     5
 10
68.400000000000091
 20
-39.599999999999909
 30
0.0
 11
75.600000000000136
 21
-39.599999999999909
 31
0.0
  0
LINE
  8
DETAIL
  6
CONTINUOUS
 62
     5
 10
75.600000000000136
 20
-32.399999999999977
 30
0.0
 11
75.600000000000136
 21
-39.599999999999909
 31
0.0
  0
LINE
  8
DETAIL
  6
CONTINUOUS
 62
     5
 10
68.400000000000091
 20
-32.399999999999977
 30
0.0
 11
68.400000000000091
 21
-39.599999999999909
 31
0.0
  0
LINE
  8
DETAIL
  6
CONTINUOUS
 62
     5
 10
68.400000000000091
 20
-32.399999999999977
 30
0.0
 11
75.600000000000136
 21
-32.399999999999977
 31
0.0
  0
LINE
  8
DETAIL
  6
CONTINUOUS
 62
     5
 10
59.400000000000091
 20
-39.599999999999909
 30
0.0
 11
66.600000000000136
 21
-39.599999999999909
 31
0.0
  0
LINE
  8
DETAIL
  6
CONTINUOUS
 62
     5
 10
66.600000000000136
 20
-32.399999999999977
 30
0.0
 11
66.600000000000136
 21
-39.599999999999909
 31
0.0
  0
LINE
  8
DETAIL
  6
CONTINUOUS
 62
     5
 10
59.400000000000091
 20
-32.399999999999977
 30
0.0
 11
59.400000000000091
 21
-39.599999999999909
 31
0.0
  0
LINE
  8
DETAIL
  6
CONTINUOUS
 62
     5
 10
59.400000000000091
 20
-32.399999999999977
 30
0.0
 11
66.600000000000136
 21
-32.399999999999977
 31
0.0
  0
LINE
  8
DETAIL
  6
CONTINUOUS
 62
     5
 10
50.400000000000091
 20
-39.599999999999909
 30
0.0
 11
57.600000000000144
 21
-39.599999999999909
 31
0.0
  0
LINE
  8
DETAIL
  6
CONTINUOUS
 62
     5
 10
57.600000000000144
 20
-32.399999999999977
 30
0.0
 11
57.600000000000144
 21
-39.599999999999909
 31
0.0
  0
LINE
  8
DETAIL
  6
CONTINUOUS
 62
     5
 10
50.400000000000091
 20
-32.399999999999977
 30
0.0
 11
50.400000000000091
 21
-39.599999999999909
 31
0.0
  0
LINE
  8
DETAIL
  6
CONTINUOUS
 62
     5
 10
50.400000000000091
 20
-32.399999999999977
 30
0.0
 11
57.600000000000144
 21
-32.399999999999977
 31
0.0
  0
LINE
  8
DETAIL
  6
CONTINUOUS
 62
     5
 10
86.400000000000091
 20
-48.600000000000023
 30
0.0
 11
93.600000000000136
 21
-48.600000000000023
 31
0.0
  0
LINE
  8
DETAIL
  6
CONTINUOUS
 62
     5
 10
93.600000000000136
 20
-41.399999999999977
 30
0.0
 11
93.600000000000136
 21
-48.600000000000023
 31
0.0
  0
LINE
  8
DETAIL
  6
CONTINUOUS
 62
     5
 10
86.400000000000091
 20
-41.399999999999977
 30
0.0
 11
86.400000000000091
 21
-48.600000000000023
 31
0.0
  0
LINE
  8
DETAIL
  6
CONTINUOUS
 62
     5
 10
86.400000000000091
 20
-41.399999999999977
 30
0.0
 11
93.600000000000136
 21
-41.399999999999977
 31
0.0
  0
LINE
  8
DETAIL
  6
CONTINUOUS
 62
     5
 10
77.400000000000091
 20
-48.600000000000023
 30
0.0
 11
84.600000000000136
 21
-48.600000000000023
 31
0.0
  0
LINE
  8
DETAIL
  6
CONTINUOUS
 62
     5
 10
84.600000000000136
 20
-41.399999999999977
 30
0.0
 11
84.600000000000136
 21
-48.600000000000023
 31
0.0
  0
LINE
  8
DETAIL
  6
CONTINUOUS
 62
     5
 10
77.400000000000091
 20
-41.399999999999977
 30
0.0
 11
77.400000000000091
 21
-48.600000000000023
 31
0.0
  0
LINE
  8
DETAIL
  6
CONTINUOUS
 62
     5
 10
77.400000000000091
 20
-41.399999999999977
 30
0.0
 11
84.600000000000136
 21
-41.399999999999977
 31
0.0
  0
LINE
  8
DETAIL
  6
CONTINUOUS
 62
     5
 10
68.400000000000091
 20
-48.600000000000023
 30
0.0
 11
75.600000000000136
 21
-48.600000000000023
 31
0.0
  0
LINE
  8
DETAIL
  6
CONTINUOUS
 62
     5
 10
75.600000000000136
 20
-41.399999999999977
 30
0.0
 11
75.600000000000136
 21
-48.600000000000023
 31
0.0
  0
LINE
  8
DETAIL
  6
CONTINUOUS
 62
     5
 10
68.400000000000091
 20
-41.399999999999977
 30
0.0
 11
68.400000000000091
 21
-48.600000000000023
 31
0.0
  0
LINE
  8
DETAIL
  6
CONTINUOUS
 62
     5
 10
68.400000000000091
 20
-41.399999999999977
 30
0.0
 11
75.600000000000136
 21
-41.399999999999977
 31
0.0
  0
LINE
  8
DETAIL
  6
CONTINUOUS
 62
     5
 10
59.400000000000091
 20
-48.600000000000023
 30
0.0
 11
66.600000000000136
 21
-48.600000000000023
 31
0.0
  0
LINE
  8
DETAIL
  6
CONTINUOUS
 62
     5
 10
66.600000000000136
 20
-41.399999999999977
 30
0.0
 11
66.600000000000136
 21
-48.600000000000023
 31
0.0
  0
LINE
  8
DETAIL
  6
CONTINUOUS
 62
     5
 10
59.400000000000091
 20
-41.399999999999977
 30
0.0
 11
59.400000000000091
 21
-48.600000000000023
 31
0.0
  0
LINE
  8
DETAIL
  6
CONTINUOUS
 62
     5
 10
59.400000000000091
 20
-41.399999999999977
 30
0.0
 11
66.600000000000136
 21
-41.399999999999977
 31
0.0
  0
LINE
  8
DETAIL
  6
CONTINUOUS
 62
     5
 10
50.400000000000091
 20
-48.600000000000023
 30
0.0
 11
57.600000000000144
 21
-48.600000000000023
 31
0.0
  0
LINE
  8
DETAIL
  6
CONTINUOUS
 62
     5
 10
57.600000000000144
 20
-41.399999999999977
 30
0.0
 11
57.600000000000144
 21
-48.600000000000023
 31
0.0
  0
LINE
  8
DETAIL
  6
CONTINUOUS
 62
     5
 10
50.400000000000091
 20
-41.399999999999977
 30
0.0
 11
50.400000000000091
 21
-48.600000000000023
 31
0.0
  0
LINE
  8
DETAIL
  6
CONTINUOUS
 62
     5
 10
50.400000000000091
 20
-41.399999999999977
 30
0.0
 11
57.600000000000144
 21
-41.399999999999977
 31
0.0
  0
LINE
  8
DETAIL
  6
CONTINUOUS
 62
     5
 10
41.400000000000091
 20
-48.600000000000023
 30
0.0
 11
48.600000000000144
 21
-48.600000000000023
 31
0.0
  0
LINE
  8
DETAIL
  6
CONTINUOUS
 62
     5
 10
48.600000000000144
 20
-41.399999999999977
 30
0.0
 11
48.600000000000144
 21
-48.600000000000023
 31
0.0
  0
LINE
  8
DETAIL
  6
CONTINUOUS
 62
     5
 10
41.400000000000091
 20
-41.399999999999977
 30
0.0
 11
41.400000000000091
 21
-48.600000000000023
 31
0.0
  0
LINE
  8
DETAIL
  6
CONTINUOUS
 62
     5
 10
41.400000000000091
 20
-41.399999999999977
 30
0.0
 11
48.600000000000144
 21
-41.399999999999977
 31
0.0
  0
LINE
  8
DETAIL
  6
CONTINUOUS
 62
     5
 10
86.400000000000091
 20
-57.600000000000023
 30
0.0
 11
93.600000000000136
 21
-57.600000000000023
 31
0.0
  0
LINE
  8
DETAIL
  6
CONTINUOUS
 62
     5
 10
93.600000000000136
 20
-50.399999999999977
 30
0.0
 11
93.600000000000136
 21
-57.600000000000023
 31
0.0
  0
LINE
  8
DETAIL
  6
CONTINUOUS
 62
     5
 10
86.400000000000091
 20
-50.399999999999977
 30
0.0
 11
86.400000000000091
 21
-57.600000000000023
 31
0.0
  0
LINE
  8
DETAIL
  6
CONTINUOUS
 62
     5
 10
86.400000000000091
 20
-50.399999999999977
 30
0.0
 11
93.600000000000136
 21
-50.399999999999977
 31
0.0
  0
LINE
  8
DETAIL
  6
CONTINUOUS
 62
     5
 10
77.400000000000091
 20
-57.600000000000023
 30
0.0
 11
84.600000000000136
 21
-57.600000000000023
 31
0.0
  0
LINE
  8
DETAIL
  6
CONTINUOUS
 62
     5
 10
84.600000000000136
 20
-50.399999999999977
 30
0.0
 11
84.600000000000136
 21
-57.600000000000023
 31
0.0
  0
LINE
  8
DETAIL
  6
CONTINUOUS
 62
     5
 10
77.400000000000091
 20
-50.399999999999977
 30
0.0
 11
77.400000000000091
 21
-57.600000000000023
 31
0.0
  0
LINE
  8
DETAIL
  6
CONTINUOUS
 62
     5
 10
77.400000000000091
 20
-50.399999999999977
 30
0.0
 11
84.600000000000136
 21
-50.399999999999977
 31
0.0
  0
LINE
  8
DETAIL
  6
CONTINUOUS
 62
     5
 10
68.400000000000091
 20
-57.600000000000023
 30
0.0
 11
75.600000000000136
 21
-57.600000000000023
 31
0.0
  0
LINE
  8
DETAIL
  6
CONTINUOUS
 62
     5
 10
75.600000000000136
 20
-50.399999999999977
 30
0.0
 11
75.600000000000136
 21
-57.600000000000023
 31
0.0
  0
LINE
  8
DETAIL
  6
CONTINUOUS
 62
     5
 10
68.400000000000091
 20
-50.399999999999977
 30
0.0
 11
68.400000000000091
 21
-57.600000000000023
 31
0.0
  0
LINE
  8
DETAIL
  6
CONTINUOUS
 62
     5
 10
68.400000000000091
 20
-50.399999999999977
 30
0.0
 11
75.600000000000136
 21
-50.399999999999977
 31
0.0
  0
LINE
  8
DETAIL
  6
CONTINUOUS
 62
     5
 10
59.400000000000091
 20
-57.600000000000023
 30
0.0
 11
66.600000000000136
 21
-57.600000000000023
 31
0.0
  0
LINE
  8
DETAIL
  6
CONTINUOUS
 62
     5
 10
66.600000000000136
 20
-50.399999999999977
 30
0.0
 11
66.600000000000136
 21
-57.600000000000023
 31
0.0
  0
LINE
  8
DETAIL
  6
CONTINUOUS
 62
     5
 10
59.400000000000091
 20
-50.399999999999977
 30
0.0
 11
59.400000000000091
 21
-57.600000000000023
 31
0.0
  0
LINE
  8
DETAIL
  6
CONTINUOUS
 62
     5
 10
59.400000000000091
 20
-50.399999999999977
 30
0.0
 11
66.600000000000136
 21
-50.399999999999977
 31
0.0
  0
LINE
  8
DETAIL
  6
CONTINUOUS
 62
     5
 10
50.400000000000091
 20
-57.600000000000023
 30
0.0
 11
57.600000000000144
 21
-57.600000000000023
 31
0.0
  0
LINE
  8
DETAIL
  6
CONTINUOUS
 62
     5
 10
57.600000000000144
 20
-50.399999999999977
 30
0.0
 11
57.600000000000144
 21
-57.600000000000023
 31
0.0
  0
LINE
  8
DETAIL
  6
CONTINUOUS
 62
     5
 10
50.400000000000091
 20
-50.399999999999977
 30
0.0
 11
50.400000000000091
 21
-57.600000000000023
 31
0.0
  0
LINE
  8
DETAIL
  6
CONTINUOUS
 62
     5
 10
50.400000000000091
 20
-50.399999999999977
 30
0.0
 11
57.600000000000144
 21
-50.399999999999977
 31
0.0
  0
LINE
  8
DETAIL
  6
CONTINUOUS
 62
     5
 10
41.400000000000091
 20
-57.600000000000023
 30
0.0
 11
48.600000000000144
 21
-57.600000000000023
 31
0.0
  0
LINE
  8
DETAIL
  6
CONTINUOUS
 62
     5
 10
48.600000000000144
 20
-50.399999999999977
 30
0.0
 11
48.600000000000144
 21
-57.600000000000023
 31
0.0
  0
LINE
  8
DETAIL
  6
CONTINUOUS
 62
     5
 10
41.400000000000091
 20
-50.399999999999977
 30
0.0
 11
41.400000000000091
 21
-57.600000000000023
 31
0.0
  0
LINE
  8
DETAIL
  6
CONTINUOUS
 62
     5
 10
41.400000000000091
 20
-50.399999999999977
 30
0.0
 11
48.600000000000144
 21
-50.399999999999977
 31
0.0
  0
LINE
  8
DETAIL
  6
CONTINUOUS
 62
     5
 10
39.600000000000144
 20
-50.399999999999977
 30
0.0
 11
39.600000000000144
 21
-57.600000000000023
 31
0.0
  0
LINE
  8
DETAIL
  6
CONTINUOUS
 62
     5
 10
86.400000000000091
 20
-66.599999999999909
 30
0.0
 11
93.600000000000136
 21
-66.599999999999909
 31
0.0
  0
LINE
  8
DETAIL
  6
CONTINUOUS
 62
     5
 10
93.600000000000136
 20
-59.399999999999977
 30
0.0
 11
93.600000000000136
 21
-66.599999999999909
 31
0.0
  0
LINE
  8
DETAIL
  6
CONTINUOUS
 62
     5
 10
86.400000000000091
 20
-59.399999999999977
 30
0.0
 11
86.400000000000091
 21
-66.599999999999909
 31
0.0
  0
LINE
  8
DETAIL
  6
CONTINUOUS
 62
     5
 10
86.400000000000091
 20
-59.399999999999977
 30
0.0
 11
93.600000000000136
 21
-59.399999999999977
 31
0.0
  0
LINE
  8
DETAIL
  6
CONTINUOUS
 62
     5
 10
77.400000000000091
 20
-66.599999999999909
 30
0.0
 11
84.600000000000136
 21
-66.599999999999909
 31
0.0
  0
LINE
  8
DETAIL
  6
CONTINUOUS
 62
     5
 10
84.600000000000136
 20
-59.399999999999977
 30
0.0
 11
84.600000000000136
 21
-66.599999999999909
 31
0.0
  0
LINE
  8
DETAIL
  6
CONTINUOUS
 62
     5
 10
77.400000000000091
 20
-59.399999999999977
 30
0.0
 11
77.400000000000091
 21
-66.599999999999909
 31
0.0
  0
LINE
  8
DETAIL
  6
CONTINUOUS
 62
     5
 10
77.400000000000091
 20
-59.399999999999977
 30
0.0
 11
84.600000000000136
 21
-59.399999999999977
 31
0.0
  0
LINE
  8
DETAIL
  6
CONTINUOUS
 62
     5
 10
68.400000000000091
 20
-66.599999999999909
 30
0.0
 11
75.600000000000136
 21
-66.599999999999909
 31
0.0
  0
LINE
  8
DETAIL
  6
CONTINUOUS
 62
     5
 10
75.600000000000136
 20
-59.399999999999977
 30
0.0
 11
75.600000000000136
 21
-66.599999999999909
 31
0.0
  0
LINE
  8
DETAIL
  6
CONTINUOUS
 62
     5
 10
68.400000000000091
 20
-59.399999999999977
 30
0.0
 11
68.400000000000091
 21
-66.599999999999909
 31
0.0
  0
LINE
  8
DETAIL
  6
CONTINUOUS
 62
     5
 10
68.400000000000091
 20
-59.399999999999977
 30
0.0
 11
75.600000000000136
 21
-59.399999999999977
 31
0.0
  0
LINE
  8
DETAIL
  6
CONTINUOUS
 62
     5
 10
59.400000000000091
 20
-66.599999999999909
 30
0.0
 11
66.600000000000136
 21
-66.599999999999909
 31
0.0
  0
LINE
  8
DETAIL
  6
CONTINUOUS
 62
     5
 10
66.600000000000136
 20
-59.399999999999977
 30
0.0
 11
66.600000000000136
 21
-66.599999999999909
 31
0.0
  0
LINE
  8
DETAIL
  6
CONTINUOUS
 62
     5
 10
59.400000000000091
 20
-59.399999999999977
 30
0.0
 11
59.400000000000091
 21
-66.599999999999909
 31
0.0
  0
LINE
  8
DETAIL
  6
CONTINUOUS
 62
     5
 10
59.400000000000091
 20
-59.399999999999977
 30
0.0
 11
66.600000000000136
 21
-59.399999999999977
 31
0.0
  0
LINE
  8
DETAIL
  6
CONTINUOUS
 62
     5
 10
50.400000000000091
 20
-66.599999999999909
 30
0.0
 11
57.600000000000144
 21
-66.599999999999909
 31
0.0
  0
LINE
  8
DETAIL
  6
CONTINUOUS
 62
     5
 10
57.600000000000144
 20
-59.399999999999977
 30
0.0
 11
57.600000000000144
 21
-66.599999999999909
 31
0.0
  0
LINE
  8
DETAIL
  6
CONTINUOUS
 62
     5
 10
50.400000000000091
 20
-59.399999999999977
 30
0.0
 11
50.400000000000091
 21
-66.599999999999909
 31
0.0
  0
LINE
  8
DETAIL
  6
CONTINUOUS
 62
     5
 10
50.400000000000091
 20
-59.399999999999977
 30
0.0
 11
57.600000000000144
 21
-59.399999999999977
 31
0.0
  0
LINE
  8
DETAIL
  6
CONTINUOUS
 62
     5
 10
41.400000000000091
 20
-66.599999999999909
 30
0.0
 11
48.600000000000144
 21
-66.599999999999909
 31
0.0
  0
LINE
  8
DETAIL
  6
CONTINUOUS
 62
     5
 10
48.600000000000144
 20
-59.399999999999977
 30
0.0
 11
48.600000000000144
 21
-66.599999999999909
 31
0.0
  0
LINE
  8
DETAIL
  6
CONTINUOUS
 62
     5
 10
41.400000000000091
 20
-59.399999999999977
 30
0.0
 11
41.400000000000091
 21
-66.599999999999909
 31
0.0
  0
LINE
  8
DETAIL
  6
CONTINUOUS
 62
     5
 10
41.400000000000091
 20
-59.399999999999977
 30
0.0
 11
48.600000000000144
 21
-59.399999999999977
 31
0.0
  0
LINE
  8
DETAIL
  6
CONTINUOUS
 62
     5
 10
39.600000000000144
 20
-59.399999999999977
 30
0.0
 11
39.600000000000144
 21
-66.599999999999909
 31
0.0
  0
LINE
  8
DETAIL
  6
CONTINUOUS
 62
     5
 10
86.400000000000091
 20
-75.599999999999909
 30
0.0
 11
93.600000000000136
 21
-75.599999999999909
 31
0.0
  0
LINE
  8
DETAIL
  6
CONTINUOUS
 62
     5
 10
93.600000000000136
 20
-68.400000000000091
 30
0.0
 11
93.600000000000136
 21
-75.599999999999909
 31
0.0
  0
LINE
  8
DETAIL
  6
CONTINUOUS
 62
     5
 10
86.400000000000091
 20
-68.400000000000091
 30
0.0
 11
86.400000000000091
 21
-75.599999999999909
 31
0.0
  0
LINE
  8
DETAIL
  6
CONTINUOUS
 62
     5
 10
86.400000000000091
 20
-68.400000000000091
 30
0.0
 11
93.600000000000136
 21
-68.400000000000091
 31
0.0
  0
LINE
  8
DETAIL
  6
CONTINUOUS
 62
     5
 10
77.400000000000091
 20
-75.599999999999909
 30
0.0
 11
84.600000000000136
 21
-75.599999999999909
 31
0.0
  0
LINE
  8
DETAIL
  6
CONTINUOUS
 62
     5
 10
84.600000000000136
 20
-68.400000000000091
 30
0.0
 11
84.600000000000136
 21
-75.599999999999909
 31
0.0
  0
LINE
  8
DETAIL
  6
CONTINUOUS
 62
     5
 10
77.400000000000091
 20
-68.400000000000091
 30
0.0
 11
77.400000000000091
 21
-75.599999999999909
 31
0.0
  0
LINE
  8
DETAIL
  6
CONTINUOUS
 62
     5
 10
77.400000000000091
 20
-68.400000000000091
 30
0.0
 11
84.600000000000136
 21
-68.400000000000091
 31
0.0
  0
LINE
  8
DETAIL
  6
CONTINUOUS
 62
     5
 10
68.400000000000091
 20
-75.599999999999909
 30
0.0
 11
75.600000000000136
 21
-75.599999999999909
 31
0.0
  0
LINE
  8
DETAIL
  6
CONTINUOUS
 62
     5
 10
75.600000000000136
 20
-68.400000000000091
 30
0.0
 11
75.600000000000136
 21
-75.599999999999909
 31
0.0
  0
LINE
  8
DETAIL
  6
CONTINUOUS
 62
     5
 10
68.400000000000091
 20
-68.400000000000091
 30
0.0
 11
68.400000000000091
 21
-75.599999999999909
 31
0.0
  0
LINE
  8
DETAIL
  6
CONTINUOUS
 62
     5
 10
68.400000000000091
 20
-68.400000000000091
 30
0.0
 11
75.600000000000136
 21
-68.400000000000091
 31
0.0
  0
LINE
  8
DETAIL
  6
CONTINUOUS
 62
     5
 10
59.400000000000091
 20
-75.599999999999909
 30
0.0
 11
66.600000000000136
 21
-75.599999999999909
 31
0.0
  0
LINE
  8
DETAIL
  6
CONTINUOUS
 62
     5
 10
66.600000000000136
 20
-68.400000000000091
 30
0.0
 11
66.600000000000136
 21
-75.599999999999909
 31
0.0
  0
LINE
  8
DETAIL
  6
CONTINUOUS
 62
     5
 10
59.400000000000091
 20
-68.400000000000091
 30
0.0
 11
59.400000000000091
 21
-75.599999999999909
 31
0.0
  0
LINE
  8
DETAIL
  6
CONTINUOUS
 62
     5
 10
59.400000000000091
 20
-68.400000000000091
 30
0.0
 11
66.600000000000136
 21
-68.400000000000091
 31
0.0
  0
LINE
  8
DETAIL
  6
CONTINUOUS
 62
     5
 10
50.400000000000091
 20
-75.599999999999909
 30
0.0
 11
57.600000000000144
 21
-75.599999999999909
 31
0.0
  0
LINE
  8
DETAIL
  6
CONTINUOUS
 62
     5
 10
57.600000000000144
 20
-68.400000000000091
 30
0.0
 11
57.600000000000144
 21
-75.599999999999909
 31
0.0
  0
LINE
  8
DETAIL
  6
CONTINUOUS
 62
     5
 10
50.400000000000091
 20
-68.400000000000091
 30
0.0
 11
50.400000000000091
 21
-75.599999999999909
 31
0.0
  0
LINE
  8
DETAIL
  6
CONTINUOUS
 62
     5
 10
50.400000000000091
 20
-68.400000000000091
 30
0.0
 11
57.600000000000144
 21
-68.400000000000091
 31
0.0
  0
LINE
  8
DETAIL
  6
CONTINUOUS
 62
     5
 10
41.400000000000091
 20
-75.599999999999909
 30
0.0
 11
48.600000000000144
 21
-75.599999999999909
 31
0.0
  0
LINE
  8
DETAIL
  6
CONTINUOUS
 62
     5
 10
48.600000000000144
 20
-68.400000000000091
 30
0.0
 11
48.600000000000144
 21
-75.599999999999909
 31
0.0
  0
LINE
  8
DETAIL
  6
CONTINUOUS
 62
     5
 10
41.400000000000091
 20
-68.400000000000091
 30
0.0
 11
41.400000000000091
 21
-75.599999999999909
 31
0.0
  0
LINE
  8
DETAIL
  6
CONTINUOUS
 62
     5
 10
41.400000000000091
 20
-68.400000000000091
 30
0.0
 11
48.600000000000144
 21
-68.400000000000091
 31
0.0
  0
LINE
  8
DETAIL
  6
CONTINUOUS
 62
     5
 10
39.600000000000144
 20
-68.400000000000091
 30
0.0
 11
39.600000000000144
 21
-75.599999999999909
 31
0.0
  0
LINE
  8
DETAIL
  6
CONTINUOUS
 62
     5
 10
86.400000000000091
 20
-84.599999999999909
 30
0.0
 11
93.600000000000136
 21
-84.599999999999909
 31
0.0
  0
LINE
  8
DETAIL
  6
CONTINUOUS
 62
     5
 10
93.600000000000136
 20
-77.400000000000091
 30
0.0
 11
93.600000000000136
 21
-84.599999999999909
 31
0.0
  0
LINE
  8
DETAIL
  6
CONTINUOUS
 62
     5
 10
86.400000000000091
 20
-77.400000000000091
 30
0.0
 11
86.400000000000091
 21
-84.599999999999909
 31
0.0
  0
LINE
  8
DETAIL
  6
CONTINUOUS
 62
     5
 10
86.400000000000091
 20
-77.400000000000091
 30
0.0
 11
93.600000000000136
 21
-77.400000000000091
 31
0.0
  0
LINE
  8
DETAIL
  6
CONTINUOUS
 62
     5
 10
77.400000000000091
 20
-84.599999999999909
 30
0.0
 11
84.600000000000136
 21
-84.599999999999909
 31
0.0
  0
LINE
  8
DETAIL
  6
CONTINUOUS
 62
     5
 10
84.600000000000136
 20
-77.400000000000091
 30
0.0
 11
84.600000000000136
 21
-84.599999999999909
 31
0.0
  0
LINE
  8
DETAIL
  6
CONTINUOUS
 62
     5
 10
77.400000000000091
 20
-77.400000000000091
 30
0.0
 11
77.400000000000091
 21
-84.599999999999909
 31
0.0
  0
LINE
  8
DETAIL
  6
CONTINUOUS
 62
     5
 10
77.400000000000091
 20
-77.400000000000091
 30
0.0
 11
84.600000000000136
 21
-77.400000000000091
 31
0.0
  0
LINE
  8
DETAIL
  6
CONTINUOUS
 62
     5
 10
68.400000000000091
 20
-84.599999999999909
 30
0.0
 11
75.600000000000136
 21
-84.599999999999909
 31
0.0
  0
LINE
  8
DETAIL
  6
CONTINUOUS
 62
     5
 10
75.600000000000136
 20
-77.400000000000091
 30
0.0
 11
75.600000000000136
 21
-84.599999999999909
 31
0.0
  0
LINE
  8
DETAIL
  6
CONTINUOUS
 62
     5
 10
68.400000000000091
 20
-77.400000000000091
 30
0.0
 11
68.400000000000091
 21
-84.599999999999909
 31
0.0
  0
LINE
  8
DETAIL
  6
CONTINUOUS
 62
     5
 10
68.400000000000091
 20
-77.400000000000091
 30
0.0
 11
75.600000000000136
 21
-77.400000000000091
 31
0.0
  0
LINE
  8
DETAIL
  6
CONTINUOUS
 62
     5
 10
59.400000000000091
 20
-84.599999999999909
 30
0.0
 11
66.600000000000136
 21
-84.599999999999909
 31
0.0
  0
LINE
  8
DETAIL
  6
CONTINUOUS
 62
     5
 10
66.600000000000136
 20
-77.400000000000091
 30
0.0
 11
66.600000000000136
 21
-84.599999999999909
 31
0.0
  0
LINE
  8
DETAIL
  6
CONTINUOUS
 62
     5
 10
59.400000000000091
 20
-77.400000000000091
 30
0.0
 11
59.400000000000091
 21
-84.599999999999909
 31
0.0
  0
LINE
  8
DETAIL
  6
CONTINUOUS
 62
     5
 10
59.400000000000091
 20
-77.400000000000091
 30
0.0
 11
66.600000000000136
 21
-77.400000000000091
 31
0.0
  0
LINE
  8
DETAIL
  6
CONTINUOUS
 62
     5
 10
50.400000000000091
 20
-84.599999999999909
 30
0.0
 11
57.600000000000144
 21
-84.599999999999909
 31
0.0
  0
LINE
  8
DETAIL
  6
CONTINUOUS
 62
     5
 10
57.600000000000144
 20
-77.400000000000091
 30
0.0
 11
57.600000000000144
 21
-84.599999999999909
 31
0.0
  0
LINE
  8
DETAIL
  6
CONTINUOUS
 62
     5
 10
50.400000000000091
 20
-77.400000000000091
 30
0.0
 11
50.400000000000091
 21
-84.599999999999909
 31
0.0
  0
LINE
  8
DETAIL
  6
CONTINUOUS
 62
     5
 10
50.400000000000091
 20
-77.400000000000091
 30
0.0
 11
57.600000000000144
 21
-77.400000000000091
 31
0.0
  0
LINE
  8
DETAIL
  6
CONTINUOUS
 62
     5
 10
41.400000000000091
 20
-84.599999999999909
 30
0.0
 11
48.600000000000144
 21
-84.599999999999909
 31
0.0
  0
LINE
  8
DETAIL
  6
CONTINUOUS
 62
     5
 10
48.600000000000144
 20
-77.400000000000091
 30
0.0
 11
48.600000000000144
 21
-84.599999999999909
 31
0.0
  0
LINE
  8
DETAIL
  6
CONTINUOUS
 62
     5
 10
41.400000000000091
 20
-77.400000000000091
 30
0.0
 11
41.400000000000091
 21
-84.599999999999909
 31
0.0
  0
LINE
  8
DETAIL
  6
CONTINUOUS
 62
     5
 10
41.400000000000091
 20
-77.400000000000091
 30
0.0
 11
48.600000000000144
 21
-77.400000000000091
 31
0.0
  0
LINE
  8
DETAIL
  6
CONTINUOUS
 62
     5
 10
39.600000000000144
 20
-77.400000000000091
 30
0.0
 11
39.600000000000144
 21
-84.599999999999909
 31
0.0
  0
LINE
  8
DETAIL
  6
CONTINUOUS
 62
     5
 10
86.400000000000091
 20
-93.599999999999909
 30
0.0
 11
93.600000000000136
 21
-93.599999999999909
 31
0.0
  0
LINE
  8
DETAIL
  6
CONTINUOUS
 62
     5
 10
93.600000000000136
 20
-86.400000000000091
 30
0.0
 11
93.600000000000136
 21
-93.599999999999909
 31
0.0
  0
LINE
  8
DETAIL
  6
CONTINUOUS
 62
     5
 10
86.400000000000091
 20
-86.400000000000091
 30
0.0
 11
86.400000000000091
 21
-93.599999999999909
 31
0.0
  0
LINE
  8
DETAIL
  6
CONTINUOUS
 62
     5
 10
86.400000000000091
 20
-86.400000000000091
 30
0.0
 11
93.600000000000136
 21
-86.400000000000091
 31
0.0
  0
LINE
  8
DETAIL
  6
CONTINUOUS
 62
     5
 10
77.400000000000091
 20
-93.599999999999909
 30
0.0
 11
84.600000000000136
 21
-93.599999999999909
 31
0.0
  0
LINE
  8
DETAIL
  6
CONTINUOUS
 62
     5
 10
84.600000000000136
 20
-86.400000000000091
 30
0.0
 11
84.600000000000136
 21
-93.599999999999909
 31
0.0
  0
LINE
  8
DETAIL
  6
CONTINUOUS
 62
     5
 10
77.400000000000091
 20
-86.400000000000091
 30
0.0
 11
77.400000000000091
 21
-93.599999999999909
 31
0.0
  0
LINE
  8
DETAIL
  6
CONTINUOUS
 62
     5
 10
77.400000000000091
 20
-86.400000000000091
 30
0.0
 11
84.600000000000136
 21
-86.400000000000091
 31
0.0
  0
LINE
  8
DETAIL
  6
CONTINUOUS
 62
     5
 10
68.400000000000091
 20
-93.599999999999909
 30
0.0
 11
75.600000000000136
 21
-93.599999999999909
 31
0.0
  0
LINE
  8
DETAIL
  6
CONTINUOUS
 62
     5
 10
75.600000000000136
 20
-86.400000000000091
 30
0.0
 11
75.600000000000136
 21
-93.599999999999909
 31
0.0
  0
LINE
  8
DETAIL
  6
CONTINUOUS
 62
     5
 10
68.400000000000091
 20
-86.400000000000091
 30
0.0
 11
68.400000000000091
 21
-93.599999999999909
 31
0.0
  0
LINE
  8
DETAIL
  6
CONTINUOUS
 62
     5
 10
68.400000000000091
 20
-86.400000000000091
 30
0.0
 11
75.600000000000136
 21
-86.400000000000091
 31
0.0
  0
LINE
  8
DETAIL
  6
CONTINUOUS
 62
     5
 10
59.400000000000091
 20
-93.599999999999909
 30
0.0
 11
66.600000000000136
 21
-93.599999999999909
 31
0.0
  0
LINE
  8
DETAIL
  6
CONTINUOUS
 62
     5
 10
66.600000000000136
 20
-86.400000000000091
 30
0.0
 11
66.600000000000136
 21
-93.599999999999909
 31
0.0
  0
LINE
  8
DETAIL
  6
CONTINUOUS
 62
     5
 10
59.400000000000091
 20
-86.400000000000091
 30
0.0
 11
59.400000000000091
 21
-93.599999999999909
 31
0.0
  0
LINE
  8
DETAIL
  6
CONTINUOUS
 62
     5
 10
59.400000000000091
 20
-86.400000000000091
 30
0.0
 11
66.600000000000136
 21
-86.400000000000091
 31
0.0
  0
LINE
  8
DETAIL
  6
CONTINUOUS
 62
     5
 10
50.400000000000091
 20
-93.599999999999909
 30
0.0
 11
57.600000000000144
 21
-93.599999999999909
 31
0.0
  0
LINE
  8
DETAIL
  6
CONTINUOUS
 62
     5
 10
57.600000000000144
 20
-86.400000000000091
 30
0.0
 11
57.600000000000144
 21
-93.599999999999909
 31
0.0
  0
LINE
  8
DETAIL
  6
CONTINUOUS
 62
     5
 10
50.400000000000091
 20
-86.400000000000091
 30
0.0
 11
50.400000000000091
 21
-93.599999999999909
 31
0.0
  0
LINE
  8
DETAIL
  6
CONTINUOUS
 62
     5
 10
50.400000000000091
 20
-86.400000000000091
 30
0.0
 11
57.600000000000144
 21
-86.400000000000091
 31
0.0
  0
LINE
  8
DETAIL
  6
CONTINUOUS
 62
     5
 10
41.400000000000091
 20
-93.599999999999909
 30
0.0
 11
48.600000000000144
 21
-93.599999999999909
 31
0.0
  0
LINE
  8
DETAIL
  6
CONTINUOUS
 62
     5
 10
48.600000000000144
 20
-86.400000000000091
 30
0.0
 11
48.600000000000144
 21
-93.599999999999909
 31
0.0
  0
LINE
  8
DETAIL
  6
CONTINUOUS
 62
     5
 10
41.400000000000091
 20
-86.400000000000091
 30
0.0
 11
41.400000000000091
 21
-93.599999999999909
 31
0.0
  0
LINE
  8
DETAIL
  6
CONTINUOUS
 62
     5
 10
41.400000000000091
 20
-86.400000000000091
 30
0.0
 11
48.600000000000144
 21
-86.400000000000091
 31
0.0
  0
LINE
  8
DETAIL
  6
CONTINUOUS
 62
     5
 10
39.600000000000144
 20
-86.400000000000091
 30
0.0
 11
39.600000000000144
 21
-93.599999999999909
 31
0.0
  0
LINE
  8
DETAIL
  6
CONTINUOUS
 62
     5
 10
59.400000000000091
 20
-23.399999999999981
 30
0.0
 11
66.600000000000136
 21
-23.399999999999981
 31
0.0
  0
LINE
  8
DETAIL
  6
CONTINUOUS
 62
     5
 10
59.400000000000091
 20
-30.600000000000019
 30
0.0
 11
59.400000000000091
 21
-23.399999999999981
 31
0.0
  0
LINE
  8
DETAIL
  6
CONTINUOUS
 62
     5
 10
101.0
 20
-97.0
 30
0.0
 11
99.5
 21
-95.5
 31
0.0
  0
LINE
  8
DETAIL
  6
CONTINUOUS
 62
     5
 10
97.0
 20
-101.0
 30
0.0
 11
95.5
 21
-99.5
 31
0.0
  0
LINE
  8
DETAIL
  6
CONTINUOUS
 62
     5
 10
77.400000000000091
 20
-3.5999999999999091
 30
0.0
 11
84.600000000000136
 21
-3.5999999999999091
 31
0.0
  0
LINE
  8
DETAIL
  6
CONTINUOUS
 62
     5
 10
68.400000000000091
 20
-3.5999999999999091
 30
0.0
 11
75.600000000000136
 21
-3.5999999999999091
 31
0.0
  0
LINE
  8
DETAIL
  6
CONTINUOUS
 62
     5
 10
59.400000000000091
 20
-3.5999999999999091
 30
0.0
 11
66.600000000000136
 21
-3.5999999999999091
 31
0.0
  0
LINE
  8
DETAIL
  6
CONTINUOUS
 62
     5
 10
50.400000000000091
 20
-3.5999999999999091
 30
0.0
 11
57.600000000000144
 21
-3.5999999999999091
 31
0.0
  0
LINE
  8
DETAIL
  6
CONTINUOUS
 62
     5
 10
41.400000000000091
 20
-3.5999999999999091
 30
0.0
 11
48.600000000000144
 21
-3.5999999999999091
 31
0.0
  0
LINE
  8
DETAIL
  6
CONTINUOUS
 62
     5
 10
32.400000000000091
 20
-3.5999999999999091
 30
0.0
 11
39.600000000000144
 21
-3.5999999999999091
 31
0.0
  0
LINE
  8
DETAIL
  6
CONTINUOUS
 62
     5
 10
68.400000000000091
 20
-5.3999999999999773
 30
0.0
 11
75.600000000000136
 21
-5.3999999999999773
 31
0.0
  0
LINE
  8
DETAIL
  6
CONTINUOUS
 62
     5
 10
68.400000000000091
 20
-12.599999999999911
 30
0.0
 11
75.600000000000136
 21
-12.599999999999911
 31
0.0
  0
LINE
  8
DETAIL
  6
CONTINUOUS
 62
     5
 10
75.600000000000136
 20
-5.3999999999999773
 30
0.0
 11
75.600000000000136
 21
-12.599999999999911
 31
0.0
  0
LINE
  8
DETAIL
  6
CONTINUOUS
 62
     5
 10
68.400000000000091
 20
-5.3999999999999773
 30
0.0
 11
68.400000000000091
 21
-12.599999999999911
 31
0.0
  0
LINE
  8
DETAIL
  6
CONTINUOUS
 62
     5
 10
59.400000000000091
 20
-5.3999999999999773
 30
0.0
 11
66.600000000000136
 21
-5.3999999999999773
 31
0.0
  0
LINE
  8
DETAIL
  6
CONTINUOUS
 62
     5
 10
59.400000000000091
 20
-12.599999999999911
 30
0.0
 11
66.600000000000136
 21
-12.599999999999911
 31
0.0
  0
LINE
  8
DETAIL
  6
CONTINUOUS
 62
     5
 10
66.600000000000136
 20
-5.3999999999999773
 30
0.0
 11
66.600000000000136
 21
-12.599999999999911
 31
0.0
  0
LINE
  8
DETAIL
  6
CONTINUOUS
 62
     5
 10
59.400000000000091
 20
-5.3999999999999773
 30
0.0
 11
59.400000000000091
 21
-12.599999999999911
 31
0.0
  0
LINE
  8
DETAIL
  6
CONTINUOUS
 62
     5
 10
50.400000000000091
 20
-5.3999999999999773
 30
0.0
 11
57.600000000000144
 21
-5.3999999999999773
 31
0.0
  0
LINE
  8
DETAIL
  6
CONTINUOUS
 62
     5
 10
50.400000000000091
 20
-12.599999999999911
 30
0.0
 11
57.600000000000144
 21
-12.599999999999911
 31
0.0
  0
LINE
  8
DETAIL
  6
CONTINUOUS
 62
     5
 10
57.600000000000144
 20
-5.3999999999999773
 30
0.0
 11
57.600000000000144
 21
-12.599999999999911
 31
0.0
  0
LINE
  8
DETAIL
  6
CONTINUOUS
 62
     5
 10
50.400000000000091
 20
-5.3999999999999773
 30
0.0
 11
50.400000000000091
 21
-12.599999999999911
 31
0.0
  0
LINE
  8
DETAIL
  6
CONTINUOUS
 62
     5
 10
41.400000000000091
 20
-5.3999999999999773
 30
0.0
 11
48.600000000000144
 21
-5.3999999999999773
 31
0.0
  0
LINE
  8
DETAIL
  6
CONTINUOUS
 62
     5
 10
41.400000000000091
 20
-12.599999999999911
 30
0.0
 11
48.600000000000144
 21
-12.599999999999911
 31
0.0
  0
LINE
  8
DETAIL
  6
CONTINUOUS
 62
     5
 10
48.600000000000144
 20
-5.3999999999999773
 30
0.0
 11
48.600000000000144
 21
-12.599999999999911
 31
0.0
  0
LINE
  8
DETAIL
  6
CONTINUOUS
 62
     5
 10
41.400000000000091
 20
-5.3999999999999773
 30
0.0
 11
41.400000000000091
 21
-12.599999999999911
 31
0.0
  0
LINE
  8
DETAIL
  6
CONTINUOUS
 62
     5
 10
32.400000000000091
 20
-5.3999999999999773
 30
0.0
 11
39.600000000000144
 21
-5.3999999999999773
 31
0.0
  0
LINE
  8
DETAIL
  6
CONTINUOUS
 62
     5
 10
32.400000000000091
 20
-12.599999999999911
 30
0.0
 11
39.600000000000144
 21
-12.599999999999911
 31
0.0
  0
LINE
  8
DETAIL
  6
CONTINUOUS
 62
     5
 10
39.600000000000144
 20
-5.3999999999999773
 30
0.0
 11
39.600000000000144
 21
-12.599999999999911
 31
0.0
  0
LINE
  8
DETAIL
  6
CONTINUOUS
 62
     5
 10
32.400000000000091
 20
-5.3999999999999773
 30
0.0
 11
32.400000000000091
 21
-12.599999999999911
 31
0.0
  0
LINE
  8
DETAIL
  6
CONTINUOUS
 62
     5
 10
59.400000000000091
 20
-21.600000000000019
 30
0.0
 11
66.600000000000136
 21
-21.600000000000019
 31
0.0
  0
LINE
  8
DETAIL
  6
CONTINUOUS
 62
     5
 10
66.600000000000136
 20
-14.399999999999981
 30
0.0
 11
66.600000000000136
 21
-21.600000000000019
 31
0.0
  0
LINE
  8
DETAIL
  6
CONTINUOUS
 62
     5
 10
59.400000000000091
 20
-14.399999999999981
 30
0.0
 11
59.400000000000091
 21
-21.600000000000019
 31
0.0
  0
LINE
  8
DETAIL
  6
CONTINUOUS
 62
     5
 10
59.400000000000091
 20
-14.399999999999981
 30
0.0
 11
66.600000000000136
 21
-14.399999999999981
 31
0.0
  0
LINE
  8
DETAIL
  6
CONTINUOUS
 62
     5
 10
50.400000000000091
 20
-21.600000000000019
 30
0.0
 11
57.600000000000144
 21
-21.600000000000019
 31
0.0
  0
LINE
  8
DETAIL
  6
CONTINUOUS
 62
     5
 10
57.600000000000144
 20
-14.399999999999981
 30
0.0
 11
57.600000000000144
 21
-21.600000000000019
 31
0.0
  0
LINE
  8
DETAIL
  6
CONTINUOUS
 62
     5
 10
50.400000000000091
 20
-14.399999999999981
 30
0.0
 11
50.400000000000091
 21
-21.600000000000019
 31
0.0
  0
LINE
  8
DETAIL
  6
CONTINUOUS
 62
     5
 10
50.400000000000091
 20
-14.399999999999981
 30
0.0
 11
57.600000000000144
 21
-14.399999999999981
 31
0.0
  0
LINE
  8
DETAIL
  6
CONTINUOUS
 62
     5
 10
41.400000000000091
 20
-21.600000000000019
 30
0.0
 11
48.600000000000144
 21
-21.600000000000019
 31
0.0
  0
LINE
  8
DETAIL
  6
CONTINUOUS
 62
     5
 10
48.600000000000144
 20
-14.399999999999981
 30
0.0
 11
48.600000000000144
 21
-21.600000000000019
 31
0.0
  0
LINE
  8
DETAIL
  6
CONTINUOUS
 62
     5
 10
41.400000000000091
 20
-14.399999999999981
 30
0.0
 11
41.400000000000091
 21
-21.600000000000019
 31
0.0
  0
LINE
  8
DETAIL
  6
CONTINUOUS
 62
     5
 10
41.400000000000091
 20
-14.399999999999981
 30
0.0
 11
48.600000000000144
 21
-14.399999999999981
 31
0.0
  0
LINE
  8
DETAIL
  6
CONTINUOUS
 62
     5
 10
32.400000000000091
 20
-21.600000000000019
 30
0.0
 11
39.600000000000144
 21
-21.600000000000019
 31
0.0
  0
LINE
  8
DETAIL
  6
CONTINUOUS
 62
     5
 10
39.600000000000144
 20
-14.399999999999981
 30
0.0
 11
39.600000000000144
 21
-21.600000000000019
 31
0.0
  0
LINE
  8
DETAIL
  6
CONTINUOUS
 62
     5
 10
32.400000000000091
 20
-14.399999999999981
 30
0.0
 11
32.400000000000091
 21
-21.600000000000019
 31
0.0
  0
LINE
  8
DETAIL
  6
CONTINUOUS
 62
     5
 10
32.400000000000091
 20
-14.399999999999981
 30
0.0
 11
39.600000000000144
 21
-14.399999999999981
 31
0.0
  0
LINE
  8
DETAIL
  6
CONTINUOUS
 62
     5
 10
50.400000000000091
 20
-30.600000000000019
 30
0.0
 11
57.600000000000144
 21
-30.600000000000019
 31
0.0
  0
LINE
  8
DETAIL
  6
CONTINUOUS
 62
     5
 10
57.600000000000144
 20
-23.399999999999981
 30
0.0
 11
57.600000000000144
 21
-30.600000000000019
 31
0.0
  0
LINE
  8
DETAIL
  6
CONTINUOUS
 62
     5
 10
50.400000000000091
 20
-23.399999999999981
 30
0.0
 11
50.400000000000091
 21
-30.600000000000019
 31
0.0
  0
LINE
  8
DETAIL
  6
CONTINUOUS
 62
     5
 10
50.400000000000091
 20
-23.399999999999981
 30
0.0
 11
57.600000000000144
 21
-23.399999999999981
 31
0.0
  0
LINE
  8
DETAIL
  6
CONTINUOUS
 62
     5
 10
50.400000000000091
 20
-23.399999999999981
 30
0.0
 11
57.600000000000144
 21
-23.399999999999981
 31
0.0
  0
LINE
  8
DETAIL
  6
CONTINUOUS
 62
     5
 10
50.400000000000091
 20
-30.600000000000019
 30
0.0
 11
50.400000000000091
 21
-23.399999999999981
 31
0.0
  0
LINE
  8
DETAIL
  6
CONTINUOUS
 62
     5
 10
41.400000000000091
 20
-30.600000000000019
 30
0.0
 11
48.600000000000144
 21
-30.600000000000019
 31
0.0
  0
LINE
  8
DETAIL
  6
CONTINUOUS
 62
     5
 10
48.600000000000144
 20
-23.399999999999981
 30
0.0
 11
48.600000000000144
 21
-30.600000000000019
 31
0.0
  0
LINE
  8
DETAIL
  6
CONTINUOUS
 62
     5
 10
41.400000000000091
 20
-23.399999999999981
 30
0.0
 11
41.400000000000091
 21
-30.600000000000019
 31
0.0
  0
LINE
  8
DETAIL
  6
CONTINUOUS
 62
     5
 10
41.400000000000091
 20
-23.399999999999981
 30
0.0
 11
48.600000000000144
 21
-23.399999999999981
 31
0.0
  0
LINE
  8
DETAIL
  6
CONTINUOUS
 62
     5
 10
41.400000000000091
 20
-23.399999999999981
 30
0.0
 11
48.600000000000144
 21
-23.399999999999981
 31
0.0
  0
LINE
  8
DETAIL
  6
CONTINUOUS
 62
     5
 10
41.400000000000091
 20
-30.600000000000019
 30
0.0
 11
41.400000000000091
 21
-23.399999999999981
 31
0.0
  0
LINE
  8
DETAIL
  6
CONTINUOUS
 62
     5
 10
32.400000000000091
 20
-30.600000000000019
 30
0.0
 11
39.600000000000144
 21
-30.600000000000019
 31
0.0
  0
LINE
  8
DETAIL
  6
CONTINUOUS
 62
     5
 10
39.600000000000144
 20
-23.399999999999981
 30
0.0
 11
39.600000000000144
 21
-30.600000000000019
 31
0.0
  0
LINE
  8
DETAIL
  6
CONTINUOUS
 62
     5
 10
32.400000000000091
 20
-23.399999999999981
 30
0.0
 11
32.400000000000091
 21
-30.600000000000019
 31
0.0
  0
LINE
  8
DETAIL
  6
CONTINUOUS
 62
     5
 10
32.400000000000091
 20
-23.399999999999981
 30
0.0
 11
39.600000000000144
 21
-23.399999999999981
 31
0.0
  0
LINE
  8
DETAIL
  6
CONTINUOUS
 62
     5
 10
32.400000000000091
 20
-23.399999999999981
 30
0.0
 11
39.600000000000144
 21
-23.399999999999981
 31
0.0
  0
LINE
  8
DETAIL
  6
CONTINUOUS
 62
     5
 10
32.400000000000091
 20
-30.600000000000019
 30
0.0
 11
32.400000000000091
 21
-23.399999999999981
 31
0.0
  0
LINE
  8
DETAIL
  6
CONTINUOUS
 62
     5
 10
41.400000000000091
 20
-39.599999999999909
 30
0.0
 11
48.600000000000144
 21
-39.599999999999909
 31
0.0
  0
LINE
  8
DETAIL
  6
CONTINUOUS
 62
     5
 10
48.600000000000144
 20
-32.399999999999977
 30
0.0
 11
48.600000000000144
 21
-39.599999999999909
 31
0.0
  0
LINE
  8
DETAIL
  6
CONTINUOUS
 62
     5
 10
41.400000000000091
 20
-32.399999999999977
 30
0.0
 11
41.400000000000091
 21
-39.599999999999909
 31
0.0
  0
LINE
  8
DETAIL
  6
CONTINUOUS
 62
     5
 10
41.400000000000091
 20
-32.399999999999977
 30
0.0
 11
48.600000000000144
 21
-32.399999999999977
 31
0.0
  0
LINE
  8
DETAIL
  6
CONTINUOUS
 62
     5
 10
32.400000000000091
 20
-39.599999999999909
 30
0.0
 11
39.600000000000144
 21
-39.599999999999909
 31
0.0
  0
LINE
  8
DETAIL
  6
CONTINUOUS
 62
     5
 10
39.600000000000144
 20
-32.399999999999977
 30
0.0
 11
39.600000000000144
 21
-39.599999999999909
 31
0.0
  0
LINE
  8
DETAIL
  6
CONTINUOUS
 62
     5
 10
32.400000000000091
 20
-32.399999999999977
 30
0.0
 11
32.400000000000091
 21
-39.599999999999909
 31
0.0
  0
LINE
  8
DETAIL
  6
CONTINUOUS
 62
     5
 10
32.400000000000091
 20
-32.399999999999977
 30
0.0
 11
39.600000000000144
 21
-32.399999999999977
 31
0.0
  0
LINE
  8
DETAIL
  6
CONTINUOUS
 62
     5
 10
23.400000000000091
 20
-39.599999999999909
 30
0.0
 11
30.60000000000014
 21
-39.599999999999909
 31
0.0
  0
LINE
  8
DETAIL
  6
CONTINUOUS
 62
     5
 10
30.60000000000014
 20
-32.399999999999977
 30
0.0
 11
30.60000000000014
 21
-39.599999999999909
 31
0.0
  0
LINE
  8
DETAIL
  6
CONTINUOUS
 62
     5
 10
23.400000000000091
 20
-32.399999999999977
 30
0.0
 11
23.400000000000091
 21
-39.599999999999909
 31
0.0
  0
LINE
  8
DETAIL
  6
CONTINUOUS
 62
     5
 10
23.400000000000091
 20
-32.399999999999977
 30
0.0
 11
30.60000000000014
 21
-32.399999999999977
 31
0.0
  0
LINE
  8
DETAIL
  6
CONTINUOUS
 62
     5
 10
14.400000000000089
 20
-39.599999999999909
 30
0.0
 11
21.60000000000014
 21
-39.599999999999909
 31
0.0
  0
LINE
  8
DETAIL
  6
CONTINUOUS
 62
     5
 10
21.60000000000014
 20
-32.399999999999977
 30
0.0
 11
21.60000000000014
 21
-39.599999999999909
 31
0.0
  0
LINE
  8
DETAIL
  6
CONTINUOUS
 62
     5
 10
14.400000000000089
 20
-32.399999999999977
 30
0.0
 11
14.400000000000089
 21
-39.599999999999909
 31
0.0
  0
LINE
  8
DETAIL
  6
CONTINUOUS
 62
     5
 10
14.400000000000089
 20
-32.399999999999977
 30
0.0
 11
21.60000000000014
 21
-32.399999999999977
 31
0.0
  0
LINE
  8
DETAIL
  6
CONTINUOUS
 62
     5
 10
5.4000000000000909
 20
-39.599999999999909
 30
0.0
 11
12.60000000000014
 21
-39.599999999999909
 31
0.0
  0
LINE
  8
DETAIL
  6
CONTINUOUS
 62
     5
 10
12.60000000000014
 20
-32.399999999999977
 30
0.0
 11
12.60000000000014
 21
-39.599999999999909
 31
0.0
  0
LINE
  8
DETAIL
  6
CONTINUOUS
 62
     5
 10
5.4000000000000909
 20
-32.399999999999977
 30
0.0
 11
5.4000000000000909
 21
-39.599999999999909
 31
0.0
  0
LINE
  8
DETAIL
  6
CONTINUOUS
 62
     5
 10
5.4000000000000909
 20
-32.399999999999977
 30
0.0
 11
12.60000000000014
 21
-32.399999999999977
 31
0.0
  0
LINE
  8
DETAIL
  6
CONTINUOUS
 62
     5
 10
32.400000000000091
 20
-48.600000000000023
 30
0.0
 11
39.600000000000144
 21
-48.600000000000023
 31
0.0
  0
LINE
  8
DETAIL
  6
CONTINUOUS
 62
     5
 10
39.600000000000144
 20
-41.399999999999977
 30
0.0
 11
39.600000000000144
 21
-48.600000000000023
 31
0.0
  0
LINE
  8
DETAIL
  6
CONTINUOUS
 62
     5
 10
32.400000000000091
 20
-41.399999999999977
 30
0.0
 11
32.400000000000091
 21
-48.600000000000023
 31
0.0
  0
LINE
  8
DETAIL
  6
CONTINUOUS
 62
     5
 10
32.400000000000091
 20
-41.399999999999977
 30
0.0
 11
39.600000000000144
 21
-41.399999999999977
 31
0.0
  0
LINE
  8
DETAIL
  6
CONTINUOUS
 62
     5
 10
23.400000000000091
 20
-48.600000000000023
 30
0.0
 11
30.60000000000014
 21
-48.600000000000023
 31
0.0
  0
LINE
  8
DETAIL
  6
CONTINUOUS
 62
     5
 10
30.60000000000014
 20
-41.399999999999977
 30
0.0
 11
30.60000000000014
 21
-48.600000000000023
 31
0.0
  0
LINE
  8
DETAIL
  6
CONTINUOUS
 62
     5
 10
23.400000000000091
 20
-41.399999999999977
 30
0.0
 11
23.400000000000091
 21
-48.600000000000023
 31
0.0
  0
LINE
  8
DETAIL
  6
CONTINUOUS
 62
     5
 10
23.400000000000091
 20
-41.399999999999977
 30
0.0
 11
30.60000000000014
 21
-41.399999999999977
 31
0.0
  0
LINE
  8
DETAIL
  6
CONTINUOUS
 62
     5
 10
14.400000000000089
 20
-48.600000000000023
 30
0.0
 11
21.60000000000014
 21
-48.600000000000023
 31
0.0
  0
LINE
  8
DETAIL
  6
CONTINUOUS
 62
     5
 10
21.60000000000014
 20
-41.399999999999977
 30
0.0
 11
21.60000000000014
 21
-48.600000000000023
 31
0.0
  0
LINE
  8
DETAIL
  6
CONTINUOUS
 62
     5
 10
14.400000000000089
 20
-41.399999999999977
 30
0.0
 11
14.400000000000089
 21
-48.600000000000023
 31
0.0
  0
LINE
  8
DETAIL
  6
CONTINUOUS
 62
     5
 10
14.400000000000089
 20
-41.399999999999977
 30
0.0
 11
21.60000000000014
 21
-41.399999999999977
 31
0.0
  0
LINE
  8
DETAIL
  6
CONTINUOUS
 62
     5
 10
5.4000000000000909
 20
-48.600000000000023
 30
0.0
 11
12.60000000000014
 21
-48.600000000000023
 31
0.0
  0
LINE
  8
DETAIL
  6
CONTINUOUS
 62
     5
 10
12.60000000000014
 20
-41.399999999999977
 30
0.0
 11
12.60000000000014
 21
-48.600000000000023
 31
0.0
  0
LINE
  8
DETAIL
  6
CONTINUOUS
 62
     5
 10
5.4000000000000909
 20
-41.399999999999977
 30
0.0
 11
5.4000000000000909
 21
-48.600000000000023
 31
0.0
  0
LINE
  8
DETAIL
  6
CONTINUOUS
 62
     5
 10
5.4000000000000909
 20
-41.399999999999977
 30
0.0
 11
12.60000000000014
 21
-41.399999999999977
 31
0.0
  0
LINE
  8
DETAIL
  6
CONTINUOUS
 62
     5
 10
23.400000000000091
 20
-57.600000000000023
 30
0.0
 11
30.60000000000014
 21
-57.600000000000023
 31
0.0
  0
LINE
  8
DETAIL
  6
CONTINUOUS
 62
     5
 10
23.400000000000091
 20
-50.399999999999977
 30
0.0
 11
23.400000000000091
 21
-57.600000000000023
 31
0.0
  0
LINE
  8
DETAIL
  6
CONTINUOUS
 62
     5
 10
23.400000000000091
 20
-50.399999999999977
 30
0.0
 11
30.60000000000014
 21
-50.399999999999977
 31
0.0
  0
LINE
  8
DETAIL
  6
CONTINUOUS
 62
     5
 10
23.400000000000091
 20
-50.399999999999977
 30
0.0
 11
30.60000000000014
 21
-50.399999999999977
 31
0.0
  0
LINE
  8
DETAIL
  6
CONTINUOUS
 62
     5
 10
23.400000000000091
 20
-57.600000000000023
 30
0.0
 11
23.400000000000091
 21
-50.399999999999977
 31
0.0
  0
LINE
  8
DETAIL
  6
CONTINUOUS
 62
     5
 10
30.60000000000014
 20
-50.399999999999977
 30
0.0
 11
30.60000000000014
 21
-57.600000000000023
 31
0.0
  0
LINE
  8
DETAIL
  6
CONTINUOUS
 62
     5
 10
14.400000000000089
 20
-57.600000000000023
 30
0.0
 11
21.60000000000014
 21
-57.600000000000023
 31
0.0
  0
LINE
  8
DETAIL
  6
CONTINUOUS
 62
     5
 10
14.400000000000089
 20
-50.399999999999977
 30
0.0
 11
14.400000000000089
 21
-57.600000000000023
 31
0.0
  0
LINE
  8
DETAIL
  6
CONTINUOUS
 62
     5
 10
14.400000000000089
 20
-50.399999999999977
 30
0.0
 11
21.60000000000014
 21
-50.399999999999977
 31
0.0
  0
LINE
  8
DETAIL
  6
CONTINUOUS
 62
     5
 10
14.400000000000089
 20
-50.399999999999977
 30
0.0
 11
21.60000000000014
 21
-50.399999999999977
 31
0.0
  0
LINE
  8
DETAIL
  6
CONTINUOUS
 62
     5
 10
14.400000000000089
 20
-57.600000000000023
 30
0.0
 11
14.400000000000089
 21
-50.399999999999977
 31
0.0
  0
LINE
  8
DETAIL
  6
CONTINUOUS
 62
     5
 10
21.60000000000014
 20
-50.399999999999977
 30
0.0
 11
21.60000000000014
 21
-57.600000000000023
 31
0.0
  0
LINE
  8
DETAIL
  6
CONTINUOUS
 62
     5
 10
5.4000000000000909
 20
-57.600000000000023
 30
0.0
 11
12.60000000000014
 21
-57.600000000000023
 31
0.0
  0
LINE
  8
DETAIL
  6
CONTINUOUS
 62
     5
 10
5.4000000000000909
 20
-50.399999999999977
 30
0.0
 11
5.4000000000000909
 21
-57.600000000000023
 31
0.0
  0
LINE
  8
DETAIL
  6
CONTINUOUS
 62
     5
 10
5.4000000000000909
 20
-50.399999999999977
 30
0.0
 11
12.60000000000014
 21
-50.399999999999977
 31
0.0
  0
LINE
  8
DETAIL
  6
CONTINUOUS
 62
     5
 10
5.4000000000000909
 20
-50.399999999999977
 30
0.0
 11
12.60000000000014
 21
-50.399999999999977
 31
0.0
  0
LINE
  8
DETAIL
  6
CONTINUOUS
 62
     5
 10
5.4000000000000909
 20
-57.600000000000023
 30
0.0
 11
5.4000000000000909
 21
-50.399999999999977
 31
0.0
  0
LINE
  8
DETAIL
  6
CONTINUOUS
 62
     5
 10
12.60000000000014
 20
-50.399999999999977
 30
0.0
 11
12.60000000000014
 21
-57.600000000000023
 31
0.0
  0
LINE
  8
DETAIL
  6
CONTINUOUS
 62
     5
 10
14.400000000000089
 20
-66.599999999999909
 30
0.0
 11
21.60000000000014
 21
-66.599999999999909
 31
0.0
  0
LINE
  8
DETAIL
  6
CONTINUOUS
 62
     5
 10
21.60000000000014
 20
-59.399999999999977
 30
0.0
 11
21.60000000000014
 21
-66.599999999999909
 31
0.0
  0
LINE
  8
DETAIL
  6
CONTINUOUS
 62
     5
 10
14.400000000000089
 20
-59.399999999999977
 30
0.0
 11
14.400000000000089
 21
-66.599999999999909
 31
0.0
  0
LINE
  8
DETAIL
  6
CONTINUOUS
 62
     5
 10
14.400000000000089
 20
-59.399999999999977
 30
0.0
 11
21.60000000000014
 21
-59.399999999999977
 31
0.0
  0
LINE
  8
DETAIL
  6
CONTINUOUS
 62
     5
 10
5.4000000000000909
 20
-66.599999999999909
 30
0.0
 11
12.60000000000014
 21
-66.599999999999909
 31
0.0
  0
LINE
  8
DETAIL
  6
CONTINUOUS
 62
     5
 10
12.60000000000014
 20
-59.399999999999977
 30
0.0
 11
12.60000000000014
 21
-66.599999999999909
 31
0.0
  0
LINE
  8
DETAIL
  6
CONTINUOUS
 62
     5
 10
5.4000000000000909
 20
-59.399999999999977
 30
0.0
 11
5.4000000000000909
 21
-66.599999999999909
 31
0.0
  0
LINE
  8
DETAIL
  6
CONTINUOUS
 62
     5
 10
5.4000000000000909
 20
-59.399999999999977
 30
0.0
 11
12.60000000000014
 21
-59.399999999999977
 31
0.0
  0
LINE
  8
DETAIL
  6
CONTINUOUS
 62
     5
 10
12.60000000000014
 20
-68.400000000000091
 30
0.0
 11
12.60000000000014
 21
-75.599999999999909
 31
0.0
  0
LINE
  8
DETAIL
  6
CONTINUOUS
 62
     5
 10
5.4000000000000909
 20
-68.400000000000091
 30
0.0
 11
5.4000000000000909
 21
-75.599999999999909
 31
0.0
  0
LINE
  8
DETAIL
  6
CONTINUOUS
 62
     5
 10
5.4000000000000909
 20
-68.400000000000091
 30
0.0
 11
12.60000000000014
 21
-68.400000000000091
 31
0.0
  0
LINE
  8
DETAIL
  6
CONTINUOUS
 62
     5
 10
5.4000000000000909
 20
-68.400000000000091
 30
0.0
 11
12.60000000000014
 21
-68.400000000000091
 31
0.0
  0
LINE
  8
DETAIL
  6
CONTINUOUS
 62
     5
 10
5.4000000000000909
 20
-75.599999999999909
 30
0.0
 11
5.4000000000000909
 21
-68.400000000000091
 31
0.0
  0
LINE
  8
DETAIL
  6
CONTINUOUS
 62
     5
 10
5.4000000000000909
 20
-75.599999999999909
 30
0.0
 11
12.60000000000014
 21
-75.599999999999909
 31
0.0
  0
LINE
  8
DETAIL
  6
CONTINUOUS
 62
     5
 10
3.600000000000136
 20
-77.400000000000091
 30
0.0
 11
3.600000000000136
 21
-84.599999999999909
 31
0.0
  0
LINE
  8
DETAIL
  6
CONTINUOUS
 62
     5
 10
3.600000000000136
 20
-68.400000000000091
 30
0.0
 11
3.600000000000136
 21
-75.599999999999909
 31
0.0
  0
LINE
  8
DETAIL
  6
CONTINUOUS
 62
     5
 10
3.600000000000136
 20
-59.399999999999977
 30
0.0
 11
3.600000000000136
 21
-66.599999999999909
 31
0.0
  0
LINE
  8
DETAIL
  6
CONTINUOUS
 62
     5
 10
3.600000000000136
 20
-50.399999999999977
 30
0.0
 11
3.600000000000136
 21
-57.600000000000023
 31
0.0
  0
LINE
  8
DETAIL
  6
CONTINUOUS
 62
     5
 10
3.600000000000136
 20
-41.399999999999977
 30
0.0
 11
3.600000000000136
 21
-48.600000000000023
 31
0.0
  0
LINE
  8
DETAIL
  6
CONTINUOUS
 62
     5
 10
3.600000000000136
 20
-32.399999999999977
 30
0.0
 11
3.600000000000136
 21
-39.599999999999909
 31
0.0
  0
LINE
  8
DETAIL
  6
CONTINUOUS
 62
     5
 10
136.20564899999999
 20
0.0
 30
0.0
 11
136.20564899999999
 21
136.20564899999999
 31
0.0
  0
LINE
  8
DETAIL
  6
CONTINUOUS
 62
     5
 10
0.0
 20
136.20564899999999
 30
0.0
 11
136.20564899999999
 21
136.20564899999999
 31
0.0
  0
LINE
  8
DETAIL
  6
CONTINUOUS
 62
     5
 10
3.600000000000136
 20
39.600000000000023
 30
0.0
 11
0.0
 21
39.600000000000023
 31
0.0
  0
LINE
  8
DETAIL
  6
CONTINUOUS
 62
     5
 10
3.600000000000136
 20
32.400000000000091
 30
0.0
 11
0.0
 21
32.400000000000091
 31
0.0
  0
LINE
  8
DETAIL
  6
CONTINUOUS
 62
     5
 10
3.600000000000136
 20
48.600000000000023
 30
0.0
 11
0.0
 21
48.600000000000023
 31
0.0
  0
LINE
  8
DETAIL
  6
CONTINUOUS
 62
     5
 10
3.600000000000136
 20
41.399999999999977
 30
0.0
 11
0.0
 21
41.399999999999977
 31
0.0
  0
LINE
  8
DETAIL
  6
CONTINUOUS
 62
     5
 10
3.600000000000136
 20
57.600000000000023
 30
0.0
 11
0.0
 21
57.600000000000023
 31
0.0
  0
LINE
  8
DETAIL
  6
CONTINUOUS
 62
     5
 10
3.600000000000136
 20
50.399999999999977
 30
0.0
 11
0.0
 21
50.399999999999977
 31
0.0
  0
LINE
  8
DETAIL
  6
CONTINUOUS
 62
     5
 10
3.600000000000136
 20
66.600000000000023
 30
0.0
 11
0.0
 21
66.600000000000023
 31
0.0
  0
LINE
  8
DETAIL
  6
CONTINUOUS
 62
     5
 10
3.600000000000136
 20
59.399999999999977
 30
0.0
 11
0.0
 21
59.399999999999977
 31
0.0
  0
LINE
  8
DETAIL
  6
CONTINUOUS
 62
     5
 10
3.600000000000136
 20
75.600000000000023
 30
0.0
 11
0.0
 21
75.600000000000023
 31
0.0
  0
LINE
  8
DETAIL
  6
CONTINUOUS
 62
     5
 10
3.600000000000136
 20
68.400000000000091
 30
0.0
 11
0.0
 21
68.400000000000091
 31
0.0
  0
LINE
  8
DETAIL
  6
CONTINUOUS
 62
     5
 10
3.600000000000136
 20
84.600000000000023
 30
0.0
 11
0.0
 21
84.600000000000023
 31
0.0
  0
LINE
  8
DETAIL
  6
CONTINUOUS
 62
     5
 10
3.600000000000136
 20
77.400000000000091
 30
0.0
 11
0.0
 21
77.400000000000091
 31
0.0
  0
LINE
  8
DETAIL
  6
CONTINUOUS
 62
     5
 10
3.600000000000136
 20
93.600000000000023
 30
0.0
 11
0.0
 21
93.600000000000023
 31
0.0
  0
LINE
  8
DETAIL
  6
CONTINUOUS
 62
     5
 10
3.600000000000136
 20
86.400000000000091
 30
0.0
 11
0.0
 21
86.400000000000091
 31
0.0
  0
LINE
  8
DETAIL
  6
CONTINUOUS
 62
     5
 10
86.400000000000091
 20
3.6000000000000232
 30
0.0
 11
86.400000000000091
 21
0.0
 31
0.0
  0
LINE
  8
DETAIL
  6
CONTINUOUS
 62
     5
 10
93.600000000000136
 20
3.6000000000000232
 30
0.0
 11
93.600000000000136
 21
0.0
 31
0.0
  0
LINE
  8
DETAIL
  6
CONTINUOUS
 62
     5
 10
32.400000000000091
 20
3.6000000000000232
 30
0.0
 11
32.400000000000091
 21
0.0
 31
0.0
  0
LINE
  8
DETAIL
  6
CONTINUOUS
 62
     5
 10
39.600000000000144
 20
3.6000000000000232
 30
0.0
 11
39.600000000000144
 21
0.0
 31
0.0
  0
LINE
  8
DETAIL
  6
CONTINUOUS
 62
     5
 10
41.400000000000091
 20
3.6000000000000232
 30
0.0
 11
41.400000000000091
 21
0.0
 31
0.0
  0
LINE
  8
DETAIL
  6
CONTINUOUS
 62
     5
 10
48.600000000000144
 20
3.6000000000000232
 30
0.0
 11
48.600000000000144
 21
0.0
 31
0.0
  0
LINE
  8
DETAIL
  6
CONTINUOUS
 62
     5
 10
50.400000000000091
 20
3.6000000000000232
 30
0.0
 11
50.400000000000091
 21
0.0
 31
0.0
  0
LINE
  8
DETAIL
  6
CONTINUOUS
 62
     5
 10
57.600000000000144
 20
3.6000000000000232
 30
0.0
 11
57.600000000000144
 21
0.0
 31
0.0
  0
LINE
  8
DETAIL
  6
CONTINUOUS
 62
     5
 10
59.400000000000091
 20
3.6000000000000232
 30
0.0
 11
59.400000000000091
 21
0.0
 31
0.0
  0
LINE
  8
DETAIL
  6
CONTINUOUS
 62
     5
 10
66.600000000000136
 20
3.6000000000000232
 30
0.0
 11
66.600000000000136
 21
0.0
 31
0.0
  0
LINE
  8
DETAIL
  6
CONTINUOUS
 62
     5
 10
68.400000000000091
 20
3.6000000000000232
 30
0.0
 11
68.400000000000091
 21
0.0
 31
0.0
  0
LINE
  8
DETAIL
  6
CONTINUOUS
 62
     5
 10
75.600000000000136
 20
3.6000000000000232
 30
0.0
 11
75.600000000000136
 21
0.0
 31
0.0
  0
LINE
  8
DETAIL
  6
CONTINUOUS
 62
     5
 10
77.400000000000091
 20
3.6000000000000232
 30
0.0
 11
77.400000000000091
 21
0.0
 31
0.0
  0
LINE
  8
DETAIL
  6
CONTINUOUS
 62
     5
 10
84.600000000000136
 20
3.6000000000000232
 30
0.0
 11
84.600000000000136
 21
0.0
 31
0.0
  0
LINE
  8
DETAIL
  6
CONTINUOUS
 62
     5
 10
99.5
 20
95.5
 30
0.0
 11
99.5
 21
0.0
 31
0.0
  0
LINE
  8
DETAIL
  6
CONTINUOUS
 62
     5
 10
101.0
 20
97.0
 30
0.0
 11
101.0
 21
0.0
 31
0.0
  0
LINE
  8
DETAIL
  6
CONTINUOUS
 62
     5
 10
0.0
 20
101.0
 30
0.0
 11
97.0
 21
101.0
 31
0.0
  0
LINE
  8
DETAIL
  6
CONTINUOUS
 62
     5
 10
0.0
 20
99.5
 30
0.0
 11
95.5
 21
99.5
 31
0.0
  0
LINE
  8
DETAIL
  6
CONTINUOUS
 62
     5
 10
32.400000000000091
 20
57.600000000000023
 30
0.0
 11
39.600000000000144
 21
57.600000000000023
 31
0.0
  0
LINE
  8
DETAIL
  6
CONTINUOUS
 62
     5
 10
32.400000000000091
 20
50.399999999999977
 30
0.0
 11
32.400000000000091
 21
57.600000000000023
 31
0.0
  0
LINE
  8
DETAIL
  6
CONTINUOUS
 62
     5
 10
32.400000000000091
 20
50.399999999999977
 30
0.0
 11
39.600000000000144
 21
50.399999999999977
 31
0.0
  0
LINE
  8
DETAIL
  6
CONTINUOUS
 62
     5
 10
23.400000000000091
 20
57.600000000000023
 30
0.0
 11
30.60000000000014
 21
57.600000000000023
 31
0.0
  0
LINE
  8
DETAIL
  6
CONTINUOUS
 62
     5
 10
32.400000000000091
 20
66.600000000000023
 30
0.0
 11
39.600000000000144
 21
66.600000000000023
 31
0.0
  0
LINE
  8
DETAIL
  6
CONTINUOUS
 62
     5
 10
32.400000000000091
 20
59.399999999999977
 30
0.0
 11
32.400000000000091
 21
66.600000000000023
 31
0.0
  0
LINE
  8
DETAIL
  6
CONTINUOUS
 62
     5
 10
32.400000000000091
 20
59.399999999999977
 30
0.0
 11
39.600000000000144
 21
59.399999999999977
 31
0.0
  0
LINE
  8
DETAIL
  6
CONTINUOUS
 62
     5
 10
23.400000000000091
 20
66.600000000000023
 30
0.0
 11
30.60000000000014
 21
66.600000000000023
 31
0.0
  0
LINE
  8
DETAIL
  6
CONTINUOUS
 62
     5
 10
30.60000000000014
 20
59.399999999999977
 30
0.0
 11
30.60000000000014
 21
66.600000000000023
 31
0.0
  0
LINE
  8
DETAIL
  6
CONTINUOUS
 62
     5
 10
23.400000000000091
 20
59.399999999999977
 30
0.0
 11
23.400000000000091
 21
66.600000000000023
 31
0.0
  0
LINE
  8
DETAIL
  6
CONTINUOUS
 62
     5
 10
23.400000000000091
 20
59.399999999999977
 30
0.0
 11
30.60000000000014
 21
59.399999999999977
 31
0.0
  0
LINE
  8
DETAIL
  6
CONTINUOUS
 62
     5
 10
32.400000000000091
 20
75.600000000000023
 30
0.0
 11
39.600000000000144
 21
75.600000000000023
 31
0.0
  0
LINE
  8
DETAIL
  6
CONTINUOUS
 62
     5
 10
32.400000000000091
 20
68.400000000000091
 30
0.0
 11
32.400000000000091
 21
75.600000000000023
 31
0.0
  0
LINE
  8
DETAIL
  6
CONTINUOUS
 62
     5
 10
32.400000000000091
 20
68.400000000000091
 30
0.0
 11
39.600000000000144
 21
68.400000000000091
 31
0.0
  0
LINE
  8
DETAIL
  6
CONTINUOUS
 62
     5
 10
23.400000000000091
 20
75.600000000000023
 30
0.0
 11
30.60000000000014
 21
75.600000000000023
 31
0.0
  0
LINE
  8
DETAIL
  6
CONTINUOUS
 62
     5
 10
30.60000000000014
 20
68.400000000000091
 30
0.0
 11
30.60000000000014
 21
75.600000000000023
 31
0.0
  0
LINE
  8
DETAIL
  6
CONTINUOUS
 62
     5
 10
23.400000000000091
 20
68.400000000000091
 30
0.0
 11
23.400000000000091
 21
75.600000000000023
 31
0.0
  0
LINE
  8
DETAIL
  6
CONTINUOUS
 62
     5
 10
23.400000000000091
 20
68.400000000000091
 30
0.0
 11
30.60000000000014
 21
68.400000000000091
 31
0.0
  0
LINE
  8
DETAIL
  6
CONTINUOUS
 62
     5
 10
14.400000000000089
 20
75.600000000000023
 30
0.0
 11
21.60000000000014
 21
75.600000000000023
 31
0.0
  0
LINE
  8
DETAIL
  6
CONTINUOUS
 62
     5
 10
21.60000000000014
 20
68.400000000000091
 30
0.0
 11
21.60000000000014
 21
75.600000000000023
 31
0.0
  0
LINE
  8
DETAIL
  6
CONTINUOUS
 62
     5
 10
14.400000000000089
 20
68.400000000000091
 30
0.0
 11
14.400000000000089
 21
75.600000000000023
 31
0.0
  0
LINE
  8
DETAIL
  6
CONTINUOUS
 62
     5
 10
14.400000000000089
 20
68.400000000000091
 30
0.0
 11
21.60000000000014
 21
68.400000000000091
 31
0.0
  0
LINE
  8
DETAIL
  6
CONTINUOUS
 62
     5
 10
32.400000000000091
 20
84.600000000000023
 30
0.0
 11
39.600000000000144
 21
84.600000000000023
 31
0.0
  0
LINE
  8
DETAIL
  6
CONTINUOUS
 62
     5
 10
32.400000000000091
 20
77.400000000000091
 30
0.0
 11
32.400000000000091
 21
84.600000000000023
 31
0.0
  0
LINE
  8
DETAIL
  6
CONTINUOUS
 62
     5
 10
32.400000000000091
 20
77.400000000000091
 30
0.0
 11
39.600000000000144
 21
77.400000000000091
 31
0.0
  0
LINE
  8
DETAIL
  6
CONTINUOUS
 62
     5
 10
23.400000000000091
 20
84.600000000000023
 30
0.0
 11
30.60000000000014
 21
84.600000000000023
 31
0.0
  0
LINE
  8
DETAIL
  6
CONTINUOUS
 62
     5
 10
30.60000000000014
 20
77.400000000000091
 30
0.0
 11
30.60000000000014
 21
84.600000000000023
 31
0.0
  0
LINE
  8
DETAIL
  6
CONTINUOUS
 62
     5
 10
23.400000000000091
 20
77.400000000000091
 30
0.0
 11
23.400000000000091
 21
84.600000000000023
 31
0.0
  0
LINE
  8
DETAIL
  6
CONTINUOUS
 62
     5
 10
23.400000000000091
 20
77.400000000000091
 30
0.0
 11
30.60000000000014
 21
77.400000000000091
 31
0.0
  0
LINE
  8
DETAIL
  6
CONTINUOUS
 62
     5
 10
14.400000000000089
 20
84.600000000000023
 30
0.0
 11
21.60000000000014
 21
84.600000000000023
 31
0.0
  0
LINE
  8
DETAIL
  6
CONTINUOUS
 62
     5
 10
21.60000000000014
 20
77.400000000000091
 30
0.0
 11
21.60000000000014
 21
84.600000000000023
 31
0.0
  0
LINE
  8
DETAIL
  6
CONTINUOUS
 62
     5
 10
14.400000000000089
 20
77.400000000000091
 30
0.0
 11
14.400000000000089
 21
84.600000000000023
 31
0.0
  0
LINE
  8
DETAIL
  6
CONTINUOUS
 62
     5
 10
14.400000000000089
 20
77.400000000000091
 30
0.0
 11
21.60000000000014
 21
77.400000000000091
 31
0.0
  0
LINE
  8
DETAIL
  6
CONTINUOUS
 62
     5
 10
5.4000000000000909
 20
84.600000000000023
 30
0.0
 11
12.60000000000014
 21
84.600000000000023
 31
0.0
  0
LINE
  8
DETAIL
  6
CONTINUOUS
 62
     5
 10
12.60000000000014
 20
77.400000000000091
 30
0.0
 11
12.60000000000014
 21
84.600000000000023
 31
0.0
  0
LINE
  8
DETAIL
  6
CONTINUOUS
 62
     5
 10
5.4000000000000909
 20
77.400000000000091
 30
0.0
 11
5.4000000000000909
 21
84.600000000000023
 31
0.0
  0
LINE
  8
DETAIL
  6
CONTINUOUS
 62
     5
 10
5.4000000000000909
 20
77.400000000000091
 30
0.0
 11
12.60000000000014
 21
77.400000000000091
 31
0.0
  0
LINE
  8
DETAIL
  6
CONTINUOUS
 62
     5
 10
32.400000000000091
 20
93.600000000000023
 30
0.0
 11
39.600000000000144
 21
93.600000000000023
 31
0.0
  0
LINE
  8
DETAIL
  6
CONTINUOUS
 62
     5
 10
32.400000000000091
 20
86.400000000000091
 30
0.0
 11
32.400000000000091
 21
93.600000000000023
 31
0.0
  0
LINE
  8
DETAIL
  6
CONTINUOUS
 62
     5
 10
32.400000000000091
 20
86.400000000000091
 30
0.0
 11
39.600000000000144
 21
86.400000000000091
 31
0.0
  0
LINE
  8
DETAIL
  6
CONTINUOUS
 62
     5
 10
23.400000000000091
 20
93.600000000000023
 30
0.0
 11
30.60000000000014
 21
93.600000000000023
 31
0.0
  0
LINE
  8
DETAIL
  6
CONTINUOUS
 62
     5
 10
30.60000000000014
 20
86.400000000000091
 30
0.0
 11
30.60000000000014
 21
93.600000000000023
 31
0.0
  0
LINE
  8
DETAIL
  6
CONTINUOUS
 62
     5
 10
23.400000000000091
 20
86.400000000000091
 30
0.0
 11
23.400000000000091
 21
93.600000000000023
 31
0.0
  0
LINE
  8
DETAIL
  6
CONTINUOUS
 62
     5
 10
23.400000000000091
 20
86.400000000000091
 30
0.0
 11
30.60000000000014
 21
86.400000000000091
 31
0.0
  0
LINE
  8
DETAIL
  6
CONTINUOUS
 62
     5
 10
14.400000000000089
 20
93.600000000000023
 30
0.0
 11
21.60000000000014
 21
93.600000000000023
 31
0.0
  0
LINE
  8
DETAIL
  6
CONTINUOUS
 62
     5
 10
21.60000000000014
 20
86.400000000000091
 30
0.0
 11
21.60000000000014
 21
93.600000000000023
 31
0.0
  0
LINE
  8
DETAIL
  6
CONTINUOUS
 62
     5
 10
14.400000000000089
 20
86.400000000000091
 30
0.0
 11
14.400000000000089
 21
93.600000000000023
 31
0.0
  0
LINE
  8
DETAIL
  6
CONTINUOUS
 62
     5
 10
14.400000000000089
 20
86.400000000000091
 30
0.0
 11
21.60000000000014
 21
86.400000000000091
 31
0.0
  0
LINE
  8
DETAIL
  6
CONTINUOUS
 62
     5
 10
5.4000000000000909
 20
93.600000000000023
 30
0.0
 11
12.60000000000014
 21
93.600000000000023
 31
0.0
  0
LINE
  8
DETAIL
  6
CONTINUOUS
 62
     5
 10
12.60000000000014
 20
86.400000000000091
 30
0.0
 11
12.60000000000014
 21
93.600000000000023
 31
0.0
  0
LINE
  8
DETAIL
  6
CONTINUOUS
 62
     5
 10
5.4000000000000909
 20
86.400000000000091
 30
0.0
 11
5.4000000000000909
 21
93.600000000000023
 31
0.0
  0
LINE
  8
DETAIL
  6
CONTINUOUS
 62
     5
 10
5.4000000000000909
 20
86.400000000000091
 30
0.0
 11
12.60000000000014
 21
86.400000000000091
 31
0.0
  0
LINE
  8
DETAIL
  6
CONTINUOUS
 62
     5
 10
3.600000000000136
 20
86.400000000000091
 30
0.0
 11
3.600000000000136
 21
93.600000000000023
 31
0.0
  0
LINE
  8
DETAIL
  6
CONTINUOUS
 62
     5
 10
14.400000000000089
 20
68.400000000000091
 30
0.0
 11
21.60000000000014
 21
68.400000000000091
 31
0.0
  0
LINE
  8
DETAIL
  6
CONTINUOUS
 62
     5
 10
14.400000000000089
 20
75.600000000000023
 30
0.0
 11
14.400000000000089
 21
68.400000000000091
 31
0.0
  0
LINE
  8
DETAIL
  6
CONTINUOUS
 62
     5
 10
32.400000000000091
 20
59.399999999999977
 30
0.0
 11
39.600000000000144
 21
59.399999999999977
 31
0.0
  0
LINE
  8
DETAIL
  6
CONTINUOUS
 62
     5
 10
32.400000000000091
 20
50.399999999999977
 30
0.0
 11
39.600000000000144
 21
50.399999999999977
 31
0.0
  0
LINE
  8
DETAIL
  6
CONTINUOUS
 62
     5
 10
32.400000000000091
 20
57.600000000000023
 30
0.0
 11
32.400000000000091
 21
50.399999999999977
 31
0.0
  0
LINE
  8
DETAIL
  6
CONTINUOUS
 62
     5
 10
86.400000000000091
 20
3.6000000000000232
 30
0.0
 11
93.600000000000136
 21
3.6000000000000232
 31
0.0
  0
LINE
  8
DETAIL
  6
CONTINUOUS
 62
     5
 10
86.400000000000091
 20
12.600000000000019
 30
0.0
 11
93.600000000000136
 21
12.600000000000019
 31
0.0
  0
LINE
  8
DETAIL
  6
CONTINUOUS
 62
     5
 10
93.600000000000136
 20
5.3999999999999773
 30
0.0
 11
93.600000000000136
 21
12.600000000000019
 31
0.0
  0
LINE
  8
DETAIL
  6
CONTINUOUS
 62
     5
 10
86.400000000000091
 20
5.3999999999999773
 30
0.0
 11
86.400000000000091
 21
12.600000000000019
 31
0.0
  0
LINE
  8
DETAIL
  6
CONTINUOUS
 62
     5
 10
86.400000000000091
 20
5.3999999999999773
 30
0.0
 11
93.600000000000136
 21
5.3999999999999773
 31
0.0
  0
LINE
  8
DETAIL
  6
CONTINUOUS
 62
     5
 10
77.400000000000091
 20
12.600000000000019
 30
0.0
 11
84.600000000000136
 21
12.600000000000019
 31
0.0
  0
LINE
  8
DETAIL
  6
CONTINUOUS
 62
     5
 10
84.600000000000136
 20
5.3999999999999773
 30
0.0
 11
84.600000000000136
 21
12.600000000000019
 31
0.0
  0
LINE
  8
DETAIL
  6
CONTINUOUS
 62
     5
 10
77.400000000000091
 20
5.3999999999999773
 30
0.0
 11
77.400000000000091
 21
12.600000000000019
 31
0.0
  0
LINE
  8
DETAIL
  6
CONTINUOUS
 62
     5
 10
77.400000000000091
 20
5.3999999999999773
 30
0.0
 11
84.600000000000136
 21
5.3999999999999773
 31
0.0
  0
LINE
  8
DETAIL
  6
CONTINUOUS
 62
     5
 10
86.400000000000091
 20
21.600000000000019
 30
0.0
 11
93.600000000000136
 21
21.600000000000019
 31
0.0
  0
LINE
  8
DETAIL
  6
CONTINUOUS
 62
     5
 10
93.600000000000136
 20
14.400000000000089
 30
0.0
 11
93.600000000000136
 21
21.600000000000019
 31
0.0
  0
LINE
  8
DETAIL
  6
CONTINUOUS
 62
     5
 10
86.400000000000091
 20
14.400000000000089
 30
0.0
 11
86.400000000000091
 21
21.600000000000019
 31
0.0
  0
LINE
  8
DETAIL
  6
CONTINUOUS
 62
     5
 10
86.400000000000091
 20
14.400000000000089
 30
0.0
 11
93.600000000000136
 21
14.400000000000089
 31
0.0
  0
LINE
  8
DETAIL
  6
CONTINUOUS
 62
     5
 10
77.400000000000091
 20
21.600000000000019
 30
0.0
 11
84.600000000000136
 21
21.600000000000019
 31
0.0
  0
LINE
  8
DETAIL
  6
CONTINUOUS
 62
     5
 10
84.600000000000136
 20
14.400000000000089
 30
0.0
 11
84.600000000000136
 21
21.600000000000019
 31
0.0
  0
LINE
  8
DETAIL
  6
CONTINUOUS
 62
     5
 10
77.400000000000091
 20
14.400000000000089
 30
0.0
 11
77.400000000000091
 21
21.600000000000019
 31
0.0
  0
LINE
  8
DETAIL
  6
CONTINUOUS
 62
     5
 10
77.400000000000091
 20
14.400000000000089
 30
0.0
 11
84.600000000000136
 21
14.400000000000089
 31
0.0
  0
LINE
  8
DETAIL
  6
CONTINUOUS
 62
     5
 10
68.400000000000091
 20
21.600000000000019
 30
0.0
 11
75.600000000000136
 21
21.600000000000019
 31
0.0
  0
LINE
  8
DETAIL
  6
CONTINUOUS
 62
     5
 10
75.600000000000136
 20
14.400000000000089
 30
0.0
 11
75.600000000000136
 21
21.600000000000019
 31
0.0
  0
LINE
  8
DETAIL
  6
CONTINUOUS
 62
     5
 10
68.400000000000091
 20
14.400000000000089
 30
0.0
 11
68.400000000000091
 21
21.600000000000019
 31
0.0
  0
LINE
  8
DETAIL
  6
CONTINUOUS
 62
     5
 10
68.400000000000091
 20
14.400000000000089
 30
0.0
 11
75.600000000000136
 21
14.400000000000089
 31
0.0
  0
LINE
  8
DETAIL
  6
CONTINUOUS
 62
     5
 10
86.400000000000091
 20
30.600000000000019
 30
0.0
 11
93.600000000000136
 21
30.600000000000019
 31
0.0
  0
LINE
  8
DETAIL
  6
CONTINUOUS
 62
     5
 10
93.600000000000136
 20
23.400000000000091
 30
0.0
 11
93.600000000000136
 21
30.600000000000019
 31
0.0
  0
LINE
  8
DETAIL
  6
CONTINUOUS
 62
     5
 10
86.400000000000091
 20
23.400000000000091
 30
0.0
 11
86.400000000000091
 21
30.600000000000019
 31
0.0
  0
LINE
  8
DETAIL
  6
CONTINUOUS
 62
     5
 10
86.400000000000091
 20
23.400000000000091
 30
0.0
 11
93.600000000000136
 21
23.400000000000091
 31
0.0
  0
LINE
  8
DETAIL
  6
CONTINUOUS
 62
     5
 10
77.400000000000091
 20
30.600000000000019
 30
0.0
 11
84.600000000000136
 21
30.600000000000019
 31
0.0
  0
LINE
  8
DETAIL
  6
CONTINUOUS
 62
     5
 10
84.600000000000136
 20
23.400000000000091
 30
0.0
 11
84.600000000000136
 21
30.600000000000019
 31
0.0
  0
LINE
  8
DETAIL
  6
CONTINUOUS
 62
     5
 10
77.400000000000091
 20
23.400000000000091
 30
0.0
 11
77.400000000000091
 21
30.600000000000019
 31
0.0
  0
LINE
  8
DETAIL
  6
CONTINUOUS
 62
     5
 10
77.400000000000091
 20
23.400000000000091
 30
0.0
 11
84.600000000000136
 21
23.400000000000091
 31
0.0
  0
LINE
  8
DETAIL
  6
CONTINUOUS
 62
     5
 10
68.400000000000091
 20
30.600000000000019
 30
0.0
 11
75.600000000000136
 21
30.600000000000019
 31
0.0
  0
LINE
  8
DETAIL
  6
CONTINUOUS
 62
     5
 10
75.600000000000136
 20
23.400000000000091
 30
0.0
 11
75.600000000000136
 21
30.600000000000019
 31
0.0
  0
LINE
  8
DETAIL
  6
CONTINUOUS
 62
     5
 10
68.400000000000091
 20
23.400000000000091
 30
0.0
 11
68.400000000000091
 21
30.600000000000019
 31
0.0
  0
LINE
  8
DETAIL
  6
CONTINUOUS
 62
     5
 10
68.400000000000091
 20
23.400000000000091
 30
0.0
 11
75.600000000000136
 21
23.400000000000091
 31
0.0
  0
LINE
  8
DETAIL
  6
CONTINUOUS
 62
     5
 10
59.400000000000091
 20
30.600000000000019
 30
0.0
 11
66.600000000000136
 21
30.600000000000019
 31
0.0
  0
LINE
  8
DETAIL
  6
CONTINUOUS
 62
     5
 10
66.600000000000136
 20
23.400000000000091
 30
0.0
 11
66.600000000000136
 21
30.600000000000019
 31
0.0
  0
LINE
  8
DETAIL
  6
CONTINUOUS
 62
     5
 10
59.400000000000091
 20
23.400000000000091
 30
0.0
 11
59.400000000000091
 21
30.600000000000019
 31
0.0
  0
LINE
  8
DETAIL
  6
CONTINUOUS
 62
     5
 10
59.400000000000091
 20
23.400000000000091
 30
0.0
 11
66.600000000000136
 21
23.400000000000091
 31
0.0
  0
LINE
  8
DETAIL
  6
CONTINUOUS
 62
     5
 10
86.400000000000091
 20
39.600000000000023
 30
0.0
 11
93.600000000000136
 21
39.600000000000023
 31
0.0
  0
LINE
  8
DETAIL
  6
CONTINUOUS
 62
     5
 10
93.600000000000136
 20
32.400000000000091
 30
0.0
 11
93.600000000000136
 21
39.600000000000023
 31
0.0
  0
LINE
  8
DETAIL
  6
CONTINUOUS
 62
     5
 10
86.400000000000091
 20
32.400000000000091
 30
0.0
 11
86.400000000000091
 21
39.600000000000023
 31
0.0
  0
LINE
  8
DETAIL
  6
CONTINUOUS
 62
     5
 10
86.400000000000091
 20
32.400000000000091
 30
0.0
 11
93.600000000000136
 21
32.400000000000091
 31
0.0
  0
LINE
  8
DETAIL
  6
CONTINUOUS
 62
     5
 10
77.400000000000091
 20
39.600000000000023
 30
0.0
 11
84.600000000000136
 21
39.600000000000023
 31
0.0
  0
LINE
  8
DETAIL
  6
CONTINUOUS
 62
     5
 10
84.600000000000136
 20
32.400000000000091
 30
0.0
 11
84.600000000000136
 21
39.600000000000023
 31
0.0
  0
LINE
  8
DETAIL
  6
CONTINUOUS
 62
     5
 10
77.400000000000091
 20
32.400000000000091
 30
0.0
 11
77.400000000000091
 21
39.600000000000023
 31
0.0
  0
LINE
  8
DETAIL
  6
CONTINUOUS
 62
     5
 10
77.400000000000091
 20
32.400000000000091
 30
0.0
 11
84.600000000000136
 21
32.400000000000091
 31
0.0
  0
LINE
  8
DETAIL
  6
CONTINUOUS
 62
     5
 10
68.400000000000091
 20
39.600000000000023
 30
0.0
 11
75.600000000000136
 21
39.600000000000023
 31
0.0
  0
LINE
  8
DETAIL
  6
CONTINUOUS
 62
     5
 10
75.600000000000136
 20
32.400000000000091
 30
0.0
 11
75.600000000000136
 21
39.600000000000023
 31
0.0
  0
LINE
  8
DETAIL
  6
CONTINUOUS
 62
     5
 10
68.400000000000091
 20
32.400000000000091
 30
0.0
 11
68.400000000000091
 21
39.600000000000023
 31
0.0
  0
LINE
  8
DETAIL
  6
CONTINUOUS
 62
     5
 10
68.400000000000091
 20
32.400000000000091
 30
0.0
 11
75.600000000000136
 21
32.400000000000091
 31
0.0
  0
LINE
  8
DETAIL
  6
CONTINUOUS
 62
     5
 10
59.400000000000091
 20
39.600000000000023
 30
0.0
 11
66.600000000000136
 21
39.600000000000023
 31
0.0
  0
LINE
  8
DETAIL
  6
CONTINUOUS
 62
     5
 10
66.600000000000136
 20
32.400000000000091
 30
0.0
 11
66.600000000000136
 21
39.600000000000023
 31
0.0
  0
LINE
  8
DETAIL
  6
CONTINUOUS
 62
     5
 10
59.400000000000091
 20
32.400000000000091
 30
0.0
 11
59.400000000000091
 21
39.600000000000023
 31
0.0
  0
LINE
  8
DETAIL
  6
CONTINUOUS
 62
     5
 10
59.400000000000091
 20
32.400000000000091
 30
0.0
 11
66.600000000000136
 21
32.400000000000091
 31
0.0
  0
LINE
  8
DETAIL
  6
CONTINUOUS
 62
     5
 10
50.400000000000091
 20
39.600000000000023
 30
0.0
 11
57.600000000000144
 21
39.600000000000023
 31
0.0
  0
LINE
  8
DETAIL
  6
CONTINUOUS
 62
     5
 10
57.600000000000144
 20
32.400000000000091
 30
0.0
 11
57.600000000000144
 21
39.600000000000023
 31
0.0
  0
LINE
  8
DETAIL
  6
CONTINUOUS
 62
     5
 10
50.400000000000091
 20
32.400000000000091
 30
0.0
 11
50.400000000000091
 21
39.600000000000023
 31
0.0
  0
LINE
  8
DETAIL
  6
CONTINUOUS
 62
     5
 10
50.400000000000091
 20
32.400000000000091
 30
0.0
 11
57.600000000000144
 21
32.400000000000091
 31
0.0
  0
LINE
  8
DETAIL
  6
CONTINUOUS
 62
     5
 10
86.400000000000091
 20
48.600000000000023
 30
0.0
 11
93.600000000000136
 21
48.600000000000023
 31
0.0
  0
LINE
  8
DETAIL
  6
CONTINUOUS
 62
     5
 10
93.600000000000136
 20
41.399999999999977
 30
0.0
 11
93.600000000000136
 21
48.600000000000023
 31
0.0
  0
LINE
  8
DETAIL
  6
CONTINUOUS
 62
     5
 10
86.400000000000091
 20
41.399999999999977
 30
0.0
 11
86.400000000000091
 21
48.600000000000023
 31
0.0
  0
LINE
  8
DETAIL
  6
CONTINUOUS
 62
     5
 10
86.400000000000091
 20
41.399999999999977
 30
0.0
 11
93.600000000000136
 21
41.399999999999977
 31
0.0
  0
LINE
  8
DETAIL
  6
CONTINUOUS
 62
     5
 10
77.400000000000091
 20
48.600000000000023
 30
0.0
 11
84.600000000000136
 21
48.600000000000023
 31
0.0
  0
LINE
  8
DETAIL
  6
CONTINUOUS
 62
     5
 10
84.600000000000136
 20
41.399999999999977
 30
0.0
 11
84.600000000000136
 21
48.600000000000023
 31
0.0
  0
LINE
  8
DETAIL
  6
CONTINUOUS
 62
     5
 10
77.400000000000091
 20
41.399999999999977
 30
0.0
 11
77.400000000000091
 21
48.600000000000023
 31
0.0
  0
LINE
  8
DETAIL
  6
CONTINUOUS
 62
     5
 10
77.400000000000091
 20
41.399999999999977
 30
0.0
 11
84.600000000000136
 21
41.399999999999977
 31
0.0
  0
LINE
  8
DETAIL
  6
CONTINUOUS
 62
     5
 10
68.400000000000091
 20
48.600000000000023
 30
0.0
 11
75.600000000000136
 21
48.600000000000023
 31
0.0
  0
LINE
  8
DETAIL
  6
CONTINUOUS
 62
     5
 10
75.600000000000136
 20
41.399999999999977
 30
0.0
 11
75.600000000000136
 21
48.600000000000023
 31
0.0
  0
LINE
  8
DETAIL
  6
CONTINUOUS
 62
     5
 10
68.400000000000091
 20
41.399999999999977
 30
0.0
 11
68.400000000000091
 21
48.600000000000023
 31
0.0
  0
LINE
  8
DETAIL
  6
CONTINUOUS
 62
     5
 10
68.400000000000091
 20
41.399999999999977
 30
0.0
 11
75.600000000000136
 21
41.399999999999977
 31
0.0
  0
LINE
  8
DETAIL
  6
CONTINUOUS
 62
     5
 10
59.400000000000091
 20
48.600000000000023
 30
0.0
 11
66.600000000000136
 21
48.600000000000023
 31
0.0
  0
LINE
  8
DETAIL
  6
CONTINUOUS
 62
     5
 10
66.600000000000136
 20
41.399999999999977
 30
0.0
 11
66.600000000000136
 21
48.600000000000023
 31
0.0
  0
LINE
  8
DETAIL
  6
CONTINUOUS
 62
     5
 10
59.400000000000091
 20
41.399999999999977
 30
0.0
 11
59.400000000000091
 21
48.600000000000023
 31
0.0
  0
LINE
  8
DETAIL
  6
CONTINUOUS
 62
     5
 10
59.400000000000091
 20
41.399999999999977
 30
0.0
 11
66.600000000000136
 21
41.399999999999977
 31
0.0
  0
LINE
  8
DETAIL
  6
CONTINUOUS
 62
     5
 10
50.400000000000091
 20
48.600000000000023
 30
0.0
 11
57.600000000000144
 21
48.600000000000023
 31
0.0
  0
LINE
  8
DETAIL
  6
CONTINUOUS
 62
     5
 10
57.600000000000144
 20
41.399999999999977
 30
0.0
 11
57.600000000000144
 21
48.600000000000023
 31
0.0
  0
LINE
  8
DETAIL
  6
CONTINUOUS
 62
     5
 10
50.400000000000091
 20
41.399999999999977
 30
0.0
 11
50.400000000000091
 21
48.600000000000023
 31
0.0
  0
LINE
  8
DETAIL
  6
CONTINUOUS
 62
     5
 10
50.400000000000091
 20
41.399999999999977
 30
0.0
 11
57.600000000000144
 21
41.399999999999977
 31
0.0
  0
LINE
  8
DETAIL
  6
CONTINUOUS
 62
     5
 10
41.400000000000091
 20
48.600000000000023
 30
0.0
 11
48.600000000000144
 21
48.600000000000023
 31
0.0
  0
LINE
  8
DETAIL
  6
CONTINUOUS
 62
     5
 10
48.600000000000144
 20
41.399999999999977
 30
0.0
 11
48.600000000000144
 21
48.600000000000023
 31
0.0
  0
LINE
  8
DETAIL
  6
CONTINUOUS
 62
     5
 10
41.400000000000091
 20
41.399999999999977
 30
0.0
 11
41.400000000000091
 21
48.600000000000023
 31
0.0
  0
LINE
  8
DETAIL
  6
CONTINUOUS
 62
     5
 10
41.400000000000091
 20
41.399999999999977
 30
0.0
 11
48.600000000000144
 21
41.399999999999977
 31
0.0
  0
LINE
  8
DETAIL
  6
CONTINUOUS
 62
     5
 10
86.400000000000091
 20
57.600000000000023
 30
0.0
 11
93.600000000000136
 21
57.600000000000023
 31
0.0
  0
LINE
  8
DETAIL
  6
CONTINUOUS
 62
     5
 10
93.600000000000136
 20
50.399999999999977
 30
0.0
 11
93.600000000000136
 21
57.600000000000023
 31
0.0
  0
LINE
  8
DETAIL
  6
CONTINUOUS
 62
     5
 10
86.400000000000091
 20
50.399999999999977
 30
0.0
 11
86.400000000000091
 21
57.600000000000023
 31
0.0
  0
LINE
  8
DETAIL
  6
CONTINUOUS
 62
     5
 10
86.400000000000091
 20
50.399999999999977
 30
0.0
 11
93.600000000000136
 21
50.399999999999977
 31
0.0
  0
LINE
  8
DETAIL
  6
CONTINUOUS
 62
     5
 10
77.400000000000091
 20
57.600000000000023
 30
0.0
 11
84.600000000000136
 21
57.600000000000023
 31
0.0
  0
LINE
  8
DETAIL
  6
CONTINUOUS
 62
     5
 10
84.600000000000136
 20
50.399999999999977
 30
0.0
 11
84.600000000000136
 21
57.600000000000023
 31
0.0
  0
LINE
  8
DETAIL
  6
CONTINUOUS
 62
     5
 10
77.400000000000091
 20
50.399999999999977
 30
0.0
 11
77.400000000000091
 21
57.600000000000023
 31
0.0
  0
LINE
  8
DETAIL
  6
CONTINUOUS
 62
     5
 10
77.400000000000091
 20
50.399999999999977
 30
0.0
 11
84.600000000000136
 21
50.399999999999977
 31
0.0
  0
LINE
  8
DETAIL
  6
CONTINUOUS
 62
     5
 10
68.400000000000091
 20
57.600000000000023
 30
0.0
 11
75.600000000000136
 21
57.600000000000023
 31
0.0
  0
LINE
  8
DETAIL
  6
CONTINUOUS
 62
     5
 10
75.600000000000136
 20
50.399999999999977
 30
0.0
 11
75.600000000000136
 21
57.600000000000023
 31
0.0
  0
LINE
  8
DETAIL
  6
CONTINUOUS
 62
     5
 10
68.400000000000091
 20
50.399999999999977
 30
0.0
 11
68.400000000000091
 21
57.600000000000023
 31
0.0
  0
LINE
  8
DETAIL
  6
CONTINUOUS
 62
     5
 10
68.400000000000091
 20
50.399999999999977
 30
0.0
 11
75.600000000000136
 21
50.399999999999977
 31
0.0
  0
LINE
  8
DETAIL
  6
CONTINUOUS
 62
     5
 10
59.400000000000091
 20
57.600000000000023
 30
0.0
 11
66.600000000000136
 21
57.600000000000023
 31
0.0
  0
LINE
  8
DETAIL
  6
CONTINUOUS
 62
     5
 10
66.600000000000136
 20
50.399999999999977
 30
0.0
 11
66.600000000000136
 21
57.600000000000023
 31
0.0
  0
LINE
  8
DETAIL
  6
CONTINUOUS
 62
     5
 10
59.400000000000091
 20
50.399999999999977
 30
0.0
 11
59.400000000000091
 21
57.600000000000023
 31
0.0
  0
LINE
  8
DETAIL
  6
CONTINUOUS
 62
     5
 10
59.400000000000091
 20
50.399999999999977
 30
0.0
 11
66.600000000000136
 21
50.399999999999977
 31
0.0
  0
LINE
  8
DETAIL
  6
CONTINUOUS
 62
     5
 10
50.400000000000091
 20
57.600000000000023
 30
0.0
 11
57.600000000000144
 21
57.600000000000023
 31
0.0
  0
LINE
  8
DETAIL
  6
CONTINUOUS
 62
     5
 10
57.600000000000144
 20
50.399999999999977
 30
0.0
 11
57.600000000000144
 21
57.600000000000023
 31
0.0
  0
LINE
  8
DETAIL
  6
CONTINUOUS
 62
     5
 10
50.400000000000091
 20
50.399999999999977
 30
0.0
 11
50.400000000000091
 21
57.600000000000023
 31
0.0
  0
LINE
  8
DETAIL
  6
CONTINUOUS
 62
     5
 10
50.400000000000091
 20
50.399999999999977
 30
0.0
 11
57.600000000000144
 21
50.399999999999977
 31
0.0
  0
LINE
  8
DETAIL
  6
CONTINUOUS
 62
     5
 10
41.400000000000091
 20
57.600000000000023
 30
0.0
 11
48.600000000000144
 21
57.600000000000023
 31
0.0
  0
LINE
  8
DETAIL
  6
CONTINUOUS
 62
     5
 10
48.600000000000144
 20
50.399999999999977
 30
0.0
 11
48.600000000000144
 21
57.600000000000023
 31
0.0
  0
LINE
  8
DETAIL
  6
CONTINUOUS
 62
     5
 10
41.400000000000091
 20
50.399999999999977
 30
0.0
 11
41.400000000000091
 21
57.600000000000023
 31
0.0
  0
LINE
  8
DETAIL
  6
CONTINUOUS
 62
     5
 10
41.400000000000091
 20
50.399999999999977
 30
0.0
 11
48.600000000000144
 21
50.399999999999977
 31
0.0
  0
LINE
  8
DETAIL
  6
CONTINUOUS
 62
     5
 10
39.600000000000144
 20
50.399999999999977
 30
0.0
 11
39.600000000000144
 21
57.600000000000023
 31
0.0
  0
LINE
  8
DETAIL
  6
CONTINUOUS
 62
     5
 10
86.400000000000091
 20
66.600000000000023
 30
0.0
 11
93.600000000000136
 21
66.600000000000023
 31
0.0
  0
LINE
  8
DETAIL
  6
CONTINUOUS
 62
     5
 10
93.600000000000136
 20
59.399999999999977
 30
0.0
 11
93.600000000000136
 21
66.600000000000023
 31
0.0
  0
LINE
  8
DETAIL
  6
CONTINUOUS
 62
     5
 10
86.400000000000091
 20
59.399999999999977
 30
0.0
 11
86.400000000000091
 21
66.600000000000023
 31
0.0
  0
LINE
  8
DETAIL
  6
CONTINUOUS
 62
     5
 10
86.400000000000091
 20
59.399999999999977
 30
0.0
 11
93.600000000000136
 21
59.399999999999977
 31
0.0
  0
LINE
  8
DETAIL
  6
CONTINUOUS
 62
     5
 10
77.400000000000091
 20
66.600000000000023
 30
0.0
 11
84.600000000000136
 21
66.600000000000023
 31
0.0
  0
LINE
  8
DETAIL
  6
CONTINUOUS
 62
     5
 10
84.600000000000136
 20
59.399999999999977
 30
0.0
 11
84.600000000000136
 21
66.600000000000023
 31
0.0
  0
LINE
  8
DETAIL
  6
CONTINUOUS
 62
     5
 10
77.400000000000091
 20
59.399999999999977
 30
0.0
 11
77.400000000000091
 21
66.600000000000023
 31
0.0
  0
LINE
  8
DETAIL
  6
CONTINUOUS
 62
     5
 10
77.400000000000091
 20
59.399999999999977
 30
0.0
 11
84.600000000000136
 21
59.399999999999977
 31
0.0
  0
LINE
  8
DETAIL
  6
CONTINUOUS
 62
     5
 10
68.400000000000091
 20
66.600000000000023
 30
0.0
 11
75.600000000000136
 21
66.600000000000023
 31
0.0
  0
LINE
  8
DETAIL
  6
CONTINUOUS
 62
     5
 10
75.600000000000136
 20
59.399999999999977
 30
0.0
 11
75.600000000000136
 21
66.600000000000023
 31
0.0
  0
LINE
  8
DETAIL
  6
CONTINUOUS
 62
     5
 10
68.400000000000091
 20
59.399999999999977
 30
0.0
 11
68.400000000000091
 21
66.600000000000023
 31
0.0
  0
LINE
  8
DETAIL
  6
CONTINUOUS
 62
     5
 10
68.400000000000091
 20
59.399999999999977
 30
0.0
 11
75.600000000000136
 21
59.399999999999977
 31
0.0
  0
LINE
  8
DETAIL
  6
CONTINUOUS
 62
     5
 10
59.400000000000091
 20
66.600000000000023
 30
0.0
 11
66.600000000000136
 21
66.600000000000023
 31
0.0
  0
LINE
  8
DETAIL
  6
CONTINUOUS
 62
     5
 10
66.600000000000136
 20
59.399999999999977
 30
0.0
 11
66.600000000000136
 21
66.600000000000023
 31
0.0
  0
LINE
  8
DETAIL
  6
CONTINUOUS
 62
     5
 10
59.400000000000091
 20
59.399999999999977
 30
0.0
 11
59.400000000000091
 21
66.600000000000023
 31
0.0
  0
LINE
  8
DETAIL
  6
CONTINUOUS
 62
     5
 10
59.400000000000091
 20
59.399999999999977
 30
0.0
 11
66.600000000000136
 21
59.399999999999977
 31
0.0
  0
LINE
  8
DETAIL
  6
CONTINUOUS
 62
     5
 10
50.400000000000091
 20
66.600000000000023
 30
0.0
 11
57.600000000000144
 21
66.600000000000023
 31
0.0
  0
LINE
  8
DETAIL
  6
CONTINUOUS
 62
     5
 10
57.600000000000144
 20
59.399999999999977
 30
0.0
 11
57.600000000000144
 21
66.600000000000023
 31
0.0
  0
LINE
  8
DETAIL
  6
CONTINUOUS
 62
     5
 10
50.400000000000091
 20
59.399999999999977
 30
0.0
 11
50.400000000000091
 21
66.600000000000023
 31
0.0
  0
LINE
  8
DETAIL
  6
CONTINUOUS
 62
     5
 10
50.400000000000091
 20
59.399999999999977
 30
0.0
 11
57.600000000000144
 21
59.399999999999977
 31
0.0
  0
LINE
  8
DETAIL
  6
CONTINUOUS
 62
     5
 10
41.400000000000091
 20
66.600000000000023
 30
0.0
 11
48.600000000000144
 21
66.600000000000023
 31
0.0
  0
LINE
  8
DETAIL
  6
CONTINUOUS
 62
     5
 10
48.600000000000144
 20
59.399999999999977
 30
0.0
 11
48.600000000000144
 21
66.600000000000023
 31
0.0
  0
LINE
  8
DETAIL
  6
CONTINUOUS
 62
     5
 10
41.400000000000091
 20
59.399999999999977
 30
0.0
 11
41.400000000000091
 21
66.600000000000023
 31
0.0
  0
LINE
  8
DETAIL
  6
CONTINUOUS
 62
     5
 10
41.400000000000091
 20
59.399999999999977
 30
0.0
 11
48.600000000000144
 21
59.399999999999977
 31
0.0
  0
LINE
  8
DETAIL
  6
CONTINUOUS
 62
     5
 10
39.600000000000144
 20
59.399999999999977
 30
0.0
 11
39.600000000000144
 21
66.600000000000023
 31
0.0
  0
LINE
  8
DETAIL
  6
CONTINUOUS
 62
     5
 10
86.400000000000091
 20
75.600000000000023
 30
0.0
 11
93.600000000000136
 21
75.600000000000023
 31
0.0
  0
LINE
  8
DETAIL
  6
CONTINUOUS
 62
     5
 10
93.600000000000136
 20
68.400000000000091
 30
0.0
 11
93.600000000000136
 21
75.600000000000023
 31
0.0
  0
LINE
  8
DETAIL
  6
CONTINUOUS
 62
     5
 10
86.400000000000091
 20
68.400000000000091
 30
0.0
 11
86.400000000000091
 21
75.600000000000023
 31
0.0
  0
LINE
  8
DETAIL
  6
CONTINUOUS
 62
     5
 10
86.400000000000091
 20
68.400000000000091
 30
0.0
 11
93.600000000000136
 21
68.400000000000091
 31
0.0
  0
LINE
  8
DETAIL
  6
CONTINUOUS
 62
     5
 10
77.400000000000091
 20
75.600000000000023
 30
0.0
 11
84.600000000000136
 21
75.600000000000023
 31
0.0
  0
LINE
  8
DETAIL
  6
CONTINUOUS
 62
     5
 10
84.600000000000136
 20
68.400000000000091
 30
0.0
 11
84.600000000000136
 21
75.600000000000023
 31
0.0
  0
LINE
  8
DETAIL
  6
CONTINUOUS
 62
     5
 10
77.400000000000091
 20
68.400000000000091
 30
0.0
 11
77.400000000000091
 21
75.600000000000023
 31
0.0
  0
LINE
  8
DETAIL
  6
CONTINUOUS
 62
     5
 10
77.400000000000091
 20
68.400000000000091
 30
0.0
 11
84.600000000000136
 21
68.400000000000091
 31
0.0
  0
LINE
  8
DETAIL
  6
CONTINUOUS
 62
     5
 10
68.400000000000091
 20
75.600000000000023
 30
0.0
 11
75.600000000000136
 21
75.600000000000023
 31
0.0
  0
LINE
  8
DETAIL
  6
CONTINUOUS
 62
     5
 10
75.600000000000136
 20
68.400000000000091
 30
0.0
 11
75.600000000000136
 21
75.600000000000023
 31
0.0
  0
LINE
  8
DETAIL
  6
CONTINUOUS
 62
     5
 10
68.400000000000091
 20
68.400000000000091
 30
0.0
 11
68.400000000000091
 21
75.600000000000023
 31
0.0
  0
LINE
  8
DETAIL
  6
CONTINUOUS
 62
     5
 10
68.400000000000091
 20
68.400000000000091
 30
0.0
 11
75.600000000000136
 21
68.400000000000091
 31
0.0
  0
LINE
  8
DETAIL
  6
CONTINUOUS
 62
     5
 10
59.400000000000091
 20
75.600000000000023
 30
0.0
 11
66.600000000000136
 21
75.600000000000023
 31
0.0
  0
LINE
  8
DETAIL
  6
CONTINUOUS
 62
     5
 10
66.600000000000136
 20
68.400000000000091
 30
0.0
 11
66.600000000000136
 21
75.600000000000023
 31
0.0
  0
LINE
  8
DETAIL
  6
CONTINUOUS
 62
     5
 10
59.400000000000091
 20
68.400000000000091
 30
0.0
 11
59.400000000000091
 21
75.600000000000023
 31
0.0
  0
LINE
  8
DETAIL
  6
CONTINUOUS
 62
     5
 10
59.400000000000091
 20
68.400000000000091
 30
0.0
 11
66.600000000000136
 21
68.400000000000091
 31
0.0
  0
LINE
  8
DETAIL
  6
CONTINUOUS
 62
     5
 10
50.400000000000091
 20
75.600000000000023
 30
0.0
 11
57.600000000000144
 21
75.600000000000023
 31
0.0
  0
LINE
  8
DETAIL
  6
CONTINUOUS
 62
     5
 10
57.600000000000144
 20
68.400000000000091
 30
0.0
 11
57.600000000000144
 21
75.600000000000023
 31
0.0
  0
LINE
  8
DETAIL
  6
CONTINUOUS
 62
     5
 10
50.400000000000091
 20
68.400000000000091
 30
0.0
 11
50.400000000000091
 21
75.600000000000023
 31
0.0
  0
LINE
  8
DETAIL
  6
CONTINUOUS
 62
     5
 10
50.400000000000091
 20
68.400000000000091
 30
0.0
 11
57.600000000000144
 21
68.400000000000091
 31
0.0
  0
LINE
  8
DETAIL
  6
CONTINUOUS
 62
     5
 10
41.400000000000091
 20
75.600000000000023
 30
0.0
 11
48.600000000000144
 21
75.600000000000023
 31
0.0
  0
LINE
  8
DETAIL
  6
CONTINUOUS
 62
     5
 10
48.600000000000144
 20
68.400000000000091
 30
0.0
 11
48.600000000000144
 21
75.600000000000023
 31
0.0
  0
LINE
  8
DETAIL
  6
CONTINUOUS
 62
     5
 10
41.400000000000091
 20
68.400000000000091
 30
0.0
 11
41.400000000000091
 21
75.600000000000023
 31
0.0
  0
LINE
  8
DETAIL
  6
CONTINUOUS
 62
     5
 10
41.400000000000091
 20
68.400000000000091
 30
0.0
 11
48.600000000000144
 21
68.400000000000091
 31
0.0
  0
LINE
  8
DETAIL
  6
CONTINUOUS
 62
     5
 10
39.600000000000144
 20
68.400000000000091
 30
0.0
 11
39.600000000000144
 21
75.600000000000023
 31
0.0
  0
LINE
  8
DETAIL
  6
CONTINUOUS
 62
     5
 10
86.400000000000091
 20
84.600000000000023
 30
0.0
 11
93.600000000000136
 21
84.600000000000023
 31
0.0
  0
LINE
  8
DETAIL
  6
CONTINUOUS
 62
     5
 10
93.600000000000136
 20
77.400000000000091
 30
0.0
 11
93.600000000000136
 21
84.600000000000023
 31
0.0
  0
LINE
  8
DETAIL
  6
CONTINUOUS
 62
     5
 10
86.400000000000091
 20
77.400000000000091
 30
0.0
 11
86.400000000000091
 21
84.600000000000023
 31
0.0
  0
LINE
  8
DETAIL
  6
CONTINUOUS
 62
     5
 10
86.400000000000091
 20
77.400000000000091
 30
0.0
 11
93.600000000000136
 21
77.400000000000091
 31
0.0
  0
LINE
  8
DETAIL
  6
CONTINUOUS
 62
     5
 10
77.400000000000091
 20
84.600000000000023
 30
0.0
 11
84.600000000000136
 21
84.600000000000023
 31
0.0
  0
LINE
  8
DETAIL
  6
CONTINUOUS
 62
     5
 10
84.600000000000136
 20
77.400000000000091
 30
0.0
 11
84.600000000000136
 21
84.600000000000023
 31
0.0
  0
LINE
  8
DETAIL
  6
CONTINUOUS
 62
     5
 10
77.400000000000091
 20
77.400000000000091
 30
0.0
 11
77.400000000000091
 21
84.600000000000023
 31
0.0
  0
LINE
  8
DETAIL
  6
CONTINUOUS
 62
     5
 10
77.400000000000091
 20
77.400000000000091
 30
0.0
 11
84.600000000000136
 21
77.400000000000091
 31
0.0
  0
LINE
  8
DETAIL
  6
CONTINUOUS
 62
     5
 10
68.400000000000091
 20
84.600000000000023
 30
0.0
 11
75.600000000000136
 21
84.600000000000023
 31
0.0
  0
LINE
  8
DETAIL
  6
CONTINUOUS
 62
     5
 10
75.600000000000136
 20
77.400000000000091
 30
0.0
 11
75.600000000000136
 21
84.600000000000023
 31
0.0
  0
LINE
  8
DETAIL
  6
CONTINUOUS
 62
     5
 10
68.400000000000091
 20
77.400000000000091
 30
0.0
 11
68.400000000000091
 21
84.600000000000023
 31
0.0
  0
LINE
  8
DETAIL
  6
CONTINUOUS
 62
     5
 10
68.400000000000091
 20
77.400000000000091
 30
0.0
 11
75.600000000000136
 21
77.400000000000091
 31
0.0
  0
LINE
  8
DETAIL
  6
CONTINUOUS
 62
     5
 10
59.400000000000091
 20
84.600000000000023
 30
0.0
 11
66.600000000000136
 21
84.600000000000023
 31
0.0
  0
LINE
  8
DETAIL
  6
CONTINUOUS
 62
     5
 10
66.600000000000136
 20
77.400000000000091
 30
0.0
 11
66.600000000000136
 21
84.600000000000023
 31
0.0
  0
LINE
  8
DETAIL
  6
CONTINUOUS
 62
     5
 10
59.400000000000091
 20
77.400000000000091
 30
0.0
 11
59.400000000000091
 21
84.600000000000023
 31
0.0
  0
LINE
  8
DETAIL
  6
CONTINUOUS
 62
     5
 10
59.400000000000091
 20
77.400000000000091
 30
0.0
 11
66.600000000000136
 21
77.400000000000091
 31
0.0
  0
LINE
  8
DETAIL
  6
CONTINUOUS
 62
     5
 10
50.400000000000091
 20
84.600000000000023
 30
0.0
 11
57.600000000000144
 21
84.600000000000023
 31
0.0
  0
LINE
  8
DETAIL
  6
CONTINUOUS
 62
     5
 10
57.600000000000144
 20
77.400000000000091
 30
0.0
 11
57.600000000000144
 21
84.600000000000023
 31
0.0
  0
LINE
  8
DETAIL
  6
CONTINUOUS
 62
     5
 10
50.400000000000091
 20
77.400000000000091
 30
0.0
 11
50.400000000000091
 21
84.600000000000023
 31
0.0
  0
LINE
  8
DETAIL
  6
CONTINUOUS
 62
     5
 10
50.400000000000091
 20
77.400000000000091
 30
0.0
 11
57.600000000000144
 21
77.400000000000091
 31
0.0
  0
LINE
  8
DETAIL
  6
CONTINUOUS
 62
     5
 10
41.400000000000091
 20
84.600000000000023
 30
0.0
 11
48.600000000000144
 21
84.600000000000023
 31
0.0
  0
LINE
  8
DETAIL
  6
CONTINUOUS
 62
     5
 10
48.600000000000144
 20
77.400000000000091
 30
0.0
 11
48.600000000000144
 21
84.600000000000023
 31
0.0
  0
LINE
  8
DETAIL
  6
CONTINUOUS
 62
     5
 10
41.400000000000091
 20
77.400000000000091
 30
0.0
 11
41.400000000000091
 21
84.600000000000023
 31
0.0
  0
LINE
  8
DETAIL
  6
CONTINUOUS
 62
     5
 10
41.400000000000091
 20
77.400000000000091
 30
0.0
 11
48.600000000000144
 21
77.400000000000091
 31
0.0
  0
LINE
  8
DETAIL
  6
CONTINUOUS
 62
     5
 10
39.600000000000144
 20
77.400000000000091
 30
0.0
 11
39.600000000000144
 21
84.600000000000023
 31
0.0
  0
LINE
  8
DETAIL
  6
CONTINUOUS
 62
     5
 10
86.400000000000091
 20
93.600000000000023
 30
0.0
 11
93.600000000000136
 21
93.600000000000023
 31
0.0
  0
LINE
  8
DETAIL
  6
CONTINUOUS
 62
     5
 10
93.600000000000136
 20
86.400000000000091
 30
0.0
 11
93.600000000000136
 21
93.600000000000023
 31
0.0
  0
LINE
  8
DETAIL
  6
CONTINUOUS
 62
     5
 10
86.400000000000091
 20
86.400000000000091
 30
0.0
 11
86.400000000000091
 21
93.600000000000023
 31
0.0
  0
LINE
  8
DETAIL
  6
CONTINUOUS
 62
     5
 10
86.400000000000091
 20
86.400000000000091
 30
0.0
 11
93.600000000000136
 21
86.400000000000091
 31
0.0
  0
LINE
  8
DETAIL
  6
CONTINUOUS
 62
     5
 10
77.400000000000091
 20
93.600000000000023
 30
0.0
 11
84.600000000000136
 21
93.600000000000023
 31
0.0
  0
LINE
  8
DETAIL
  6
CONTINUOUS
 62
     5
 10
84.600000000000136
 20
86.400000000000091
 30
0.0
 11
84.600000000000136
 21
93.600000000000023
 31
0.0
  0
LINE
  8
DETAIL
  6
CONTINUOUS
 62
     5
 10
77.400000000000091
 20
86.400000000000091
 30
0.0
 11
77.400000000000091
 21
93.600000000000023
 31
0.0
  0
LINE
  8
DETAIL
  6
CONTINUOUS
 62
     5
 10
77.400000000000091
 20
86.400000000000091
 30
0.0
 11
84.600000000000136
 21
86.400000000000091
 31
0.0
  0
LINE
  8
DETAIL
  6
CONTINUOUS
 62
     5
 10
68.400000000000091
 20
93.600000000000023
 30
0.0
 11
75.600000000000136
 21
93.600000000000023
 31
0.0
  0
LINE
  8
DETAIL
  6
CONTINUOUS
 62
     5
 10
75.600000000000136
 20
86.400000000000091
 30
0.0
 11
75.600000000000136
 21
93.600000000000023
 31
0.0
  0
LINE
  8
DETAIL
  6
CONTINUOUS
 62
     5
 10
68.400000000000091
 20
86.400000000000091
 30
0.0
 11
68.400000000000091
 21
93.600000000000023
 31
0.0
  0
LINE
  8
DETAIL
  6
CONTINUOUS
 62
     5
 10
68.400000000000091
 20
86.400000000000091
 30
0.0
 11
75.600000000000136
 21
86.400000000000091
 31
0.0
  0
LINE
  8
DETAIL
  6
CONTINUOUS
 62
     5
 10
59.400000000000091
 20
93.600000000000023
 30
0.0
 11
66.600000000000136
 21
93.600000000000023
 31
0.0
  0
LINE
  8
DETAIL
  6
CONTINUOUS
 62
     5
 10
66.600000000000136
 20
86.400000000000091
 30
0.0
 11
66.600000000000136
 21
93.600000000000023
 31
0.0
  0
LINE
  8
DETAIL
  6
CONTINUOUS
 62
     5
 10
59.400000000000091
 20
86.400000000000091
 30
0.0
 11
59.400000000000091
 21
93.600000000000023
 31
0.0
  0
LINE
  8
DETAIL
  6
CONTINUOUS
 62
     5
 10
59.400000000000091
 20
86.400000000000091
 30
0.0
 11
66.600000000000136
 21
86.400000000000091
 31
0.0
  0
LINE
  8
DETAIL
  6
CONTINUOUS
 62
     5
 10
50.400000000000091
 20
93.600000000000023
 30
0.0
 11
57.600000000000144
 21
93.600000000000023
 31
0.0
  0
LINE
  8
DETAIL
  6
CONTINUOUS
 62
     5
 10
57.600000000000144
 20
86.400000000000091
 30
0.0
 11
57.600000000000144
 21
93.600000000000023
 31
0.0
  0
LINE
  8
DETAIL
  6
CONTINUOUS
 62
     5
 10
50.400000000000091
 20
86.400000000000091
 30
0.0
 11
50.400000000000091
 21
93.600000000000023
 31
0.0
  0
LINE
  8
DETAIL
  6
CONTINUOUS
 62
     5
 10
50.400000000000091
 20
86.400000000000091
 30
0.0
 11
57.600000000000144
 21
86.400000000000091
 31
0.0
  0
LINE
  8
DETAIL
  6
CONTINUOUS
 62
     5
 10
41.400000000000091
 20
93.600000000000023
 30
0.0
 11
48.600000000000144
 21
93.600000000000023
 31
0.0
  0
LINE
  8
DETAIL
  6
CONTINUOUS
 62
     5
 10
48.600000000000144
 20
86.400000000000091
 30
0.0
 11
48.600000000000144
 21
93.600000000000023
 31
0.0
  0
LINE
  8
DETAIL
  6
CONTINUOUS
 62
     5
 10
41.400000000000091
 20
86.400000000000091
 30
0.0
 11
41.400000000000091
 21
93.600000000000023
 31
0.0
  0
LINE
  8
DETAIL
  6
CONTINUOUS
 62
     5
 10
41.400000000000091
 20
86.400000000000091
 30
0.0
 11
48.600000000000144
 21
86.400000000000091
 31
0.0
  0
LINE
  8
DETAIL
  6
CONTINUOUS
 62
     5
 10
39.600000000000144
 20
86.400000000000091
 30
0.0
 11
39.600000000000144
 21
93.600000000000023
 31
0.0
  0
LINE
  8
DETAIL
  6
CONTINUOUS
 62
     5
 10
59.400000000000091
 20
23.400000000000091
 30
0.0
 11
66.600000000000136
 21
23.400000000000091
 31
0.0
  0
LINE
  8
DETAIL
  6
CONTINUOUS
 62
     5
 10
59.400000000000091
 20
30.600000000000019
 30
0.0
 11
59.400000000000091
 21
23.400000000000091
 31
0.0
  0
LINE
  8
DETAIL
  6
CONTINUOUS
 62
     5
 10
101.0
 20
97.0
 30
0.0
 11
99.5
 21
95.5
 31
0.0
  0
LINE
  8
DETAIL
  6
CONTINUOUS
 62
     5
 10
97.0
 20
101.0
 30
0.0
 11
95.5
 21
99.5
 31
0.0
  0
LINE
  8
DETAIL
  6
CONTINUOUS
 62
     5
 10
77.400000000000091
 20
3.6000000000000232
 30
0.0
 11
84.600000000000136
 21
3.6000000000000232
 31
0.0
  0
LINE
  8
DETAIL
  6
CONTINUOUS
 62
     5
 10
68.400000000000091
 20
3.6000000000000232
 30
0.0
 11
75.600000000000136
 21
3.6000000000000232
 31
0.0
  0
LINE
  8
DETAIL
  6
CONTINUOUS
 62
     5
 10
59.400000000000091
 20
3.6000000000000232
 30
0.0
 11
66.600000000000136
 21
3.6000000000000232
 31
0.0
  0
LINE
  8
DETAIL
  6
CONTINUOUS
 62
     5
 10
50.400000000000091
 20
3.6000000000000232
 30
0.0
 11
57.600000000000144
 21
3.6000000000000232
 31
0.0
  0
LINE
  8
DETAIL
  6
CONTINUOUS
 62
     5
 10
41.400000000000091
 20
3.6000000000000232
 30
0.0
 11
48.600000000000144
 21
3.6000000000000232
 31
0.0
  0
LINE
  8
DETAIL
  6
CONTINUOUS
 62
     5
 10
32.400000000000091
 20
3.6000000000000232
 30
0.0
 11
39.600000000000144
 21
3.6000000000000232
 31
0.0
  0
LINE
  8
DETAIL
  6
CONTINUOUS
 62
     5
 10
68.400000000000091
 20
5.3999999999999773
 30
0.0
 11
75.600000000000136
 21
5.3999999999999773
 31
0.0
  0
LINE
  8
DETAIL
  6
CONTINUOUS
 62
     5
 10
68.400000000000091
 20
12.600000000000019
 30
0.0
 11
75.600000000000136
 21
12.600000000000019
 31
0.0
  0
LINE
  8
DETAIL
  6
CONTINUOUS
 62
     5
 10
75.600000000000136
 20
5.3999999999999773
 30
0.0
 11
75.600000000000136
 21
12.600000000000019
 31
0.0
  0
LINE
  8
DETAIL
  6
CONTINUOUS
 62
     5
 10
68.400000000000091
 20
5.3999999999999773
 30
0.0
 11
68.400000000000091
 21
12.600000000000019
 31
0.0
  0
LINE
  8
DETAIL
  6
CONTINUOUS
 62
     5
 10
59.400000000000091
 20
5.3999999999999773
 30
0.0
 11
66.600000000000136
 21
5.3999999999999773
 31
0.0
  0
LINE
  8
DETAIL
  6
CONTINUOUS
 62
     5
 10
59.400000000000091
 20
12.600000000000019
 30
0.0
 11
66.600000000000136
 21
12.600000000000019
 31
0.0
  0
LINE
  8
DETAIL
  6
CONTINUOUS
 62
     5
 10
66.600000000000136
 20
5.3999999999999773
 30
0.0
 11
66.600000000000136
 21
12.600000000000019
 31
0.0
  0
LINE
  8
DETAIL
  6
CONTINUOUS
 62
     5
 10
59.400000000000091
 20
5.3999999999999773
 30
0.0
 11
59.400000000000091
 21
12.600000000000019
 31
0.0
  0
LINE
  8
DETAIL
  6
CONTINUOUS
 62
     5
 10
50.400000000000091
 20
5.3999999999999773
 30
0.0
 11
57.600000000000144
 21
5.3999999999999773
 31
0.0
  0
LINE
  8
DETAIL
  6
CONTINUOUS
 62
     5
 10
50.400000000000091
 20
12.600000000000019
 30
0.0
 11
57.600000000000144
 21
12.600000000000019
 31
0.0
  0
LINE
  8
DETAIL
  6
CONTINUOUS
 62
     5
 10
57.600000000000144
 20
5.3999999999999773
 30
0.0
 11
57.600000000000144
 21
12.600000000000019
 31
0.0
  0
LINE
  8
DETAIL
  6
CONTINUOUS
 62
     5
 10
50.400000000000091
 20
5.3999999999999773
 30
0.0
 11
50.400000000000091
 21
12.600000000000019
 31
0.0
  0
LINE
  8
DETAIL
  6
CONTINUOUS
 62
     5
 10
41.400000000000091
 20
5.3999999999999773
 30
0.0
 11
48.600000000000144
 21
5.3999999999999773
 31
0.0
  0
LINE
  8
DETAIL
  6
CONTINUOUS
 62
     5
 10
41.400000000000091
 20
12.600000000000019
 30
0.0
 11
48.600000000000144
 21
12.600000000000019
 31
0.0
  0
LINE
  8
DETAIL
  6
CONTINUOUS
 62
     5
 10
48.600000000000144
 20
5.3999999999999773
 30
0.0
 11
48.600000000000144
 21
12.600000000000019
 31
0.0
  0
LINE
  8
DETAIL
  6
CONTINUOUS
 62
     5
 10
41.400000000000091
 20
5.3999999999999773
 30
0.0
 11
41.400000000000091
 21
12.600000000000019
 31
0.0
  0
LINE
  8
DETAIL
  6
CONTINUOUS
 62
     5
 10
32.400000000000091
 20
5.3999999999999773
 30
0.0
 11
39.600000000000144
 21
5.3999999999999773
 31
0.0
  0
LINE
  8
DETAIL
  6
CONTINUOUS
 62
     5
 10
32.400000000000091
 20
12.600000000000019
 30
0.0
 11
39.600000000000144
 21
12.600000000000019
 31
0.0
  0
LINE
  8
DETAIL
  6
CONTINUOUS
 62
     5
 10
39.600000000000144
 20
5.3999999999999773
 30
0.0
 11
39.600000000000144
 21
12.600000000000019
 31
0.0
  0
LINE
  8
DETAIL
  6
CONTINUOUS
 62
     5
 10
32.400000000000091
 20
5.3999999999999773
 30
0.0
 11
32.400000000000091
 21
12.600000000000019
 31
0.0
  0
LINE
  8
DETAIL
  6
CONTINUOUS
 62
     5
 10
59.400000000000091
 20
21.600000000000019
 30
0.0
 11
66.600000000000136
 21
21.600000000000019
 31
0.0
  0
LINE
  8
DETAIL
  6
CONTINUOUS
 62
     5
 10
66.600000000000136
 20
14.400000000000089
 30
0.0
 11
66.600000000000136
 21
21.600000000000019
 31
0.0
  0
LINE
  8
DETAIL
  6
CONTINUOUS
 62
     5
 10
59.400000000000091
 20
14.400000000000089
 30
0.0
 11
59.400000000000091
 21
21.600000000000019
 31
0.0
  0
LINE
  8
DETAIL
  6
CONTINUOUS
 62
     5
 10
59.400000000000091
 20
14.400000000000089
 30
0.0
 11
66.600000000000136
 21
14.400000000000089
 31
0.0
  0
LINE
  8
DETAIL
  6
CONTINUOUS
 62
     5
 10
50.400000000000091
 20
21.600000000000019
 30
0.0
 11
57.600000000000144
 21
21.600000000000019
 31
0.0
  0
LINE
  8
DETAIL
  6
CONTINUOUS
 62
     5
 10
57.600000000000144
 20
14.400000000000089
 30
0.0
 11
57.600000000000144
 21
21.600000000000019
 31
0.0
  0
LINE
  8
DETAIL
  6
CONTINUOUS
 62
     5
 10
50.400000000000091
 20
14.400000000000089
 30
0.0
 11
50.400000000000091
 21
21.600000000000019
 31
0.0
  0
LINE
  8
DETAIL
  6
CONTINUOUS
 62
     5
 10
50.400000000000091
 20
14.400000000000089
 30
0.0
 11
57.600000000000144
 21
14.400000000000089
 31
0.0
  0
LINE
  8
DETAIL
  6
CONTINUOUS
 62
     5
 10
41.400000000000091
 20
21.600000000000019
 30
0.0
 11
48.600000000000144
 21
21.600000000000019
 31
0.0
  0
LINE
  8
DETAIL
  6
CONTINUOUS
 62
     5
 10
48.600000000000144
 20
14.400000000000089
 30
0.0
 11
48.600000000000144
 21
21.600000000000019
 31
0.0
  0
LINE
  8
DETAIL
  6
CONTINUOUS
 62
     5
 10
41.400000000000091
 20
14.400000000000089
 30
0.0
 11
41.400000000000091
 21
21.600000000000019
 31
0.0
  0
LINE
  8
DETAIL
  6
CONTINUOUS
 62
     5
 10
41.400000000000091
 20
14.400000000000089
 30
0.0
 11
48.600000000000144
 21
14.400000000000089
 31
0.0
  0
LINE
  8
DETAIL
  6
CONTINUOUS
 62
     5
 10
32.400000000000091
 20
21.600000000000019
 30
0.0
 11
39.600000000000144
 21
21.600000000000019
 31
0.0
  0
LINE
  8
DETAIL
  6
CONTINUOUS
 62
     5
 10
39.600000000000144
 20
14.400000000000089
 30
0.0
 11
39.600000000000144
 21
21.600000000000019
 31
0.0
  0
LINE
  8
DETAIL
  6
CONTINUOUS
 62
     5
 10
32.400000000000091
 20
14.400000000000089
 30
0.0
 11
32.400000000000091
 21
21.600000000000019
 31
0.0
  0
LINE
  8
DETAIL
  6
CONTINUOUS
 62
     5
 10
32.400000000000091
 20
14.400000000000089
 30
0.0
 11
39.600000000000144
 21
14.400000000000089
 31
0.0
  0
LINE
  8
DETAIL
  6
CONTINUOUS
 62
     5
 10
50.400000000000091
 20
30.600000000000019
 30
0.0
 11
57.600000000000144
 21
30.600000000000019
 31
0.0
  0
LINE
  8
DETAIL
  6
CONTINUOUS
 62
     5
 10
57.600000000000144
 20
23.400000000000091
 30
0.0
 11
57.600000000000144
 21
30.600000000000019
 31
0.0
  0
LINE
  8
DETAIL
  6
CONTINUOUS
 62
     5
 10
50.400000000000091
 20
23.400000000000091
 30
0.0
 11
50.400000000000091
 21
30.600000000000019
 31
0.0
  0
LINE
  8
DETAIL
  6
CONTINUOUS
 62
     5
 10
50.400000000000091
 20
23.400000000000091
 30
0.0
 11
57.600000000000144
 21
23.400000000000091
 31
0.0
  0
LINE
  8
DETAIL
  6
CONTINUOUS
 62
     5
 10
50.400000000000091
 20
23.400000000000091
 30
0.0
 11
57.600000000000144
 21
23.400000000000091
 31
0.0
  0
LINE
  8
DETAIL
  6
CONTINUOUS
 62
     5
 10
50.400000000000091
 20
30.600000000000019
 30
0.0
 11
50.400000000000091
 21
23.400000000000091
 31
0.0
  0
LINE
  8
DETAIL
  6
CONTINUOUS
 62
     5
 10
41.400000000000091
 20
30.600000000000019
 30
0.0
 11
48.600000000000144
 21
30.600000000000019
 31
0.0
  0
LINE
  8
DETAIL
  6
CONTINUOUS
 62
     5
 10
48.600000000000144
 20
23.400000000000091
 30
0.0
 11
48.600000000000144
 21
30.600000000000019
 31
0.0
  0
LINE
  8
DETAIL
  6
CONTINUOUS
 62
     5
 10
41.400000000000091
 20
23.400000000000091
 30
0.0
 11
41.400000000000091
 21
30.600000000000019
 31
0.0
  0
LINE
  8
DETAIL
  6
CONTINUOUS
 62
     5
 10
41.400000000000091
 20
23.400000000000091
 30
0.0
 11
48.600000000000144
 21
23.400000000000091
 31
0.0
  0
LINE
  8
DETAIL
  6
CONTINUOUS
 62
     5
 10
41.400000000000091
 20
23.400000000000091
 30
0.0
 11
48.600000000000144
 21
23.400000000000091
 31
0.0
  0
LINE
  8
DETAIL
  6
CONTINUOUS
 62
     5
 10
41.400000000000091
 20
30.600000000000019
 30
0.0
 11
41.400000000000091
 21
23.400000000000091
 31
0.0
  0
LINE
  8
DETAIL
  6
CONTINUOUS
 62
     5
 10
32.400000000000091
 20
30.600000000000019
 30
0.0
 11
39.600000000000144
 21
30.600000000000019
 31
0.0
  0
LINE
  8
DETAIL
  6
CONTINUOUS
 62
     5
 10
39.600000000000144
 20
23.400000000000091
 30
0.0
 11
39.600000000000144
 21
30.600000000000019
 31
0.0
  0
LINE
  8
DETAIL
  6
CONTINUOUS
 62
     5
 10
32.400000000000091
 20
23.400000000000091
 30
0.0
 11
32.400000000000091
 21
30.600000000000019
 31
0.0
  0
LINE
  8
DETAIL
  6
CONTINUOUS
 62
     5
 10
32.400000000000091
 20
23.400000000000091
 30
0.0
 11
39.600000000000144
 21
23.400000000000091
 31
0.0
  0
LINE
  8
DETAIL
  6
CONTINUOUS
 62
     5
 10
32.400000000000091
 20
23.400000000000091
 30
0.0
 11
39.600000000000144
 21
23.400000000000091
 31
0.0
  0
LINE
  8
DETAIL
  6
CONTINUOUS
 62
     5
 10
32.400000000000091
 20
30.600000000000019
 30
0.0
 11
32.400000000000091
 21
23.400000000000091
 31
0.0
  0
LINE
  8
DETAIL
  6
CONTINUOUS
 62
     5
 10
41.400000000000091
 20
39.600000000000023
 30
0.0
 11
48.600000000000144
 21
39.600000000000023
 31
0.0
  0
LINE
  8
DETAIL
  6
CONTINUOUS
 62
     5
 10
48.600000000000144
 20
32.400000000000091
 30
0.0
 11
48.600000000000144
 21
39.600000000000023
 31
0.0
  0
LINE
  8
DETAIL
  6
CONTINUOUS
 62
     5
 10
41.400000000000091
 20
32.400000000000091
 30
0.0
 11
41.400000000000091
 21
39.600000000000023
 31
0.0
  0
LINE
  8
DETAIL
  6
CONTINUOUS
 62
     5
 10
41.400000000000091
 20
32.400000000000091
 30
0.0
 11
48.600000000000144
 21
32.400000000000091
 31
0.0
  0
LINE
  8
DETAIL
  6
CONTINUOUS
 62
     5
 10
32.400000000000091
 20
39.600000000000023
 30
0.0
 11
39.600000000000144
 21
39.600000000000023
 31
0.0
  0
LINE
  8
DETAIL
  6
CONTINUOUS
 62
     5
 10
39.600000000000144
 20
32.400000000000091
 30
0.0
 11
39.600000000000144
 21
39.600000000000023
 31
0.0
  0
LINE
  8
DETAIL
  6
CONTINUOUS
 62
     5
 10
32.400000000000091
 20
32.400000000000091
 30
0.0
 11
32.400000000000091
 21
39.600000000000023
 31
0.0
  0
LINE
  8
DETAIL
  6
CONTINUOUS
 62
     5
 10
32.400000000000091
 20
32.400000000000091
 30
0.0
 11
39.600000000000144
 21
32.400000000000091
 31
0.0
  0
LINE
  8
DETAIL
  6
CONTINUOUS
 62
     5
 10
23.400000000000091
 20
39.600000000000023
 30
0.0
 11
30.60000000000014
 21
39.600000000000023
 31
0.0
  0
LINE
  8
DETAIL
  6
CONTINUOUS
 62
     5
 10
30.60000000000014
 20
32.400000000000091
 30
0.0
 11
30.60000000000014
 21
39.600000000000023
 31
0.0
  0
LINE
  8
DETAIL
  6
CONTINUOUS
 62
     5
 10
23.400000000000091
 20
32.400000000000091
 30
0.0
 11
23.400000000000091
 21
39.600000000000023
 31
0.0
  0
LINE
  8
DETAIL
  6
CONTINUOUS
 62
     5
 10
23.400000000000091
 20
32.400000000000091
 30
0.0
 11
30.60000000000014
 21
32.400000000000091
 31
0.0
  0
LINE
  8
DETAIL
  6
CONTINUOUS
 62
     5
 10
14.400000000000089
 20
39.600000000000023
 30
0.0
 11
21.60000000000014
 21
39.600000000000023
 31
0.0
  0
LINE
  8
DETAIL
  6
CONTINUOUS
 62
     5
 10
21.60000000000014
 20
32.400000000000091
 30
0.0
 11
21.60000000000014
 21
39.600000000000023
 31
0.0
  0
LINE
  8
DETAIL
  6
CONTINUOUS
 62
     5
 10
14.400000000000089
 20
32.400000000000091
 30
0.0
 11
14.400000000000089
 21
39.600000000000023
 31
0.0
  0
LINE
  8
DETAIL
  6
CONTINUOUS
 62
     5
 10
14.400000000000089
 20
32.400000000000091
 30
0.0
 11
21.60000000000014
 21
32.400000000000091
 31
0.0
  0
LINE
  8
DETAIL
  6
CONTINUOUS
 62
     5
 10
5.4000000000000909
 20
39.600000000000023
 30
0.0
 11
12.60000000000014
 21
39.600000000000023
 31
0.0
  0
LINE
  8
DETAIL
  6
CONTINUOUS
 62
     5
 10
12.60000000000014
 20
32.400000000000091
 30
0.0
 11
12.60000000000014
 21
39.600000000000023
 31
0.0
  0
LINE
  8
DETAIL
  6
CONTINUOUS
 62
     5
 10
5.4000000000000909
 20
32.400000000000091
 30
0.0
 11
5.4000000000000909
 21
39.600000000000023
 31
0.0
  0
LINE
  8
DETAIL
  6
CONTINUOUS
 62
     5
 10
5.4000000000000909
 20
32.400000000000091
 30
0.0
 11
12.60000000000014
 21
32.400000000000091
 31
0.0
  0
LINE
  8
DETAIL
  6
CONTINUOUS
 62
     5
 10
32.400000000000091
 20
48.600000000000023
 30
0.0
 11
39.600000000000144
 21
48.600000000000023
 31
0.0
  0
LINE
  8
DETAIL
  6
CONTINUOUS
 62
     5
 10
39.600000000000144
 20
41.399999999999977
 30
0.0
 11
39.600000000000144
 21
48.600000000000023
 31
0.0
  0
LINE
  8
DETAIL
  6
CONTINUOUS
 62
     5
 10
32.400000000000091
 20
41.399999999999977
 30
0.0
 11
32.400000000000091
 21
48.600000000000023
 31
0.0
  0
LINE
  8
DETAIL
  6
CONTINUOUS
 62
     5
 10
32.400000000000091
 20
41.399999999999977
 30
0.0
 11
39.600000000000144
 21
41.399999999999977
 31
0.0
  0
LINE
  8
DETAIL
  6
CONTINUOUS
 62
     5
 10
23.400000000000091
 20
48.600000000000023
 30
0.0
 11
30.60000000000014
 21
48.600000000000023
 31
0.0
  0
LINE
  8
DETAIL
  6
CONTINUOUS
 62
     5
 10
30.60000000000014
 20
41.399999999999977
 30
0.0
 11
30.60000000000014
 21
48.600000000000023
 31
0.0
  0
LINE
  8
DETAIL
  6
CONTINUOUS
 62
     5
 10
23.400000000000091
 20
41.399999999999977
 30
0.0
 11
23.400000000000091
 21
48.600000000000023
 31
0.0
  0
LINE
  8
DETAIL
  6
CONTINUOUS
 62
     5
 10
23.400000000000091
 20
41.399999999999977
 30
0.0
 11
30.60000000000014
 21
41.399999999999977
 31
0.0
  0
LINE
  8
DETAIL
  6
CONTINUOUS
 62
     5
 10
14.400000000000089
 20
48.600000000000023
 30
0.0
 11
21.60000000000014
 21
48.600000000000023
 31
0.0
  0
LINE
  8
DETAIL
  6
CONTINUOUS
 62
     5
 10
21.60000000000014
 20
41.399999999999977
 30
0.0
 11
21.60000000000014
 21
48.600000000000023
 31
0.0
  0
LINE
  8
DETAIL
  6
CONTINUOUS
 62
     5
 10
14.400000000000089
 20
41.399999999999977
 30
0.0
 11
14.400000000000089
 21
48.600000000000023
 31
0.0
  0
LINE
  8
DETAIL
  6
CONTINUOUS
 62
     5
 10
14.400000000000089
 20
41.399999999999977
 30
0.0
 11
21.60000000000014
 21
41.399999999999977
 31
0.0
  0
LINE
  8
DETAIL
  6
CONTINUOUS
 62
     5
 10
5.4000000000000909
 20
48.600000000000023
 30
0.0
 11
12.60000000000014
 21
48.600000000000023
 31
0.0
  0
LINE
  8
DETAIL
  6
CONTINUOUS
 62
     5
 10
12.60000000000014
 20
41.399999999999977
 30
0.0
 11
12.60000000000014
 21
48.600000000000023
 31
0.0
  0
LINE
  8
DETAIL
  6
CONTINUOUS
 62
     5
 10
5.4000000000000909
 20
41.399999999999977
 30
0.0
 11
5.4000000000000909
 21
48.600000000000023
 31
0.0
  0
LINE
  8
DETAIL
  6
CONTINUOUS
 62
     5
 10
5.4000000000000909
 20
41.399999999999977
 30
0.0
 11
12.60000000000014
 21
41.399999999999977
 31
0.0
  0
LINE
  8
DETAIL
  6
CONTINUOUS
 62
     5
 10
23.400000000000091
 20
57.600000000000023
 30
0.0
 11
30.60000000000014
 21
57.600000000000023
 31
0.0
  0
LINE
  8
DETAIL
  6
CONTINUOUS
 62
     5
 10
23.400000000000091
 20
50.399999999999977
 30
0.0
 11
23.400000000000091
 21
57.600000000000023
 31
0.0
  0
LINE
  8
DETAIL
  6
CONTINUOUS
 62
     5
 10
23.400000000000091
 20
50.399999999999977
 30
0.0
 11
30.60000000000014
 21
50.399999999999977
 31
0.0
  0
LINE
  8
DETAIL
  6
CONTINUOUS
 62
     5
 10
23.400000000000091
 20
50.399999999999977
 30
0.0
 11
30.60000000000014
 21
50.399999999999977
 31
0.0
  0
LINE
  8
DETAIL
  6
CONTINUOUS
 62
     5
 10
23.400000000000091
 20
57.600000000000023
 30
0.0
 11
23.400000000000091
 21
50.399999999999977
 31
0.0
  0
LINE
  8
DETAIL
  6
CONTINUOUS
 62
     5
 10
30.60000000000014
 20
50.399999999999977
 30
0.0
 11
30.60000000000014
 21
57.600000000000023
 31
0.0
  0
LINE
  8
DETAIL
  6
CONTINUOUS
 62
     5
 10
14.400000000000089
 20
57.600000000000023
 30
0.0
 11
21.60000000000014
 21
57.600000000000023
 31
0.0
  0
LINE
  8
DETAIL
  6
CONTINUOUS
 62
     5
 10
14.400000000000089
 20
50.399999999999977
 30
0.0
 11
14.400000000000089
 21
57.600000000000023
 31
0.0
  0
LINE
  8
DETAIL
  6
CONTINUOUS
 62
     5
 10
14.400000000000089
 20
50.399999999999977
 30
0.0
 11
21.60000000000014
 21
50.399999999999977
 31
0.0
  0
LINE
  8
DETAIL
  6
CONTINUOUS
 62
     5
 10
14.400000000000089
 20
50.399999999999977
 30
0.0
 11
21.60000000000014
 21
50.399999999999977
 31
0.0
  0
LINE
  8
DETAIL
  6
CONTINUOUS
 62
     5
 10
14.400000000000089
 20
57.600000000000023
 30
0.0
 11
14.400000000000089
 21
50.399999999999977
 31
0.0
  0
LINE
  8
DETAIL
  6
CONTINUOUS
 62
     5
 10
21.60000000000014
 20
50.399999999999977
 30
0.0
 11
21.60000000000014
 21
57.600000000000023
 31
0.0
  0
LINE
  8
DETAIL
  6
CONTINUOUS
 62
     5
 10
5.4000000000000909
 20
57.600000000000023
 30
0.0
 11
12.60000000000014
 21
57.600000000000023
 31
0.0
  0
LINE
  8
DETAIL
  6
CONTINUOUS
 62
     5
 10
5.4000000000000909
 20
50.399999999999977
 30
0.0
 11
5.4000000000000909
 21
57.600000000000023
 31
0.0
  0
LINE
  8
DETAIL
  6
CONTINUOUS
 62
     5
 10
5.4000000000000909
 20
50.399999999999977
 30
0.0
 11
12.60000000000014
 21
50.399999999999977
 31
0.0
  0
LINE
  8
DETAIL
  6
CONTINUOUS
 62
     5
 10
5.4000000000000909
 20
50.399999999999977
 30
0.0
 11
12.60000000000014
 21
50.399999999999977
 31
0.0
  0
LINE
  8
DETAIL
  6
CONTINUOUS
 62
     5
 10
5.4000000000000909
 20
57.600000000000023
 30
0.0
 11
5.4000000000000909
 21
50.399999999999977
 31
0.0
  0
LINE
  8
DETAIL
  6
CONTINUOUS
 62
     5
 10
12.60000000000014
 20
50.399999999999977
 30
0.0
 11
12.60000000000014
 21
57.600000000000023
 31
0.0
  0
LINE
  8
DETAIL
  6
CONTINUOUS
 62
     5
 10
14.400000000000089
 20
66.600000000000023
 30
0.0
 11
21.60000000000014
 21
66.600000000000023
 31
0.0
  0
LINE
  8
DETAIL
  6
CONTINUOUS
 62
     5
 10
21.60000000000014
 20
59.399999999999977
 30
0.0
 11
21.60000000000014
 21
66.600000000000023
 31
0.0
  0
LINE
  8
DETAIL
  6
CONTINUOUS
 62
     5
 10
14.400000000000089
 20
59.399999999999977
 30
0.0
 11
14.400000000000089
 21
66.600000000000023
 31
0.0
  0
LINE
  8
DETAIL
  6
CONTINUOUS
 62
     5
 10
14.400000000000089
 20
59.399999999999977
 30
0.0
 11
21.60000000000014
 21
59.399999999999977
 31
0.0
  0
LINE
  8
DETAIL
  6
CONTINUOUS
 62
     5
 10
5.4000000000000909
 20
66.600000000000023
 30
0.0
 11
12.60000000000014
 21
66.600000000000023
 31
0.0
  0
LINE
  8
DETAIL
  6
CONTINUOUS
 62
     5
 10
12.60000000000014
 20
59.399999999999977
 30
0.0
 11
12.60000000000014
 21
66.600000000000023
 31
0.0
  0
LINE
  8
DETAIL
  6
CONTINUOUS
 62
     5
 10
5.4000000000000909
 20
59.399999999999977
 30
0.0
 11
5.4000000000000909
 21
66.600000000000023
 31
0.0
  0
LINE
  8
DETAIL
  6
CONTINUOUS
 62
     5
 10
5.4000000000000909
 20
59.399999999999977
 30
0.0
 11
12.60000000000014
 21
59.399999999999977
 31
0.0
  0
LINE
  8
DETAIL
  6
CONTINUOUS
 62
     5
 10
12.60000000000014
 20
68.400000000000091
 30
0.0
 11
12.60000000000014
 21
75.600000000000023
 31
0.0
  0
LINE
  8
DETAIL
  6
CONTINUOUS
 62
     5
 10
5.4000000000000909
 20
68.400000000000091
 30
0.0
 11
5.4000000000000909
 21
75.600000000000023
 31
0.0
  0
LINE
  8
DETAIL
  6
CONTINUOUS
 62
     5
 10
5.4000000000000909
 20
68.400000000000091
 30
0.0
 11
12.60000000000014
 21
68.400000000000091
 31
0.0
  0
LINE
  8
DETAIL
  6
CONTINUOUS
 62
     5
 10
5.4000000000000909
 20
68.400000000000091
 30
0.0
 11
12.60000000000014
 21
68.400000000000091
 31
0.0
  0
LINE
  8
DETAIL
  6
CONTINUOUS
 62
     5
 10
5.4000000000000909
 20
75.600000000000023
 30
0.0
 11
5.4000000000000909
 21
68.400000000000091
 31
0.0
  0
LINE
  8
DETAIL
  6
CONTINUOUS
 62
     5
 10
5.4000000000000909
 20
75.600000000000023
 30
0.0
 11
12.60000000000014
 21
75.600000000000023
 31
0.0
  0
LINE
  8
DETAIL
  6
CONTINUOUS
 62
     5
 10
3.600000000000136
 20
77.400000000000091
 30
0.0
 11
3.600000000000136
 21
84.600000000000023
 31
0.0
  0
LINE
  8
DETAIL
  6
CONTINUOUS
 62
     5
 10
3.600000000000136
 20
68.400000000000091
 30
0.0
 11
3.600000000000136
 21
75.600000000000023
 31
0.0
  0
LINE
  8
DETAIL
  6
CONTINUOUS
 62
     5
 10
3.600000000000136
 20
59.399999999999977
 30
0.0
 11
3.600000000000136
 21
66.600000000000023
 31
0.0
  0
LINE
  8
DETAIL
  6
CONTINUOUS
 62
     5
 10
3.600000000000136
 20
50.399999999999977
 30
0.0
 11
3.600000000000136
 21
57.600000000000023
 31
0.0
  0
LINE
  8
DETAIL
  6
CONTINUOUS
 62
     5
 10
3.600000000000136
 20
41.399999999999977
 30
0.0
 11
3.600000000000136
 21
48.600000000000023
 31
0.0
  0
LINE
  8
DETAIL
  6
CONTINUOUS
 62
     5
 10
3.600000000000136
 20
32.400000000000091
 30
0.0
 11
3.600000000000136
 21
39.600000000000023
 31
0.0
  0
LINE
  8
DETAIL
  6
CONTINUOUS
 62
     5
 10
30.60000000000014
 20
30.600000000000019
 30
0.0
 11
30.60000000000014
 21
-30.600000000000019
 31
0.0
  0
LINE
  8
DETAIL
  6
CONTINUOUS
 62
     5
 10
-30.599999999999909
 20
30.600000000000019
 30
0.0
 11
30.60000000000014
 21
30.600000000000019
 31
0.0
  0
LINE
  8
DETAIL
  6
CONTINUOUS
 62
     5
 10
-30.599999999999909
 20
30.600000000000019
 30
0.0
 11
-30.599999999999909
 21
-30.600000000000019
 31
0.0
  0
LINE
  8
DETAIL
  6
CONTINUOUS
 62
     5
 10
-30.599999999999909
 20
-30.600000000000019
 30
0.0
 11
30.60000000000014
 21
-30.600000000000019
 31
0.0
  0
ENDSEC
  0
EOF
