  0
SECTION
  2
HEADER
  9
$ACADVER
  1
AC1009
  9
$DWGCODEPAGE
  3
dos932
  9
$INSBASE
 10
0.0
 20
0.0
 30
0.0
  9
$EXTMIN
 10
-657.57292048955969
 20
-421.69188279855553
 30
-0.0015258207003583
  9
$EXTMAX
 10
1425.7232786339259
 20
690.21607259080702
 30
0.0000000349246037
  9
$LIMMIN
 10
-2970.0
 20
-2100.0
  9
$LIMMAX
 10
2970.0
 20
2100.0
  9
$ORTHOMODE
 70
     1
  9
$REGENMODE
 70
     1
  9
$FILLMODE
 70
     1
  9
$QTEXTMODE
 70
     0
  9
$MIRRTEXT
 70
     0
  9
$LTSCALE
 40
20.0
  9
$ATTMODE
 70
     1
  9
$TEXTSIZE
 40
64.0
  9
$TRACEWID
 40
0.05
  9
$TEXTSTYLE
  7
STANDARD
  9
$CLAYER
  8
SIZE
  9
$CELTYPE
  6
CONTINUOUS
  9
$CECOLOR
 62
     7
  9
$DIMSCALE
 40
1.0
  9
$DIMASZ
 40
12.0
  9
$DIMEXO
 40
20.0
  9
$DIMDLI
 40
200.0
  9
$DIMRND
 40
0.0
  9
$DIMDLE
 40
0.0
  9
$DIMEXE
 40
20.0
  9
$DIMTP
 40
0.0
  9
$DIMTM
 40
0.0
  9
$DIMTXT
 40
64.0
  9
$DIMCEN
 40
0.09
  9
$DIMTSZ
 40
0.0
  9
$DIMTOL
 70
     0
  9
$DIMLIM
 70
     0
  9
$DIMTIH
 70
     0
  9
$DIMTOH
 70
     0
  9
$DIMSE1
 70
     0
  9
$DIMSE2
 70
     0
  9
$DIMTAD
 70
     1
  9
$DIMZIN
 70
     8
  9
$DIMBLK
  1

  9
$DIMASO
 70
     1
  9
$DIMSHO
 70
     0
  9
$DIMPOST
  1

  9
$DIMAPOST
  1

  9
$DIMALT
 70
     0
  9
$DIMALTD
 70
     2
  9
$DIMALTF
 40
25.399999999999999
  9
$DIMLFAC
 40
1.0
  9
$DIMTOFL
 70
     1
  9
$DIMTVP
 40
0.0
  9
$DIMTIX
 70
     1
  9
$DIMSOXD
 70
     0
  9
$DIMSAH
 70
     0
  9
$DIMBLK1
  1

  9
$DIMBLK2
  1

  9
$DIMSTYLE
  2
STANDARD
  9
$DIMCLRD
 70
     7
  9
$DIMCLRE
 70
     7
  9
$DIMCLRT
 70
     7
  9
$DIMTFAC
 40
1.0
  9
$DIMGAP
 40
25.0
  9
$LUNITS
 70
     2
  9
$LUPREC
 70
     4
  9
$SKETCHINC
 40
0.1
  9
$FILLETRAD
 40
3.0
  9
$AUNITS
 70
     1
  9
$AUPREC
 70
     3
  9
$MENU
  1
ACAD
  9
$ELEVATION
 40
0.0
  9
$PELEVATION
 40
0.0
  9
$THICKNESS
 40
0.0
  9
$LIMCHECK
 70
     0
  9
$CHAMFERA
 40
0.0
  9
$CHAMFERB
 40
0.0
  9
$SKPOLY
 70
     0
  9
$TDCREATE
 40
2453019.62301037
  9
$TDUPDATE
 40
2459025.493415012
  9
$TDINDWG
 40
1.7137312616
  9
$TDUSRTIMER
 40
1.7137312616
  9
$USRTIMER
 70
     1
  9
$ANGBASE
 50
0.0
  9
$ANGDIR
 70
     0
  9
$PDMODE
 70
     3
  9
$PDSIZE
 40
-2.0
  9
$PLINEWID
 40
0.0
  9
$SPLFRAME
 70
     0
  9
$SPLINETYPE
 70
     6
  9
$SPLINESEGS
 70
     8
  9
$SURFTAB1
 70
     6
  9
$SURFTAB2
 70
     6
  9
$SURFTYPE
 70
     6
  9
$SURFU
 70
     6
  9
$SURFV
 70
     6
  9
$UCSNAME
  2

  9
$UCSORG
 10
0.0
 20
0.0
 30
0.0
  9
$UCSXDIR
 10
1.0
 20
0.0
 30
0.0
  9
$UCSYDIR
 10
0.0
 20
1.0
 30
0.0
  9
$PUCSNAME
  2

  9
$PUCSORG
 10
0.0
 20
0.0
 30
0.0
  9
$PUCSXDIR
 10
1.0
 20
0.0
 30
0.0
  9
$PUCSYDIR
 10
0.0
 20
1.0
 30
0.0
  9
$USERI1
 70
     0
  9
$USERI2
 70
     0
  9
$USERI3
 70
     0
  9
$USERI4
 70
     0
  9
$USERI5
 70
     0
  9
$USERR1
 40
20.0
  9
$USERR2
 40
0.0
  9
$USERR3
 40
0.0
  9
$USERR4
 40
0.0
  9
$USERR5
 40
0.0
  9
$WORLDVIEW
 70
     1
  9
$SHADEDGE
 70
     3
  9
$SHADEDIF
 70
    70
  9
$TILEMODE
 70
     1
  9
$MAXACTVP
 70
    48
  9
$PINSBASE
 10
0.0
 20
0.0
 30
0.0
  9
$PLIMCHECK
 70
     0
  9
$PEXTMIN
 10
-100000000000000000000.0
 20
-100000000000000000000.0
 30
-100000000000000000000.0
  9
$PEXTMAX
 10
100000000000000000000.0
 20
100000000000000000000.0
 30
100000000000000000000.0
  9
$PLIMMIN
 10
0.0
 20
0.0
  9
$PLIMMAX
 10
12.0
 20
9.0
  9
$UNITMODE
 70
     0
  9
$VISRETAIN
 70
     0
  9
$PLINEGEN
 70
     0
  9
$PSLTSCALE
 70
     0
  9
$TREEDEPTH
 70
  3020
  9
$ATTDIA
 70
     0
  9
$ATTREQ
 70
     1
  9
$BLIPMODE
 70
     1
  9
$COORDS
 70
     1
  9
$DRAGMODE
 70
     2
  9
$OSMODE
 70
     0
  9
$HANDLING
 70
     0
  9
$HANDSEED
  5
FC50
  0
ENDSEC
  0
SECTION
  2
TABLES
  0
TABLE
  2
LTYPE
 70
     3
  0
LTYPE
  2
CONTINUOUS
 70
     0
  3
実線
 72
    65
 73
     0
 40
0.0
  0
LTYPE
  2
DASHDOT
 70
     0
  3
____ _ ____ _ ____ _ ____ _ ____ _ ____ _ ____
 72
    65
 73
     4
 40
5.5
 49
4.0
 49
-0.6
 49
0.3
 49
-0.6
  0
LTYPE
  2
CENTER
 70
     0
  3
Center ____ _ ____ _ ____ _ ____ _ ____ _ ____
 72
    65
 73
     4
 40
1.0
 49
0.5
 49
-0.25
 49
0.0
 49
-0.25
  0
ENDTAB
  0
TABLE
  2
LAYER
 70
    12
  0
LAYER
  2
0
 70
     0
 62
     7
  6
CONTINUOUS
  0
LAYER
  2
BASIS
 70
     0
 62
     6
  6
DASHDOT
  0
LAYER
  2
OUTLINE
 70
     0
 62
     3
  6
CONTINUOUS
  0
LAYER
  2
DETAIL
 70
     0
 62
     5
  6
CONTINUOUS
  0
LAYER
  2
SIZE
 70
     0
 62
    30
  6
CONTINUOUS
  0
LAYER
  2
ARRANGE
 70
     0
 62
     1
  6
CONTINUOUS
  0
LAYER
  2
DEFPOINTS
 70
     0
 62
     7
  6
CONTINUOUS
  0
LAYER
  2
ETC
 70
     0
 62
    61
  6
CONTINUOUS
  0
LAYER
  2
FIX
 70
     0
 62
    11
  6
CONTINUOUS
  0
LAYER
  2
NOTE
 70
     0
 62
     4
  6
CONTINUOUS
  0
LAYER
  2
SERVICESPACE
 70
    64
 62
     2
  6
DASHDOT
  0
LAYER
  2
SYMBOLLINE
 70
    64
 62
    15
  6
CONTINUOUS
  0
ENDTAB
  0
TABLE
  2
STYLE
 70
     1
  0
STYLE
  2
STANDARD
 70
     0
 40
64.0
 41
0.9
 50
0.0
 71
     0
 42
64.0
  3
SIMPLEX.shx
  4
BIGFONT.shx
  0
ENDTAB
  0
TABLE
  2
APPID
 70
    19
  0
APPID
  2
ACAD
 70
     0
  0
APPID
  2
AUTOCAD_POSTSCRIPT_FIGURE
 70
     0
  0
APPID
  2
ACAD_EXEMPT_FROM_CAD_STANDARDS
 70
     0
  0
APPID
  2
ACAD_PSEXT
 70
     0
  0
APPID
  2
ACAUTHENVIRON
 70
     0
  0
APPID
  2
GENIUS_GENOENT_13
 70
     0
  0
APPID
  2
GENIUS_GENCFG_13
 70
     0
  0
APPID
  2
GENIUS_GENCFG0_13
 70
     0
  0
APPID
  2
GENIUS_GENCFG1_13
 70
     0
  0
APPID
  2
GENIUS_GENCFG2_13
 70
     0
  0
APPID
  2
GENIUS_GENCFG3_13
 70
     0
  0
APPID
  2
GENIUS_GENCFG4_13
 70
     0
  0
APPID
  2
GENIUS_GEVCFG0_13
 70
     0
  0
APPID
  2
CONTENTBLOCKICON
 70
     0
  0
APPID
  2
CONTENTBLOCKDESCRIPTION
 70
     0
  0
APPID
  2
ACAD_NAV_VCDISPLAY
 70
     0
  0
APPID
  2
ACAD_MLEADERVER
 70
     0
  0
APPID
  2
ACDBDYNAMICBLOCKTRUENAME
 70
     0
  0
APPID
  2
ACDBDYNAMICBLOCKGUID
 70
     0
  0
ENDTAB
  0
TABLE
  2
DIMSTYLE
 70
     1
  0
DIMSTYLE
  2
STANDARD
 70
     0
  3

  4

  5
_ORIGIN
  6

  7

 40
1.0
 41
12.0
 42
20.0
 43
200.0
 44
20.0
 45
0.0
 46
0.0
 47
0.0
 48
0.0
140
64.0
141
0.09
142
0.0
143
25.399999999999999
144
1.0
145
0.0
146
1.0
147
25.0
 71
     0
 72
     0
 73
     0
 74
     0
 75
     0
 76
     0
 77
     1
 78
     8
170
     0
171
     2
172
     1
173
     0
174
     1
175
     0
176
     7
177
     7
178
     7
  0
ENDTAB
  0
TABLE
  2
VIEW
 70
     1
  0
VIEW
  2
ALL
 70
     0
 40
4282.6198079999986
 10
0.0
 20
41.309904000000003
 41
5940.0
 11
0.0
 21
0.0
 31
1.0
 12
0.0
 22
0.0
 32
0.0
 42
50.0
 43
0.0
 44
0.0
 50
0.0
 71
     0
  0
ENDTAB
  0
TABLE
  2
UCS
 70
     0
  0
ENDTAB
  0
TABLE
  2
VPORT
 70
     1
  0
VPORT
  2
*ACTIVE
 70
     0
 10
0.0
 20
0.0
 11
1.0
 21
1.0
 12
384.07517907218352
 22
134.26209489612569
 13
0.0
 23
0.0
 14
1.0
 24
1.0
 15
0.0
 25
0.0
 16
0.0
 26
0.0
 36
1.0
 17
0.0
 27
0.0
 37
0.0
 40
1196.4833118694189
 41
1.747787610619469
 42
50.0
 43
0.0
 44
0.0
 50
0.0
 51
0.0
 71
     0
 72
  1000
 73
     1
 74
     3
 75
     0
 76
     0
 77
     0
 78
     0
  0
ENDTAB
  0
ENDSEC
  0
SECTION
  2
BLOCKS
  0
BLOCK
  8
0
  2
_ORIGIN
 70
     0
 10
0.0
 20
0.0
 30
0.0
  3
_ORIGIN
  1
_ORIGIN
  0
CIRCLE
  8
0
  6
CONTINUOUS
 62
     7
 10
0.0
 20
0.0
 30
0.0
 40
0.5
  0
LINE
  8
0
  6
CONTINUOUS
 62
     7
 10
0.0
 20
0.0
 30
0.0
 11
-1.0
 21
0.0
 31
0.0
  0
ENDBLK
  8
0
  0
ENDSEC
  0
SECTION
  2
ENTITIES
  0
TEXT
  8
ETC
  6
CONTINUOUS
 62
    61
 10
630.11791103867881
 20
626.1201180033554
 30
0.0
 40
64.0
  1
VD-13ZC13-HW_5
 41
0.9
  0
TEXT
  8
ETC
  6
CONTINUOUS
 62
    61
 10
625.93191703867842
 20
508.16480798852422
 30
0.0
 40
64.0
  1
換気扇
 41
0.9
  0
TEXT
  8
ETC
  6
CONTINUOUS
 62
    61
 10
676.63331528723438
 20
400.01603510229887
 30
0.0
 40
40.0
  1
VD-13ZC13-HW
 41
0.9
  0
TEXT
  8
NOTE
  6
CONTINUOUS
 62
     4
 10
228.30877196576279
 20
72.999698692489915
 30
0.0
 40
64.0
  1
EA
 41
0.9
 72
     2
 11
324.30877196576279
 21
72.999698692489915
 31
0.0
  0
CIRCLE
  8
ARRANGE
  6
CONTINUOUS
 62
     1
 10
0.0
 20
0.0
 30
0.0
 40
40.0
  0
POINT
  8
ARRANGE
  6
CONTINUOUS
 62
     1
 10
0.0
 20
0.0
 30
0.0
 50
90.000000000000014
  0
LINE
  8
BASIS
  6
DASHDOT
 62
     6
 10
0.0
 20
205.503829
 30
0.0
 11
0.0
 21
-31.987550999999939
 31
0.0
  0
LINE
  8
NOTE
  6
CENTER
 62
     4
 10
56.0
 20
159.418756
 30
0.0
 11
56.0
 21
139.137597
 31
0.0
  0
CIRCLE
  8
FIX
  6
CONTINUOUS
 62
    11
 10
-140.0
 20
0.0
 30
0.0
 40
10.0
  0
CIRCLE
  8
FIX
  6
CONTINUOUS
 62
    11
 10
-65.0
 20
0.0
 30
0.0
 40
10.0
  0
CIRCLE
  8
FIX
  6
CONTINUOUS
 62
    11
 10
65.0
 20
0.307094923854379
 30
0.0
 40
10.0
  0
CIRCLE
  8
FIX
  6
CONTINUOUS
 62
    11
 10
140.0
 20
0.0
 30
0.0
 40
10.0
  0
LINE
  8
NOTE
  6
CONTINUOUS
 62
     4
 10
-140.0
 20
0.1921634999999924
 30
0.0
 11
-375.28356798458663
 21
265.00379997897869
 31
0.0
  0
LINE
  8
NOTE
  6
CONTINUOUS
 62
     4
 10
-140.0
 20
0.1921634999999924
 30
0.0
 11
-171.31274534757901
 21
22.87558591888342
 31
0.0
  0
LINE
  8
NOTE
  6
CONTINUOUS
 62
     4
 10
-158.99527469402349
 20
35.391459833761132
 30
0.0
 11
-140.0
 21
0.1921634999999924
 31
0.0
  0
TEXT
  8
NOTE
  6
CONTINUOUS
 62
     4
 10
-255.79651680870921
 20
409.65681002195402
 30
0.0
 40
64.0
  1
EL
 41
0.9
  0
LINE
  8
NOTE
  6
CONTINUOUS
 62
     4
 10
-310.4019640519025
 20
378.87659210062179
 30
0.0
 11
-141.87747252548371
 21
378.87659210057927
 31
0.0
  0
LINE
  8
NOTE
  6
CONTINUOUS
 62
     4
 10
56.0
 20
162.2781765
 30
0.0
 11
-141.87747252548371
 21
378.87659210057927
 31
0.0
  0
LINE
  8
NOTE
  6
CONTINUOUS
 62
     4
 10
56.0
 20
162.2781765
 30
0.0
 11
22.538683123113511
 21
182.63975493535941
 31
0.0
  0
LINE
  8
NOTE
  6
CONTINUOUS
 62
     4
 10
39.570840273867361
 20
194.23959990892129
 30
0.0
 11
56.0
 21
162.2781765
 31
0.0
  0
LINE
  8
SIZE
  6
CONTINUOUS
 62
    30
 10
140.0
 20
-25.417867999999999
 30
0.0
 11
140.0
 21
-307.44785297474749
 31
0.0
  0
LINE
  8
SIZE
  6
CONTINUOUS
 62
    30
 10
-140.0
 20
-25.417867999999999
 30
0.0
 11
-140.0
 21
-307.44785297474749
 31
0.0
  0
LINE
  8
SIZE
  6
CONTINUOUS
 62
    30
 10
128.0
 20
-287.44785297474749
 30
0.0
 11
-128.0
 21
-287.44785297474749
 31
0.0
  0
CIRCLE
  8
SIZE
  6
CONTINUOUS
 62
    30
 10
140.0
 20
-287.44785297474749
 30
0.0
 40
6.0
  0
LINE
  8
SIZE
  6
CONTINUOUS
 62
    30
 10
140.0
 20
-287.44785297474749
 30
0.0
 11
128.0
 21
-287.44785297474749
 31
0.0
  0
CIRCLE
  8
SIZE
  6
CONTINUOUS
 62
    30
 10
-140.0
 20
-287.44785297474749
 30
0.0
 40
6.0
  0
LINE
  8
SIZE
  6
CONTINUOUS
 62
    30
 10
-140.0
 20
-287.44785297474749
 30
0.0
 11
-128.0
 21
-287.44785297474749
 31
0.0
  0
TEXT
  8
SIZE
  6
CONTINUOUS
 62
    30
 10
-74.057142857142836
 20
-262.44785297474749
 30
0.0
 40
64.0
  1
280
 41
0.9
 72
     1
 11
0.0
 21
-262.44785297474749
 31
0.0
  0
POINT
  8
DEFPOINTS
  6
CONTINUOUS
 62
    30
 10
140.0
 20
-5.4178679999999986
 30
0.0
  0
POINT
  8
DEFPOINTS
  6
CONTINUOUS
 62
    30
 10
-140.0
 20
-5.4178679999999986
 30
0.0
  0
POINT
  8
DEFPOINTS
  6
CONTINUOUS
 62
    30
 10
-140.0
 20
-287.44785297474749
 30
0.0
  0
LINE
  8
SIZE
  6
CONTINUOUS
 62
    30
 10
100.467832
 20
35.0
 30
0.0
 11
100.467832
 21
482.28937749149452
 31
0.0
  0
LINE
  8
SIZE
  6
CONTINUOUS
 62
    30
 10
-98.715088999999807
 20
35.0
 30
0.0
 11
-98.715088999999807
 21
482.28937749149452
 31
0.0
  0
LINE
  8
SIZE
  6
CONTINUOUS
 62
    30
 10
112.467832
 20
462.28937749149452
 30
0.0
 11
124.467832
 21
462.28937749149452
 31
0.0
  0
LINE
  8
SIZE
  6
CONTINUOUS
 62
    30
 10
-110.71508899999979
 20
462.28937749149452
 30
0.0
 11
-122.71508899999979
 21
462.28937749149452
 31
0.0
  0
LINE
  8
SIZE
  6
CONTINUOUS
 62
    30
 10
100.467832
 20
462.28937749149452
 30
0.0
 11
-98.715088999999807
 21
462.28937749149452
 31
0.0
  0
CIRCLE
  8
SIZE
  6
CONTINUOUS
 62
    30
 10
100.467832
 20
462.28937749149452
 30
0.0
 40
6.0
  0
LINE
  8
SIZE
  6
CONTINUOUS
 62
    30
 10
100.467832
 20
462.28937749149452
 30
0.0
 11
112.467832
 21
462.28937749149452
 31
0.0
  0
CIRCLE
  8
SIZE
  6
CONTINUOUS
 62
    30
 10
-98.715088999999807
 20
462.28937749149452
 30
0.0
 40
6.0
  0
LINE
  8
SIZE
  6
CONTINUOUS
 62
    30
 10
-98.715088999999807
 20
462.28937749149452
 30
0.0
 11
-110.71508899999979
 21
462.28937749149452
 31
0.0
  0
TEXT
  8
SIZE
  6
CONTINUOUS
 62
    30
 10
-104.1750570714285
 20
487.28937749149452
 30
0.0
 40
64.0
  1
□198
 41
0.9
 72
     1
 11
0.8763715000001184
 21
487.28937749149452
 31
0.0
  0
POINT
  8
DEFPOINTS
  6
CONTINUOUS
 62
    30
 10
100.467832
 20
15.0
 30
0.0
  0
POINT
  8
DEFPOINTS
  6
CONTINUOUS
 62
    30
 10
-98.715088999999807
 20
15.0
 30
0.0
  0
POINT
  8
DEFPOINTS
  6
CONTINUOUS
 62
    30
 10
-98.715088999999807
 20
462.28937749149452
 30
0.0
  0
LINE
  8
SIZE
  6
CONTINUOUS
 62
    30
 10
100.467832
 20
35.0
 30
0.0
 11
100.467832
 21
482.28937749149452
 31
0.0
  0
LINE
  8
SIZE
  6
CONTINUOUS
 62
    30
 10
209.49382800000009
 20
171.0
 30
0.0
 11
209.49382800000009
 21
482.28937749149452
 31
0.0
  0
LINE
  8
SIZE
  6
CONTINUOUS
 62
    30
 10
112.467832
 20
462.28937749149452
 30
0.0
 11
197.49382800000009
 21
462.28937749149452
 31
0.0
  0
LINE
  8
SIZE
  6
CONTINUOUS
 62
    30
 10
209.49382800000009
 20
462.28937749149452
 30
0.0
 11
405.89382800000021
 21
462.28937749149452
 31
0.0
  0
CIRCLE
  8
SIZE
  6
CONTINUOUS
 62
    30
 10
100.467832
 20
462.28937749149452
 30
0.0
 40
6.0
  0
LINE
  8
SIZE
  6
CONTINUOUS
 62
    30
 10
100.467832
 20
462.28937749149452
 30
0.0
 11
112.467832
 21
462.28937749149452
 31
0.0
  0
CIRCLE
  8
SIZE
  6
CONTINUOUS
 62
    30
 10
209.49382800000009
 20
462.28937749149452
 30
0.0
 40
6.0
  0
LINE
  8
SIZE
  6
CONTINUOUS
 62
    30
 10
209.49382800000009
 20
462.28937749149452
 30
0.0
 11
197.49382800000009
 21
462.28937749149452
 31
0.0
  0
TEXT
  8
SIZE
  6
CONTINUOUS
 62
    30
 10
246.49382800000029
 20
487.28937749149452
 30
0.0
 40
64.0
  1
109
 41
0.9
 72
     1
 11
313.69382800000028
 21
487.28937749149452
 31
0.0
  0
POINT
  8
DEFPOINTS
  6
CONTINUOUS
 62
    30
 10
100.467832
 20
15.0
 30
0.0
  0
POINT
  8
DEFPOINTS
  6
CONTINUOUS
 62
    30
 10
209.49382800000009
 20
151.0
 30
0.0
  0
POINT
  8
DEFPOINTS
  6
CONTINUOUS
 62
    30
 10
209.49382800000009
 20
462.28937749149452
 30
0.0
  0
LINE
  8
SIZE
  6
CONTINUOUS
 62
    30
 10
209.49382800000009
 20
184.0
 30
0.0
 11
209.49382800000009
 21
271.947680664426
 31
0.0
  0
LINE
  8
SIZE
  6
CONTINUOUS
 62
    30
 10
179.55605007672651
 20
184.4101870566592
 30
0.0
 11
179.55605007672651
 21
271.947680664426
 31
0.0
  0
LINE
  8
SIZE
  6
CONTINUOUS
 62
    30
 10
167.55605007672651
 20
251.947680664426
 30
0.0
 11
155.55605007672651
 21
251.947680664426
 31
0.0
  0
LINE
  8
SIZE
  6
CONTINUOUS
 62
    30
 10
221.49382800000009
 20
251.947680664426
 30
0.0
 11
376.75097085714287
 21
251.947680664426
 31
0.0
  0
LINE
  8
SIZE
  6
CONTINUOUS
 62
    30
 10
179.55605007672651
 20
251.947680664426
 30
0.0
 11
209.49382800000009
 21
251.947680664426
 31
0.0
  0
CIRCLE
  8
SIZE
  6
CONTINUOUS
 62
    30
 10
179.55605007672651
 20
251.947680664426
 30
0.0
 40
6.0
  0
LINE
  8
SIZE
  6
CONTINUOUS
 62
    30
 10
179.55605007672651
 20
251.947680664426
 30
0.0
 11
167.55605007672651
 21
251.947680664426
 31
0.0
  0
CIRCLE
  8
SIZE
  6
CONTINUOUS
 62
    30
 10
209.49382800000009
 20
251.947680664426
 30
0.0
 40
6.0
  0
LINE
  8
SIZE
  6
CONTINUOUS
 62
    30
 10
209.49382800000009
 20
251.947680664426
 30
0.0
 11
221.49382800000009
 21
251.947680664426
 31
0.0
  0
TEXT
  8
SIZE
  6
CONTINUOUS
 62
    30
 10
258.49382800000018
 20
276.947680664426
 30
0.0
 40
64.0
  1
30
 41
0.9
 72
     1
 11
305.12239942857161
 21
276.947680664426
 31
0.0
  0
POINT
  8
DEFPOINTS
  6
CONTINUOUS
 62
    30
 10
209.49382800000009
 20
164.0
 30
0.0
  0
POINT
  8
DEFPOINTS
  6
CONTINUOUS
 62
    30
 10
179.55605007672651
 20
164.4101870566592
 30
0.0
  0
POINT
  8
DEFPOINTS
  6
CONTINUOUS
 62
    30
 10
179.55605007672651
 20
251.947680664426
 30
0.0
  0
LINE
  8
SIZE
  6
CONTINUOUS
 62
    30
 10
209.49382800000009
 20
184.0
 30
0.0
 11
209.49382800000009
 21
372.1138243466803
 31
0.0
  0
LINE
  8
SIZE
  6
CONTINUOUS
 62
    30
 10
134.8021470000001
 20
187.99730877586879
 30
0.0
 11
134.8021470000001
 21
372.1138243466803
 31
0.0
  0
LINE
  8
SIZE
  6
CONTINUOUS
 62
    30
 10
146.8021470000001
 20
352.1138243466803
 30
0.0
 11
197.49382800000009
 21
352.1138243466803
 31
0.0
  0
LINE
  8
SIZE
  6
CONTINUOUS
 62
    30
 10
209.49382800000009
 20
352.1138243466803
 30
0.0
 11
364.75097085714287
 21
352.1138243466803
 31
0.0
  0
CIRCLE
  8
SIZE
  6
CONTINUOUS
 62
    30
 10
134.8021470000001
 20
352.1138243466803
 30
0.0
 40
6.0
  0
LINE
  8
SIZE
  6
CONTINUOUS
 62
    30
 10
134.8021470000001
 20
352.1138243466803
 30
0.0
 11
146.8021470000001
 21
352.1138243466803
 31
0.0
  0
CIRCLE
  8
SIZE
  6
CONTINUOUS
 62
    30
 10
209.49382800000009
 20
352.1138243466803
 30
0.0
 40
6.0
  0
LINE
  8
SIZE
  6
CONTINUOUS
 62
    30
 10
209.49382800000009
 20
352.1138243466803
 30
0.0
 11
197.49382800000009
 21
352.1138243466803
 31
0.0
  0
TEXT
  8
SIZE
  6
CONTINUOUS
 62
    30
 10
246.49382800000021
 20
377.1138243466803
 30
0.0
 40
64.0
  1
75
 41
0.9
 72
     1
 11
293.12239942857161
 21
377.1138243466803
 31
0.0
  0
POINT
  8
DEFPOINTS
  6
CONTINUOUS
 62
    30
 10
209.49382800000009
 20
164.0
 30
0.0
  0
POINT
  8
DEFPOINTS
  6
CONTINUOUS
 62
    30
 10
134.8021470000001
 20
167.99730877586879
 30
0.0
  0
POINT
  8
DEFPOINTS
  6
CONTINUOUS
 62
    30
 10
134.8021470000001
 20
352.1138243466803
 30
0.0
  0
LINE
  8
SIZE
  6
CONTINUOUS
 62
    30
 10
119.7237950000001
 20
57.625858000000107
 30
0.0
 11
385.01517520951171
 21
57.625857999999987
 31
0.0
  0
LINE
  8
SIZE
  6
CONTINUOUS
 62
    30
 10
180.0
 20
0.0
 30
0.0
 11
385.01517520951171
 21
-0.0000000000000568
 31
0.0
  0
LINE
  8
SIZE
  6
CONTINUOUS
 62
    30
 10
365.01517520951171
 20
69.625857999999994
 30
0.0
 11
365.01517520951171
 21
81.625857999999994
 31
0.0
  0
LINE
  8
SIZE
  6
CONTINUOUS
 62
    30
 10
365.01517520951171
 20
-12.00000000000006
 30
0.0
 11
365.01517520951171
 21
-167.2571428571429
 31
0.0
  0
LINE
  8
SIZE
  6
CONTINUOUS
 62
    30
 10
365.01517520951171
 20
57.625858000000051
 30
0.0
 11
365.01517520951171
 21
-0.0000000000000568
 31
0.0
  0
CIRCLE
  8
SIZE
  6
CONTINUOUS
 62
    30
 10
365.01517520951171
 20
57.625858000000051
 30
0.0
 40
6.0
  0
LINE
  8
SIZE
  6
CONTINUOUS
 62
    30
 10
365.01517520951171
 20
57.625858000000051
 30
0.0
 11
365.01517520951171
 21
69.625858000000051
 31
0.0
  0
CIRCLE
  8
SIZE
  6
CONTINUOUS
 62
    30
 10
365.01517520951171
 20
-0.0000000000000568
 30
0.0
 40
6.0
  0
LINE
  8
SIZE
  6
CONTINUOUS
 62
    30
 10
365.01517520951171
 20
-0.0000000000000568
 30
0.0
 11
365.01517520951171
 21
-12.00000000000006
 31
0.0
  0
TEXT
  8
SIZE
  6
CONTINUOUS
 62
    30
 10
340.01517520951171
 20
-142.2571428571429
 30
0.0
 40
64.0
  1
58
 50
90.0
 41
0.9
 72
     1
 11
340.01517520951171
 21
-95.628571428571433
 31
0.0
  0
POINT
  8
DEFPOINTS
  6
CONTINUOUS
 62
    30
 10
99.723795000000109
 20
57.625858000000107
 30
0.0
  0
POINT
  8
DEFPOINTS
  6
CONTINUOUS
 62
    30
 10
160.0
 20
0.0
 30
0.0
  0
POINT
  8
DEFPOINTS
  6
CONTINUOUS
 62
    30
 10
365.01517520951171
 20
-0.0000000000000568
 30
0.0
  0
LINE
  8
SIZE
  6
CONTINUOUS
 62
    30
 10
233.82820100000001
 20
115.0
 30
0.0
 11
487.06625145504398
 21
114.9999999999999
 31
0.0
  0
LINE
  8
SIZE
  6
CONTINUOUS
 62
    30
 10
180.0
 20
0.0
 30
0.0
 11
487.06625145504398
 21
-0.0000000000001137
 31
0.0
  0
LINE
  8
SIZE
  6
CONTINUOUS
 62
    30
 10
467.06625145504398
 20
102.9999999999999
 30
0.0
 11
467.06625145504398
 21
11.99999999999989
 31
0.0
  0
LINE
  8
SIZE
  6
CONTINUOUS
 62
    30
 10
467.06625145504398
 20
-0.0000000000001137
 30
0.0
 11
467.06625145504398
 21
-193.6571428571429
 31
0.0
  0
CIRCLE
  8
SIZE
  6
CONTINUOUS
 62
    30
 10
467.06625145504398
 20
114.9999999999999
 30
0.0
 40
6.0
  0
LINE
  8
SIZE
  6
CONTINUOUS
 62
    30
 10
467.06625145504398
 20
114.9999999999999
 30
0.0
 11
467.06625145504398
 21
102.9999999999999
 31
0.0
  0
CIRCLE
  8
SIZE
  6
CONTINUOUS
 62
    30
 10
467.06625145504398
 20
-0.0000000000001137
 30
0.0
 40
6.0
  0
LINE
  8
SIZE
  6
CONTINUOUS
 62
    30
 10
467.06625145504398
 20
-0.0000000000001137
 30
0.0
 11
467.06625145504398
 21
11.99999999999989
 31
0.0
  0
TEXT
  8
SIZE
  6
CONTINUOUS
 62
    30
 10
442.06625145504398
 20
-168.65714285714279
 30
0.0
 40
64.0
  1
115
 50
90.0
 41
0.9
 72
     1
 11
442.06625145504398
 21
-105.5714285714286
 31
0.0
  0
POINT
  8
DEFPOINTS
  6
CONTINUOUS
 62
    30
 10
213.82820100000001
 20
115.0
 30
0.0
  0
POINT
  8
DEFPOINTS
  6
CONTINUOUS
 62
    30
 10
160.0
 20
0.0
 30
0.0
  0
POINT
  8
DEFPOINTS
  6
CONTINUOUS
 62
    30
 10
467.06625145504398
 20
-0.0000000000001137
 30
0.0
  0
LINE
  8
SIZE
  6
CONTINUOUS
 62
    30
 10
229.49382800000009
 20
164.0
 30
0.0
 11
623.59403716912948
 21
163.99999999999989
 31
0.0
  0
LINE
  8
SIZE
  6
CONTINUOUS
 62
    30
 10
229.49382800000009
 20
66.0
 30
0.0
 11
623.59403716912948
 21
65.999999999999886
 31
0.0
  0
LINE
  8
SIZE
  6
CONTINUOUS
 62
    30
 10
603.59403716912948
 20
151.99999999999989
 30
0.0
 11
603.59403716912948
 21
77.999999999999886
 31
0.0
  0
LINE
  8
SIZE
  6
CONTINUOUS
 62
    30
 10
603.59403716912948
 20
65.999999999999886
 30
0.0
 11
603.59403716912948
 21
-201.29173646411081
 31
0.0
  0
CIRCLE
  8
SIZE
  6
CONTINUOUS
 62
    30
 10
603.59403716912948
 20
163.99999999999989
 30
0.0
 40
6.0
  0
LINE
  8
SIZE
  6
CONTINUOUS
 62
    30
 10
603.59403716912948
 20
163.99999999999989
 30
0.0
 11
603.59403716912948
 21
151.99999999999989
 31
0.0
  0
CIRCLE
  8
SIZE
  6
CONTINUOUS
 62
    30
 10
603.59403716912948
 20
65.999999999999886
 30
0.0
 40
6.0
  0
LINE
  8
SIZE
  6
CONTINUOUS
 62
    30
 10
603.59403716912948
 20
65.999999999999886
 30
0.0
 11
603.59403716912948
 21
77.999999999999886
 31
0.0
  0
TEXT
  8
SIZE
  6
CONTINUOUS
 62
    30
 10
567.92737050246296
 20
-186.44030789268211
 30
0.0
 40
64.0
  1
φ98
 50
90.0
 41
0.9
 72
     1
 11
567.92737050246296
 21
-99.491736464110659
 31
0.0
  0
POINT
  8
DEFPOINTS
  6
CONTINUOUS
 62
    30
 10
209.49382800000009
 20
164.0
 30
0.0
  0
POINT
  8
DEFPOINTS
  6
CONTINUOUS
 62
    30
 10
209.49382800000009
 20
66.0
 30
0.0
  0
POINT
  8
DEFPOINTS
  6
CONTINUOUS
 62
    30
 10
603.59403716912948
 20
65.999999999999886
 30
0.0
  0
LINE
  8
SIZE
  6
CONTINUOUS
 62
    30
 10
195.30070000000021
 20
167.64388299999999
 30
0.0
 11
753.22648485107948
 21
167.64388299999999
 31
0.0
  0
LINE
  8
SIZE
  6
CONTINUOUS
 62
    30
 10
195.30070000000021
 20
62.356115999999929
 30
0.0
 11
753.22648485107948
 21
62.356115999999759
 31
0.0
  0
LINE
  8
SIZE
  6
CONTINUOUS
 62
    30
 10
733.22648485107948
 20
155.64388299999999
 30
0.0
 11
733.22648485107948
 21
74.356115999999815
 31
0.0
  0
LINE
  8
SIZE
  6
CONTINUOUS
 62
    30
 10
733.22648485107948
 20
62.356115999999759
 30
0.0
 11
733.22648485107948
 21
-245.1213430957861
 31
0.0
  0
CIRCLE
  8
SIZE
  6
CONTINUOUS
 62
    30
 10
733.22648485107948
 20
167.64388299999999
 30
0.0
 40
6.0
  0
LINE
  8
SIZE
  6
CONTINUOUS
 62
    30
 10
733.22648485107948
 20
167.64388299999999
 30
0.0
 11
733.22648485107948
 21
155.64388299999999
 31
0.0
  0
CIRCLE
  8
SIZE
  6
CONTINUOUS
 62
    30
 10
733.22648485107948
 20
62.356115999999759
 30
0.0
 40
6.0
  0
LINE
  8
SIZE
  6
CONTINUOUS
 62
    30
 10
733.22648485107948
 20
62.356115999999759
 30
0.0
 11
733.22648485107948
 21
74.356115999999815
 31
0.0
  0
TEXT
  8
SIZE
  6
CONTINUOUS
 62
    30
 10
697.55981818441296
 20
-230.26991452435729
 30
0.0
 40
64.0
  1
φ105
 50
90.0
 41
0.9
 72
     1
 11
697.55981818441296
 21
-121.3784859529287
 31
0.0
  0
POINT
  8
DEFPOINTS
  6
CONTINUOUS
 62
    30
 10
175.30070000000021
 20
167.6438830000001
 30
0.0
  0
POINT
  8
DEFPOINTS
  6
CONTINUOUS
 62
    30
 10
175.30070000000021
 20
62.356115999999929
 30
0.0
  0
POINT
  8
DEFPOINTS
  6
CONTINUOUS
 62
    30
 10
733.22648485107948
 20
62.356115999999759
 30
0.0
  0
LINE
  8
SIZE
  6
CONTINUOUS
 62
    30
 10
65.0
 20
-25.417867999999999
 30
0.0
 11
65.0
 21
-186.03768220895029
 31
0.0
  0
LINE
  8
SIZE
  6
CONTINUOUS
 62
    30
 10
-65.0
 20
-25.417867999999999
 30
0.0
 11
-65.0
 21
-186.03768220895029
 31
0.0
  0
LINE
  8
SIZE
  6
CONTINUOUS
 62
    30
 10
77.0
 20
-166.03768220895029
 30
0.0
 11
89.0
 21
-166.03768220895029
 31
0.0
  0
LINE
  8
SIZE
  6
CONTINUOUS
 62
    30
 10
-77.0
 20
-166.03768220895029
 30
0.0
 11
-89.0
 21
-166.03768220895029
 31
0.0
  0
LINE
  8
SIZE
  6
CONTINUOUS
 62
    30
 10
65.0
 20
-166.03768220895029
 30
0.0
 11
-65.0
 21
-166.03768220895029
 31
0.0
  0
CIRCLE
  8
SIZE
  6
CONTINUOUS
 62
    30
 10
65.0
 20
-166.03768220895029
 30
0.0
 40
6.0
  0
LINE
  8
SIZE
  6
CONTINUOUS
 62
    30
 10
65.0
 20
-166.03768220895029
 30
0.0
 11
77.0
 21
-166.03768220895029
 31
0.0
  0
CIRCLE
  8
SIZE
  6
CONTINUOUS
 62
    30
 10
-65.0
 20
-166.03768220895029
 30
0.0
 40
6.0
  0
LINE
  8
SIZE
  6
CONTINUOUS
 62
    30
 10
-65.0
 20
-166.03768220895029
 30
0.0
 11
-77.0
 21
-166.03768220895029
 31
0.0
  0
TEXT
  8
SIZE
  6
CONTINUOUS
 62
    30
 10
-68.571428571428569
 20
-141.03768220895029
 30
0.0
 40
64.0
  1
130
 41
0.9
 72
     1
 11
0.0
 21
-141.03768220895029
 31
0.0
  0
POINT
  8
DEFPOINTS
  6
CONTINUOUS
 62
    30
 10
65.0
 20
-5.4178679999999986
 30
0.0
  0
POINT
  8
DEFPOINTS
  6
CONTINUOUS
 62
    30
 10
-65.0
 20
-5.4178679999999986
 30
0.0
  0
POINT
  8
DEFPOINTS
  6
CONTINUOUS
 62
    30
 10
-65.0
 20
-166.03768220895029
 30
0.0
  0
LINE
  8
SIZE
  6
CONTINUOUS
 62
    30
 10
160.0
 20
-26.539046999999979
 30
0.0
 11
160.0
 21
-421.47512544864281
 31
0.0
  0
LINE
  8
SIZE
  6
CONTINUOUS
 62
    30
 10
-160.0
 20
-26.539046999999979
 30
0.0
 11
-160.0
 21
-421.47512544864281
 31
0.0
  0
LINE
  8
SIZE
  6
CONTINUOUS
 62
    30
 10
148.0
 20
-401.47512544864281
 30
0.0
 11
-148.0
 21
-401.47512544864281
 31
0.0
  0
CIRCLE
  8
SIZE
  6
CONTINUOUS
 62
    30
 10
160.0
 20
-401.47512544864281
 30
0.0
 40
6.0
  0
LINE
  8
SIZE
  6
CONTINUOUS
 62
    30
 10
160.0
 20
-401.47512544864281
 30
0.0
 11
148.0
 21
-401.47512544864281
 31
0.0
  0
CIRCLE
  8
SIZE
  6
CONTINUOUS
 62
    30
 10
-160.0
 20
-401.47512544864281
 30
0.0
 40
6.0
  0
LINE
  8
SIZE
  6
CONTINUOUS
 62
    30
 10
-160.0
 20
-401.47512544864281
 30
0.0
 11
-148.0
 21
-401.47512544864281
 31
0.0
  0
TEXT
  8
SIZE
  6
CONTINUOUS
 62
    30
 10
-110.5371428571428
 20
-376.47512544864281
 30
0.0
 40
64.0
  1
□320
 41
0.9
 72
     1
 11
0.0
 21
-376.47512544864281
 31
0.0
  0
POINT
  8
DEFPOINTS
  6
CONTINUOUS
 62
    30
 10
160.0
 20
-6.5390469999999823
 30
0.0
  0
POINT
  8
DEFPOINTS
  6
CONTINUOUS
 62
    30
 10
-160.0
 20
-6.5390469999999823
 30
0.0
  0
POINT
  8
DEFPOINTS
  6
CONTINUOUS
 62
    30
 10
-160.0
 20
-401.47512544864281
 30
0.0
  0
LINE
  8
SIZE
  6
CONTINUOUS
 62
    30
 10
-73.211767000000009
 20
208.0
 30
0.0
 11
-414.96153612137078
 21
208.00000000000011
 31
0.0
  0
LINE
  8
SIZE
  6
CONTINUOUS
 62
    30
 10
-180.0
 20
0.0
 30
0.0
 11
-414.96153612137118
 21
0.0000000000000568
 31
0.0
  0
LINE
  8
SIZE
  6
CONTINUOUS
 62
    30
 10
-394.96153612137078
 20
196.00000000000011
 30
0.0
 11
-394.96153612137118
 21
12.00000000000006
 31
0.0
  0
CIRCLE
  8
SIZE
  6
CONTINUOUS
 62
    30
 10
-394.96153612137078
 20
208.00000000000011
 30
0.0
 40
6.0
  0
LINE
  8
SIZE
  6
CONTINUOUS
 62
    30
 10
-394.96153612137078
 20
208.00000000000011
 30
0.0
 11
-394.96153612137078
 21
196.00000000000011
 31
0.0
  0
CIRCLE
  8
SIZE
  6
CONTINUOUS
 62
    30
 10
-394.96153612137118
 20
0.0000000000000568
 30
0.0
 40
6.0
  0
LINE
  8
SIZE
  6
CONTINUOUS
 62
    30
 10
-394.96153612137118
 20
0.0000000000000568
 30
0.0
 11
-394.96153612137118
 21
12.00000000000006
 31
0.0
  0
TEXT
  8
SIZE
  6
CONTINUOUS
 62
    30
 10
-419.96153612137118
 20
29.942857142857161
 30
0.0
 40
64.0
  1
208
 50
90.0
 41
0.9
 72
     1
 11
-419.96153612137118
 21
104.0
 31
0.0
  0
POINT
  8
DEFPOINTS
  6
CONTINUOUS
 62
    30
 10
-53.211767000000009
 20
208.0
 30
0.0
  0
POINT
  8
DEFPOINTS
  6
CONTINUOUS
 62
    30
 10
-160.0
 20
0.0
 30
0.0
  0
POINT
  8
DEFPOINTS
  6
CONTINUOUS
 62
    30
 10
-394.96153612137118
 20
0.0000000000000568
 30
0.0
  0
LINE
  8
SIZE
  6
CONTINUOUS
 62
    30
 10
-180.0
 20
0.0
 30
0.0
 11
-414.96153612137118
 21
0.0000000000000568
 31
0.0
  0
LINE
  8
SIZE
  6
CONTINUOUS
 62
    30
 10
-144.0
 20
-20.0
 30
0.0
 11
-414.96153612137118
 21
-19.99999999999994
 31
0.0
  0
LINE
  8
SIZE
  6
CONTINUOUS
 62
    30
 10
-394.96153612137118
 20
12.00000000000006
 30
0.0
 11
-394.96153612137118
 21
24.00000000000006
 31
0.0
  0
LINE
  8
SIZE
  6
CONTINUOUS
 62
    30
 10
-394.96153612137118
 20
-31.99999999999994
 30
0.0
 11
-394.96153612137118
 21
-187.2571428571429
 31
0.0
  0
LINE
  8
SIZE
  6
CONTINUOUS
 62
    30
 10
-394.96153612137118
 20
0.0000000000000568
 30
0.0
 11
-394.96153612137118
 21
-19.99999999999994
 31
0.0
  0
CIRCLE
  8
SIZE
  6
CONTINUOUS
 62
    30
 10
-394.96153612137118
 20
0.0000000000000568
 30
0.0
 40
6.0
  0
LINE
  8
SIZE
  6
CONTINUOUS
 62
    30
 10
-394.96153612137118
 20
0.0000000000000568
 30
0.0
 11
-394.96153612137118
 21
12.00000000000006
 31
0.0
  0
CIRCLE
  8
SIZE
  6
CONTINUOUS
 62
    30
 10
-394.96153612137118
 20
-19.99999999999994
 30
0.0
 40
6.0
  0
LINE
  8
SIZE
  6
CONTINUOUS
 62
    30
 10
-394.96153612137118
 20
-19.99999999999994
 30
0.0
 11
-394.96153612137118
 21
-31.99999999999994
 31
0.0
  0
TEXT
  8
SIZE
  6
CONTINUOUS
 62
    30
 10
-419.96153612137118
 20
-162.2571428571429
 30
0.0
 40
64.0
  1
20
 50
90.0
 41
0.9
 72
     1
 11
-419.96153612137118
 21
-115.62857142857141
 31
0.0
  0
POINT
  8
DEFPOINTS
  6
CONTINUOUS
 62
    30
 10
-160.0
 20
0.0
 30
0.0
  0
POINT
  8
DEFPOINTS
  6
CONTINUOUS
 62
    30
 10
-124.0
 20
-20.0
 30
0.0
  0
POINT
  8
DEFPOINTS
  6
CONTINUOUS
 62
    30
 10
-394.96153612137118
 20
-19.99999999999994
 30
0.0
  0
LINE
  8
OUTLINE
  6
CONTINUOUS
 62
     3
 10
-36.949959000000042
 20
173.2703710000001
 30
0.0
 11
-37.21961599999986
 21
173.72196299999999
 31
0.0
  0
LINE
  8
OUTLINE
  6
CONTINUOUS
 62
     3
 10
-37.555335999999897
 20
174.18666600000009
 30
0.0
 11
-37.738448000000062
 21
174.396479
 31
0.0
  0
LINE
  8
OUTLINE
  6
CONTINUOUS
 62
     3
 10
25.950041000000059
 20
162.5
 30
0.0
 11
72.405138999999963
 21
162.5
 31
0.0
  0
LINE
  8
OUTLINE
  6
CONTINUOUS
 62
     3
 10
66.493828000000121
 20
184.0
 30
0.0
 11
73.532639000000017
 21
184.0
 31
0.0
  0
LINE
  8
OUTLINE
  6
CONTINUOUS
 62
     3
 10
73.532639000000017
 20
183.0
 30
0.0
 11
73.532639000000017
 21
184.0
 31
0.0
  0
LINE
  8
OUTLINE
  6
CONTINUOUS
 62
     3
 10
72.405138999999963
 20
162.5
 30
0.0
 11
73.532639000000017
 21
183.0
 31
0.0
  0
LINE
  8
OUTLINE
  6
CONTINUOUS
 62
     3
 10
91.493828000000121
 20
190.0
 30
0.0
 11
91.493828000000121
 21
186.0
 31
0.0
  0
LINE
  8
OUTLINE
  6
CONTINUOUS
 62
     3
 10
91.493828000000121
 20
186.0
 30
0.0
 11
95.517622000000074
 21
186.0
 31
0.0
  0
LINE
  8
OUTLINE
  6
CONTINUOUS
 62
     3
 10
87.907639000000017
 20
191.0
 30
0.0
 11
90.493828000000121
 21
191.0
 31
0.0
  0
LINE
  8
OUTLINE
  6
CONTINUOUS
 62
     3
 10
67.493828000000121
 20
191.0
 30
0.0
 11
73.657639000000017
 21
191.0
 31
0.0
  0
LINE
  8
OUTLINE
  6
CONTINUOUS
 62
     3
 10
-53.663980999999922
 20
207.713313
 30
0.0
 11
-79.000950999999986
 21
154.0
 31
0.0
  0
LINE
  8
OUTLINE
  6
CONTINUOUS
 62
     3
 10
-90.603442000000086
 20
154.0
 30
0.0
 11
-79.000950999999986
 21
154.0
 31
0.0
  0
LINE
  8
OUTLINE
  6
CONTINUOUS
 62
     3
 10
-95.737300999999889
 20
73.0
 30
0.0
 11
-93.982696999999916
 21
73.0
 31
0.0
  0
LINE
  8
OUTLINE
  6
CONTINUOUS
 62
     3
 10
97.517317000000048
 20
184.03490500000001
 30
0.0
 11
97.77461500000004
 21
169.29430400000001
 31
0.0
  0
LINE
  8
OUTLINE
  6
CONTINUOUS
 62
     3
 10
99.723795000000109
 20
57.625858000000107
 30
0.0
 11
100.467832
 21
15.0
 31
0.0
  0
ARC
  8
OUTLINE
  6
CONTINUOUS
 62
     3
 10
98.774463000000196
 20
169.31175600000009
 30
0.0
 40
1.0
 50
181.00000000000179
 51
269.49999999998238
  0
LINE
  8
OUTLINE
  6
CONTINUOUS
 62
     3
 10
209.49382800000009
 20
164.0
 30
0.0
 11
180.31201899999999
 21
164.25466599999999
 31
0.0
  0
LINE
  8
OUTLINE
  6
CONTINUOUS
 62
     3
 10
209.49382800000009
 20
164.0
 30
0.0
 11
209.49382800000009
 21
66.0
 31
0.0
  0
LINE
  8
OUTLINE
  6
CONTINUOUS
 62
     3
 10
209.49382800000009
 20
66.0
 30
0.0
 11
180.31201899999999
 21
65.745333999999957
 31
0.0
  0
ARC
  8
OUTLINE
  6
CONTINUOUS
 62
     3
 10
180.3294720000001
 20
63.745411000000097
 30
0.0
 40
2.0
 50
90.500000000017607
 51
134.9999999999747
  0
LINE
  8
OUTLINE
  6
CONTINUOUS
 62
     3
 10
178.91525799999999
 20
65.159624000000008
 30
0.0
 11
176.697461
 21
62.941827000000103
 31
0.0
  0
ARC
  8
OUTLINE
  6
CONTINUOUS
 62
     3
 10
175.2832470000001
 20
64.356040000000007
 30
0.0
 40
2.0
 50
270.50000000001762
 51
314.99999999997459
  0
LINE
  8
OUTLINE
  6
CONTINUOUS
 62
     3
 10
175.30070000000021
 20
62.356115999999929
 30
0.0
 11
134.49382800000009
 21
62.0
 31
0.0
  0
LINE
  8
OUTLINE
  6
CONTINUOUS
 62
     3
 10
100.6248760000001
 20
58.638421000000108
 30
0.0
 11
134.49382800000009
 21
62.0
 31
0.0
  0
ARC
  8
OUTLINE
  6
CONTINUOUS
 62
     3
 10
100.723643
 20
57.643310000000042
 30
0.0
 40
1.0
 50
95.668186999985991
 51
181.00000000000179
  0
ARC
  8
OUTLINE
  6
CONTINUOUS
 62
     3
 10
95.517622000000074
 20
184.0
 30
0.0
 40
2.0
 50
1.0000000000017759
 51
90.0
  0
ARC
  8
OUTLINE
  6
CONTINUOUS
 62
     3
 10
67.493828000000121
 20
190.0
 30
0.0
 40
1.0
 50
90.0
 51
180.0
  0
LINE
  8
OUTLINE
  6
CONTINUOUS
 62
     3
 10
66.493828000000121
 20
190.0
 30
0.0
 11
66.493828000000121
 21
184.0
 31
0.0
  0
ARC
  8
OUTLINE
  6
CONTINUOUS
 62
     3
 10
90.493828000000121
 20
190.0
 30
0.0
 40
1.0
 50
0.0
 51
90.0
  0
LINE
  8
OUTLINE
  6
CONTINUOUS
 62
     3
 10
178.91525799999999
 20
164.84037599999999
 30
0.0
 11
176.697461
 21
167.05817400000001
 31
0.0
  0
ARC
  8
OUTLINE
  6
CONTINUOUS
 62
     3
 10
180.3294720000001
 20
166.25459000000001
 30
0.0
 40
2.0
 50
225.0000000000253
 51
269.49999999998238
  0
ARC
  8
OUTLINE
  6
CONTINUOUS
 62
     3
 10
175.2832470000001
 20
165.64395999999999
 30
0.0
 40
2.0
 50
45.000000000025338
 51
89.499999999982393
  0
LINE
  8
OUTLINE
  6
CONTINUOUS
 62
     3
 10
175.30070000000021
 20
167.6438840000001
 30
0.0
 11
98.765736000000061
 21
168.31179399999999
 31
0.0
  0
ARC
  8
OUTLINE
  6
CONTINUOUS
 62
     3
 10
77.548204000000169
 20
206.0
 30
0.0
 40
2.0
 50
90.0
 51
172.8749839999968
  0
ARC
  8
OUTLINE
  6
CONTINUOUS
 62
     3
 10
84.017074999999977
 20
206.0
 30
0.0
 40
2.0
 50
7.1250160000032468
 51
90.0
  0
LINE
  8
OUTLINE
  6
CONTINUOUS
 62
     3
 10
-48.555977999999868
 20
189.196855
 30
0.0
 11
-48.624663999999939
 21
189.83970199999999
 31
0.0
  0
LINE
  8
OUTLINE
  6
CONTINUOUS
 62
     3
 10
-48.624663999999939
 20
189.83970199999999
 30
0.0
 11
-48.680548999999928
 21
190.41721500000011
 31
0.0
  0
LINE
  8
OUTLINE
  6
CONTINUOUS
 62
     3
 10
-49.942817999999988
 20
204.20531800000001
 30
0.0
 11
-49.958785999999918
 21
204.38787600000001
 31
0.0
  0
LINE
  8
OUTLINE
  6
CONTINUOUS
 62
     3
 10
-49.958785999999918
 20
204.38787600000001
 30
0.0
 11
-49.988508999999787
 21
204.67634000000001
 31
0.0
  0
LINE
  8
OUTLINE
  6
CONTINUOUS
 62
     3
 10
-49.988508999999787
 20
204.67634000000001
 30
0.0
 11
-50.022005999999919
 21
204.94987399999999
 31
0.0
  0
LINE
  8
OUTLINE
  6
CONTINUOUS
 62
     3
 10
-50.022005999999919
 20
204.94987399999999
 30
0.0
 11
-50.05873100000008
 21
205.2086810000001
 31
0.0
  0
LINE
  8
OUTLINE
  6
CONTINUOUS
 62
     3
 10
-50.05873100000008
 20
205.2086810000001
 30
0.0
 11
-50.09818499999983
 21
205.45291
 31
0.0
  0
LINE
  8
OUTLINE
  6
CONTINUOUS
 62
     3
 10
-50.09818499999983
 20
205.45291
 30
0.0
 11
-50.139905999999883
 21
205.68277699999999
 31
0.0
  0
LINE
  8
OUTLINE
  6
CONTINUOUS
 62
     3
 10
-50.139905999999883
 20
205.68277699999999
 30
0.0
 11
-50.183491999999887
 21
205.898585
 31
0.0
  0
LINE
  8
OUTLINE
  6
CONTINUOUS
 62
     3
 10
-50.183491999999887
 20
205.898585
 30
0.0
 11
-50.228592999999819
 21
206.10071099999999
 31
0.0
  0
LINE
  8
OUTLINE
  6
CONTINUOUS
 62
     3
 10
-50.228592999999819
 20
206.10071099999999
 30
0.0
 11
-50.274903999999879
 21
206.28958900000001
 31
0.0
  0
LINE
  8
OUTLINE
  6
CONTINUOUS
 62
     3
 10
-50.274903999999879
 20
206.28958900000001
 30
0.0
 11
-50.32219699999996
 21
206.46574699999999
 31
0.0
  0
LINE
  8
OUTLINE
  6
CONTINUOUS
 62
     3
 10
-50.32219699999996
 20
206.46574699999999
 30
0.0
 11
-50.370282999999972
 21
206.629727
 31
0.0
  0
LINE
  8
OUTLINE
  6
CONTINUOUS
 62
     3
 10
-50.370282999999972
 20
206.629727
 30
0.0
 11
-50.419050999999847
 21
206.78212800000011
 31
0.0
  0
LINE
  8
OUTLINE
  6
CONTINUOUS
 62
     3
 10
-50.419050999999847
 20
206.78212800000011
 30
0.0
 11
-50.468474999999899
 21
206.92363800000001
 31
0.0
  0
LINE
  8
OUTLINE
  6
CONTINUOUS
 62
     3
 10
-50.468474999999899
 20
206.92363800000001
 30
0.0
 11
-50.518448999999919
 21
207.05456100000001
 31
0.0
  0
LINE
  8
OUTLINE
  6
CONTINUOUS
 62
     3
 10
-50.518448999999919
 20
207.05456100000001
 30
0.0
 11
-50.568948999999982
 21
207.1753120000001
 31
0.0
  0
LINE
  8
OUTLINE
  6
CONTINUOUS
 62
     3
 10
-50.568948999999982
 20
207.1753120000001
 30
0.0
 11
-50.620086999999778
 21
207.28649300000009
 31
0.0
  0
LINE
  8
OUTLINE
  6
CONTINUOUS
 62
     3
 10
-50.620086999999778
 20
207.28649300000009
 30
0.0
 11
-50.672000999999909
 21
207.38859500000001
 31
0.0
  0
LINE
  8
OUTLINE
  6
CONTINUOUS
 62
     3
 10
-50.672000999999909
 20
207.38859500000001
 30
0.0
 11
-50.72516799999994
 21
207.48252600000001
 31
0.0
  0
LINE
  8
OUTLINE
  6
CONTINUOUS
 62
     3
 10
-50.72516799999994
 20
207.48252600000001
 30
0.0
 11
-50.780096999999842
 21
207.568906
 31
0.0
  0
LINE
  8
OUTLINE
  6
CONTINUOUS
 62
     3
 10
-50.780096999999842
 20
207.568906
 30
0.0
 11
-50.84128399999986
 21
207.65318600000001
 31
0.0
  0
LINE
  8
OUTLINE
  6
CONTINUOUS
 62
     3
 10
-47.456023999999843
 20
179.134333
 30
0.0
 11
-47.927752000000048
 21
183.28540000000001
 31
0.0
  0
LINE
  8
OUTLINE
  6
CONTINUOUS
 62
     3
 10
-47.927752000000048
 20
183.28540000000001
 30
0.0
 11
-48.386675999999852
 21
187.53828500000009
 31
0.0
  0
LINE
  8
OUTLINE
  6
CONTINUOUS
 62
     3
 10
-48.386675999999852
 20
187.53828500000009
 30
0.0
 11
-48.818463000000072
 21
191.7682890000001
 31
0.0
  0
LINE
  8
OUTLINE
  6
CONTINUOUS
 62
     3
 10
-48.818463000000072
 20
191.7682890000001
 30
0.0
 11
-49.223238999999921
 21
195.9752490000001
 31
0.0
  0
LINE
  8
OUTLINE
  6
CONTINUOUS
 62
     3
 10
-49.223238999999921
 20
195.9752490000001
 30
0.0
 11
-49.601106000000073
 21
200.15900300000001
 31
0.0
  0
LINE
  8
OUTLINE
  6
CONTINUOUS
 62
     3
 10
-49.601106000000073
 20
200.15900300000001
 30
0.0
 11
-49.942816999999877
 21
204.205319
 31
0.0
  0
LINE
  8
OUTLINE
  6
CONTINUOUS
 62
     3
 10
86.001631000000089
 20
206.2480700000001
 30
0.0
 11
87.907639000000017
 21
191.0
 31
0.0
  0
LINE
  8
OUTLINE
  6
CONTINUOUS
 62
     3
 10
-36.929918999999927
 20
173.20415299999999
 30
0.0
 11
-37.068639999999959
 21
173.4691250000001
 31
0.0
  0
LINE
  8
OUTLINE
  6
CONTINUOUS
 62
     3
 10
-37.21961599999986
 20
173.72196299999999
 30
0.0
 11
-37.382114000000001
 21
173.96149700000001
 31
0.0
  0
LINE
  8
OUTLINE
  6
CONTINUOUS
 62
     3
 10
-37.382114000000001
 20
173.96149700000001
 30
0.0
 11
-37.555335999999897
 21
174.18666600000009
 31
0.0
  0
LINE
  8
OUTLINE
  6
CONTINUOUS
 62
     3
 10
-37.738448000000062
 20
174.396479
 30
0.0
 11
-37.930563999999777
 21
174.59004300000001
 31
0.0
  0
LINE
  8
OUTLINE
  6
CONTINUOUS
 62
     3
 10
-37.930563999999777
 20
174.59004300000001
 30
0.0
 11
-38.130772999999863
 21
174.76653600000009
 31
0.0
  0
LINE
  8
OUTLINE
  6
CONTINUOUS
 62
     3
 10
-38.130772999999863
 20
174.76653600000009
 30
0.0
 11
-38.338129999999857
 21
174.92525000000001
 31
0.0
  0
LINE
  8
OUTLINE
  6
CONTINUOUS
 62
     3
 10
-38.338129999999857
 20
174.92525000000001
 30
0.0
 11
-38.551688000000013
 21
175.065551
 31
0.0
  0
LINE
  8
OUTLINE
  6
CONTINUOUS
 62
     3
 10
-38.551688000000013
 20
175.065551
 30
0.0
 11
-38.770403999999871
 21
175.18687499999999
 31
0.0
  0
LINE
  8
OUTLINE
  6
CONTINUOUS
 62
     3
 10
-38.770403999999871
 20
175.18687499999999
 30
0.0
 11
-38.993223999999827
 21
175.28875600000001
 31
0.0
  0
LINE
  8
OUTLINE
  6
CONTINUOUS
 62
     3
 10
-38.993223999999827
 20
175.28875600000001
 30
0.0
 11
-39.219012000000021
 21
175.37083600000011
 31
0.0
  0
LINE
  8
OUTLINE
  6
CONTINUOUS
 62
     3
 10
-39.219012000000021
 20
175.37083600000011
 30
0.0
 11
-39.446625999999917
 21
175.43286699999999
 31
0.0
  0
LINE
  8
OUTLINE
  6
CONTINUOUS
 62
     3
 10
-39.446625999999917
 20
175.43286699999999
 30
0.0
 11
-39.674858999999969
 21
175.47474500000001
 31
0.0
  0
LINE
  8
OUTLINE
  6
CONTINUOUS
 62
     3
 10
-39.674858999999969
 20
175.47474500000001
 30
0.0
 11
-39.902357999999822
 21
175.4965
 31
0.0
  0
LINE
  8
OUTLINE
  6
CONTINUOUS
 62
     3
 10
-53.211767000000009
 20
208.0
 30
0.0
 11
-51.465054000000009
 21
208.0
 31
0.0
  0
LINE
  8
OUTLINE
  6
CONTINUOUS
 62
     3
 10
-39.902357999999822
 20
175.4965
 30
0.0
 11
-40.036713999999847
 21
175.49999700000001
 31
0.0
  0
LINE
  8
OUTLINE
  6
CONTINUOUS
 62
     3
 10
77.548204000000169
 20
208.0
 30
0.0
 11
84.017074999999977
 21
208.0
 31
0.0
  0
LINE
  8
OUTLINE
  6
CONTINUOUS
 62
     3
 10
-45.497242999999798
 20
175.5
 30
0.0
 11
-40.036815999999817
 21
175.5
 31
0.0
  0
LINE
  8
OUTLINE
  6
CONTINUOUS
 62
     3
 10
-45.497300000000003
 20
175.50000299999999
 30
0.0
 11
-45.599385999999868
 21
175.50575799999999
 31
0.0
  0
LINE
  8
OUTLINE
  6
CONTINUOUS
 62
     3
 10
-45.599385999999868
 20
175.50575799999999
 30
0.0
 11
-45.738680999999808
 21
175.53310300000001
 31
0.0
  0
LINE
  8
OUTLINE
  6
CONTINUOUS
 62
     3
 10
-45.738680999999808
 20
175.53310300000001
 30
0.0
 11
-45.870607999999947
 21
175.58079599999999
 31
0.0
  0
LINE
  8
OUTLINE
  6
CONTINUOUS
 62
     3
 10
-45.870607999999947
 20
175.58079599999999
 30
0.0
 11
-45.998469999999998
 21
175.64816900000011
 31
0.0
  0
LINE
  8
OUTLINE
  6
CONTINUOUS
 62
     3
 10
-45.998469999999998
 20
175.64816900000011
 30
0.0
 11
-46.124227999999903
 21
175.73564800000011
 31
0.0
  0
LINE
  8
OUTLINE
  6
CONTINUOUS
 62
     3
 10
-46.124227999999903
 20
175.73564800000011
 30
0.0
 11
-46.247339999999888
 21
175.84279799999999
 31
0.0
  0
LINE
  8
OUTLINE
  6
CONTINUOUS
 62
     3
 10
-46.247339999999888
 20
175.84279799999999
 30
0.0
 11
-46.367671999999857
 21
175.9695390000002
 31
0.0
  0
LINE
  8
OUTLINE
  6
CONTINUOUS
 62
     3
 10
73.657639000000017
 20
191.0
 30
0.0
 11
75.563648000000057
 21
206.2480700000001
 31
0.0
  0
LINE
  8
OUTLINE
  6
CONTINUOUS
 62
     3
 10
-46.367671999999857
 20
175.9695390000002
 30
0.0
 11
-46.484837999999847
 21
176.11571499999999
 31
0.0
  0
LINE
  8
OUTLINE
  6
CONTINUOUS
 62
     3
 10
-46.484837999999847
 20
176.11571499999999
 30
0.0
 11
-46.598657000000003
 21
176.28156000000001
 31
0.0
  0
LINE
  8
OUTLINE
  6
CONTINUOUS
 62
     3
 10
-46.598657000000003
 20
176.28156000000001
 30
0.0
 11
-46.708638000000057
 21
176.467027
 31
0.0
  0
LINE
  8
OUTLINE
  6
CONTINUOUS
 62
     3
 10
-46.708638000000057
 20
176.467027
 30
0.0
 11
-46.814682999999832
 21
176.67290499999999
 31
0.0
  0
LINE
  8
OUTLINE
  6
CONTINUOUS
 62
     3
 10
-46.814682999999832
 20
176.67290499999999
 30
0.0
 11
-46.915661999999877
 21
176.89799500000001
 31
0.0
  0
LINE
  8
OUTLINE
  6
CONTINUOUS
 62
     3
 10
-46.915661999999877
 20
176.89799500000001
 30
0.0
 11
-47.010861999999861
 21
177.14148900000009
 31
0.0
  0
LINE
  8
OUTLINE
  6
CONTINUOUS
 62
     3
 10
-47.010861999999861
 20
177.14148900000009
 30
0.0
 11
-47.09958000000006
 21
177.402197
 31
0.0
  0
LINE
  8
OUTLINE
  6
CONTINUOUS
 62
     3
 10
-47.09958000000006
 20
177.402197
 30
0.0
 11
-47.181224999999813
 21
177.6788369999999
 31
0.0
  0
LINE
  8
OUTLINE
  6
CONTINUOUS
 62
     3
 10
-47.181224999999813
 20
177.6788369999999
 30
0.0
 11
-47.255323999999973
 21
177.9700740000001
 31
0.0
  0
LINE
  8
OUTLINE
  6
CONTINUOUS
 62
     3
 10
-47.255323999999973
 20
177.9700740000001
 30
0.0
 11
-47.321461999999883
 21
178.274452
 31
0.0
  0
LINE
  8
OUTLINE
  6
CONTINUOUS
 62
     3
 10
-47.321461999999883
 20
178.274452
 30
0.0
 11
-47.379320999999891
 21
178.59057600000011
 31
0.0
  0
LINE
  8
OUTLINE
  6
CONTINUOUS
 62
     3
 10
-47.379320999999891
 20
178.59057600000011
 30
0.0
 11
-47.428614999999809
 21
178.91690100000011
 31
0.0
  0
LINE
  8
OUTLINE
  6
CONTINUOUS
 62
     3
 10
-47.428614999999809
 20
178.91690100000011
 30
0.0
 11
-47.456020999999957
 21
179.13432399999999
 31
0.0
  0
LINE
  8
OUTLINE
  6
CONTINUOUS
 62
     3
 10
-97.73699600000009
 20
71.034904999999981
 30
0.0
 11
-98.715088999999807
 21
15.0
 31
0.0
  0
LINE
  8
OUTLINE
  6
CONTINUOUS
 62
     3
 10
-91.603290000000015
 20
153.0174529999999
 30
0.0
 11
-92.982849999999871
 21
73.982524000000012
 31
0.0
  0
ARC
  8
OUTLINE
  6
CONTINUOUS
 62
     3
 10
-95.737298999999894
 20
71.0
 30
0.0
 40
2.0
 50
90.000061000000926
 51
179.00000099998911
  0
ARC
  8
OUTLINE
  6
CONTINUOUS
 62
     3
 10
-93.982696999999916
 20
74.0
 30
0.0
 40
1.0
 50
270.0
 51
358.99863600000867
  0
ARC
  8
OUTLINE
  6
CONTINUOUS
 62
     3
 10
-90.603442000000086
 20
153.0
 30
0.0
 40
1.0
 50
90.0
 51
179.00000000001131
  0
ARC
  8
OUTLINE
  6
CONTINUOUS
 62
     3
 10
-53.211767000000009
 20
207.5
 30
0.0
 40
0.5
 50
90.0
 51
154.74639899999769
  0
LINE
  8
OUTLINE
  6
CONTINUOUS
 62
     3
 10
-50.84128399999986
 20
207.65318600000001
 30
0.0
 11
-50.903452999999899
 21
207.72689399999999
 31
0.0
  0
LINE
  8
OUTLINE
  6
CONTINUOUS
 62
     3
 10
-50.903452999999899
 20
207.72689399999999
 30
0.0
 11
-50.971340999999939
 21
207.79489699999999
 31
0.0
  0
LINE
  8
OUTLINE
  6
CONTINUOUS
 62
     3
 10
-50.971340999999939
 20
207.79489699999999
 30
0.0
 11
-51.04708299999993
 21
207.85701399999991
 31
0.0
  0
LINE
  8
OUTLINE
  6
CONTINUOUS
 62
     3
 10
-51.04708299999993
 20
207.85701399999991
 30
0.0
 11
-51.131864999999827
 21
207.91138699999999
 31
0.0
  0
LINE
  8
OUTLINE
  6
CONTINUOUS
 62
     3
 10
-51.131864999999827
 20
207.91138699999999
 30
0.0
 11
-51.227805999999873
 21
207.95598300000009
 31
0.0
  0
LINE
  8
OUTLINE
  6
CONTINUOUS
 62
     3
 10
-51.227805999999873
 20
207.95598300000009
 30
0.0
 11
-51.332425999999941
 21
207.98641799999999
 31
0.0
  0
LINE
  8
OUTLINE
  6
CONTINUOUS
 62
     3
 10
-51.332425999999941
 20
207.98641799999999
 30
0.0
 11
-51.440605000000012
 21
207.9994300000001
 31
0.0
  0
LINE
  8
OUTLINE
  6
CONTINUOUS
 62
     3
 10
-50.83784199999991
 20
207.648763
 30
0.0
 11
-50.89966800000002
 21
207.72273000000001
 31
0.0
  0
LINE
  8
OUTLINE
  6
CONTINUOUS
 62
     3
 10
-50.89966800000002
 20
207.72273000000001
 30
0.0
 11
-50.967100999999957
 21
207.79100600000001
 31
0.0
  0
LINE
  8
OUTLINE
  6
CONTINUOUS
 62
     3
 10
-50.967100999999957
 20
207.79100600000001
 30
0.0
 11
-51.042243999999982
 21
207.8534460000001
 31
0.0
  0
LINE
  8
OUTLINE
  6
CONTINUOUS
 62
     3
 10
-51.042243999999982
 20
207.8534460000001
 30
0.0
 11
-51.126324999999952
 21
207.90828400000009
 31
0.0
  0
LINE
  8
OUTLINE
  6
CONTINUOUS
 62
     3
 10
-51.126324999999952
 20
207.90828400000009
 30
0.0
 11
-51.221507999999858
 21
207.953565
 31
0.0
  0
LINE
  8
OUTLINE
  6
CONTINUOUS
 62
     3
 10
-51.221507999999858
 20
207.953565
 30
0.0
 11
-51.325464999999888
 21
207.984948
 31
0.0
  0
LINE
  8
OUTLINE
  6
CONTINUOUS
 62
     3
 10
-51.325464999999888
 20
207.984948
 30
0.0
 11
-51.434510000000053
 21
207.99927700000001
 31
0.0
  0
LINE
  8
OUTLINE
  6
CONTINUOUS
 62
     3
 10
-51.434510000000053
 20
207.99927700000001
 30
0.0
 11
-51.462902999999869
 21
207.99999199999999
 31
0.0
  0
LINE
  8
NOTE
  6
CENTER
 62
     4
 10
56.0
 20
172.418756
 30
0.0
 11
56.0
 21
152.137597
 31
0.0
  0
LINE
  8
DETAIL
  6
CONTINUOUS
 62
     5
 10
72.405138999999963
 20
162.5
 30
0.0
 11
73.532639000000017
 21
183.0
 31
0.0
  0
LINE
  8
DETAIL
  6
CONTINUOUS
 62
     5
 10
-53.663980999999922
 20
207.713312
 30
0.0
 11
-79.000950999999986
 21
154.0
 31
0.0
  0
LINE
  8
DETAIL
  6
CONTINUOUS
 62
     5
 10
-90.603442000000086
 20
154.0
 30
0.0
 11
-79.000950999999986
 21
154.0
 31
0.0
  0
LINE
  8
DETAIL
  6
CONTINUOUS
 62
     5
 10
-95.737300999999889
 20
73.0
 30
0.0
 11
-93.982696999999916
 21
73.0
 31
0.0
  0
LINE
  8
DETAIL
  6
CONTINUOUS
 62
     5
 10
97.517317000000048
 20
184.03490400000001
 30
0.0
 11
97.77461500000004
 21
169.29430300000001
 31
0.0
  0
LINE
  8
DETAIL
  6
CONTINUOUS
 62
     5
 10
99.723795000000109
 20
57.625857000000003
 30
0.0
 11
100.467832
 21
15.0
 31
0.0
  0
ARC
  8
DETAIL
  6
CONTINUOUS
 62
     5
 10
98.774463000000196
 20
169.3117559999998
 30
0.0
 40
1.0
 50
181.00000000000179
 51
269.49999999998238
  0
LINE
  8
DETAIL
  6
CONTINUOUS
 62
     5
 10
209.49382800000009
 20
164.0
 30
0.0
 11
180.31201899999999
 21
164.2546649999999
 31
0.0
  0
LINE
  8
DETAIL
  6
CONTINUOUS
 62
     5
 10
209.49382800000009
 20
164.0
 30
0.0
 11
209.49382800000009
 21
66.0
 31
0.0
  0
LINE
  8
DETAIL
  6
CONTINUOUS
 62
     5
 10
209.49382800000009
 20
66.0
 30
0.0
 11
180.31201899999999
 21
65.745334000000071
 31
0.0
  0
ARC
  8
DETAIL
  6
CONTINUOUS
 62
     5
 10
180.3294720000001
 20
63.745409999999993
 30
0.0
 40
2.0
 50
90.500000000017607
 51
134.9999999999747
  0
LINE
  8
DETAIL
  6
CONTINUOUS
 62
     5
 10
178.91525799999999
 20
65.159624000000008
 30
0.0
 11
176.697461
 21
62.941826000000113
 31
0.0
  0
ARC
  8
DETAIL
  6
CONTINUOUS
 62
     5
 10
175.2832470000001
 20
64.356040000000007
 30
0.0
 40
2.0
 50
270.50000000001762
 51
314.99999999997459
  0
LINE
  8
DETAIL
  6
CONTINUOUS
 62
     5
 10
175.30070000000021
 20
62.356116000000043
 30
0.0
 11
134.49382800000009
 21
62.0
 31
0.0
  0
LINE
  8
DETAIL
  6
CONTINUOUS
 62
     5
 10
100.6248760000001
 20
58.638420000000004
 30
0.0
 11
134.49382800000009
 21
62.0
 31
0.0
  0
ARC
  8
DETAIL
  6
CONTINUOUS
 62
     5
 10
100.723643
 20
57.643310000000042
 30
0.0
 40
1.0
 50
95.668186999985991
 51
181.00000000000179
  0
ARC
  8
DETAIL
  6
CONTINUOUS
 62
     5
 10
95.517622000000074
 20
184.0
 30
0.0
 40
2.0
 50
1.0000000000017759
 51
90.0
  0
LINE
  8
DETAIL
  6
CONTINUOUS
 62
     5
 10
81.050475000000006
 20
182.03490400000001
 30
0.0
 11
83.966080000000147
 21
15.0
 31
0.0
  0
ARC
  8
DETAIL
  6
CONTINUOUS
 62
     5
 10
67.493828000000121
 20
190.0
 30
0.0
 40
1.0
 50
90.0
 51
180.0
  0
LINE
  8
DETAIL
  6
CONTINUOUS
 62
     5
 10
66.493828000000121
 20
190.0
 30
0.0
 11
66.493828000000121
 21
184.0
 31
0.0
  0
ARC
  8
DETAIL
  6
CONTINUOUS
 62
     5
 10
90.493828000000121
 20
190.0
 30
0.0
 40
1.0
 50
0.0
 51
90.0
  0
LINE
  8
DETAIL
  6
CONTINUOUS
 62
     5
 10
91.493828000000121
 20
190.0
 30
0.0
 11
91.493828000000121
 21
186.0
 31
0.0
  0
LINE
  8
DETAIL
  6
CONTINUOUS
 62
     5
 10
67.493828000000121
 20
191.0
 30
0.0
 11
90.493828000000121
 21
191.0
 31
0.0
  0
ARC
  8
DETAIL
  6
CONTINUOUS
 62
     5
 10
79.050780000000032
 20
182.0
 30
0.0
 40
2.0
 50
1.0000000000017759
 51
90.0
  0
LINE
  8
DETAIL
  6
CONTINUOUS
 62
     5
 10
178.91525799999999
 20
164.84037599999999
 30
0.0
 11
176.697461
 21
167.05817300000001
 31
0.0
  0
ARC
  8
DETAIL
  6
CONTINUOUS
 62
     5
 10
180.3294720000001
 20
166.25458900000001
 30
0.0
 40
2.0
 50
225.0000000000253
 51
269.49999999998238
  0
ARC
  8
DETAIL
  6
CONTINUOUS
 62
     5
 10
175.2832470000001
 20
165.64395999999999
 30
0.0
 40
2.0
 50
45.000000000025338
 51
89.499999999982393
  0
LINE
  8
DETAIL
  6
CONTINUOUS
 62
     5
 10
175.30070000000021
 20
167.6438830000001
 30
0.0
 11
98.765736000000061
 21
168.31179400000019
 31
0.0
  0
LINE
  8
DETAIL
  6
CONTINUOUS
 62
     5
 10
66.493828000000121
 20
184.0
 30
0.0
 11
79.050780000000032
 21
184.0
 31
0.0
  0
LINE
  8
DETAIL
  6
CONTINUOUS
 62
     5
 10
66.493828000000121
 20
186.0
 30
0.0
 11
95.517622000000074
 21
186.0
 31
0.0
  0
LINE
  8
DETAIL
  6
CONTINUOUS
 62
     5
 10
134.8021470000001
 20
62.00269000000003
 30
0.0
 11
134.8021470000001
 21
167.997309
 31
0.0
  0
LINE
  8
DETAIL
  6
CONTINUOUS
 62
     5
 10
176.1188910000001
 20
62.538982000000033
 30
0.0
 11
176.1188910000001
 21
167.46101800000019
 31
0.0
  0
LINE
  8
DETAIL
  6
CONTINUOUS
 62
     5
 10
179.49382800000009
 20
65.562467999999967
 30
0.0
 11
179.49382800000009
 21
164.43753100000001
 31
0.0
  0
LINE
  8
NOTE
  6
CENTER
 62
     4
 10
213.82820100000001
 20
115.0
 30
0.0
 11
63.315589000000053
 21
115.0
 31
0.0
  0
ARC
  8
DETAIL
  6
CONTINUOUS
 62
     5
 10
77.548204000000169
 20
206.0
 30
0.0
 40
2.0
 50
90.0
 51
172.8749839999968
  0
ARC
  8
DETAIL
  6
CONTINUOUS
 62
     5
 10
84.017074999999977
 20
206.0
 30
0.0
 40
2.0
 50
7.1250160000032468
 51
90.0
  0
LINE
  8
DETAIL
  6
CONTINUOUS
 62
     5
 10
-48.555977999999868
 20
189.196855
 30
0.0
 11
-48.624663999999939
 21
189.83970099999999
 31
0.0
  0
LINE
  8
DETAIL
  6
CONTINUOUS
 62
     5
 10
-48.624663999999939
 20
189.83970099999999
 30
0.0
 11
-48.680548999999928
 21
190.41721500000011
 31
0.0
  0
LINE
  8
DETAIL
  6
CONTINUOUS
 62
     5
 10
-49.942817999999988
 20
204.20531700000001
 30
0.0
 11
-49.958785999999918
 21
204.38787600000001
 31
0.0
  0
LINE
  8
DETAIL
  6
CONTINUOUS
 62
     5
 10
-49.958785999999918
 20
204.38787600000001
 30
0.0
 11
-49.988508999999787
 21
204.67633900000001
 31
0.0
  0
LINE
  8
DETAIL
  6
CONTINUOUS
 62
     5
 10
-49.988508999999787
 20
204.67633900000001
 30
0.0
 11
-50.022005999999919
 21
204.949873
 31
0.0
  0
LINE
  8
DETAIL
  6
CONTINUOUS
 62
     5
 10
-31.63159700000006
 20
162.5000040000001
 30
0.0
 11
-31.819030999999999
 21
162.505392
 31
0.0
  0
LINE
  8
DETAIL
  6
CONTINUOUS
 62
     5
 10
-50.022005999999919
 20
204.949873
 30
0.0
 11
-50.05873100000008
 21
205.2086810000001
 31
0.0
  0
LINE
  8
DETAIL
  6
CONTINUOUS
 62
     5
 10
-31.819030999999999
 20
162.505392
 30
0.0
 11
-32.105168000000049
 21
162.534368
 31
0.0
  0
LINE
  8
DETAIL
  6
CONTINUOUS
 62
     5
 10
-50.05873100000008
 20
205.2086810000001
 30
0.0
 11
-50.09818499999983
 21
205.45290900000001
 31
0.0
  0
LINE
  8
DETAIL
  6
CONTINUOUS
 62
     5
 10
-32.105168000000049
 20
162.534368
 30
0.0
 11
-32.386803999999977
 21
162.58819100000019
 31
0.0
  0
LINE
  8
DETAIL
  6
CONTINUOUS
 62
     5
 10
-50.09818499999983
 20
205.45290900000001
 30
0.0
 11
-50.139905999999883
 21
205.6827770000001
 31
0.0
  0
LINE
  8
DETAIL
  6
CONTINUOUS
 62
     5
 10
-32.386803999999977
 20
162.58819100000019
 30
0.0
 11
-32.662718000000041
 21
162.66648500000019
 31
0.0
  0
LINE
  8
DETAIL
  6
CONTINUOUS
 62
     5
 10
-50.139905999999883
 20
205.6827770000001
 30
0.0
 11
-50.183491999999887
 21
205.898584
 31
0.0
  0
LINE
  8
DETAIL
  6
CONTINUOUS
 62
     5
 10
-32.662718000000041
 20
162.66648500000019
 30
0.0
 11
-32.93177999999989
 21
162.7687830000001
 31
0.0
  0
LINE
  8
DETAIL
  6
CONTINUOUS
 62
     5
 10
-50.183491999999887
 20
205.898584
 30
0.0
 11
-50.228592999999819
 21
206.10070999999991
 31
0.0
  0
LINE
  8
DETAIL
  6
CONTINUOUS
 62
     5
 10
-32.93177999999989
 20
162.7687830000001
 30
0.0
 11
-33.192755000000027
 21
162.89447799999991
 31
0.0
  0
LINE
  8
DETAIL
  6
CONTINUOUS
 62
     5
 10
-50.228592999999819
 20
206.10070999999991
 30
0.0
 11
-50.274903999999879
 21
206.28958900000009
 31
0.0
  0
LINE
  8
DETAIL
  6
CONTINUOUS
 62
     5
 10
-33.192755000000027
 20
162.89447799999991
 30
0.0
 11
-33.444524000000001
 21
163.042824
 31
0.0
  0
LINE
  8
DETAIL
  6
CONTINUOUS
 62
     5
 10
-50.274903999999879
 20
206.28958900000009
 30
0.0
 11
-50.32219699999996
 21
206.465746
 31
0.0
  0
LINE
  8
DETAIL
  6
CONTINUOUS
 62
     5
 10
-33.444524000000001
 20
163.042824
 30
0.0
 11
-33.685973999999987
 21
163.21294399999999
 31
0.0
  0
LINE
  8
DETAIL
  6
CONTINUOUS
 62
     5
 10
-50.32219699999996
 20
206.465746
 30
0.0
 11
-50.370282999999972
 21
206.629727
 31
0.0
  0
LINE
  8
DETAIL
  6
CONTINUOUS
 62
     5
 10
-33.685973999999987
 20
163.21294399999999
 30
0.0
 11
-33.916002999999819
 21
163.40373299999999
 31
0.0
  0
LINE
  8
DETAIL
  6
CONTINUOUS
 62
     5
 10
-50.370282999999972
 20
206.629727
 30
0.0
 11
-50.419050999999847
 21
206.78212700000009
 31
0.0
  0
LINE
  8
DETAIL
  6
CONTINUOUS
 62
     5
 10
-33.916002999999819
 20
163.40373299999999
 30
0.0
 11
-34.133838999999853
 21
163.6142110000001
 31
0.0
  0
LINE
  8
DETAIL
  6
CONTINUOUS
 62
     5
 10
-50.419050999999847
 20
206.78212700000009
 30
0.0
 11
-50.468474999999899
 21
206.92363700000001
 31
0.0
  0
LINE
  8
DETAIL
  6
CONTINUOUS
 62
     5
 10
-34.133838999999853
 20
163.6142110000001
 30
0.0
 11
-34.139631000000008
 21
163.62068800000009
 31
0.0
  0
LINE
  8
DETAIL
  6
CONTINUOUS
 62
     5
 10
-50.468474999999899
 20
206.92363700000001
 30
0.0
 11
-50.518448999999919
 21
207.05456100000001
 31
0.0
  0
LINE
  8
DETAIL
  6
CONTINUOUS
 62
     5
 10
-50.518448999999919
 20
207.05456100000001
 30
0.0
 11
-50.568948999999982
 21
207.17531199999999
 31
0.0
  0
LINE
  8
DETAIL
  6
CONTINUOUS
 62
     5
 10
-50.568948999999982
 20
207.17531199999999
 30
0.0
 11
-50.620086999999778
 21
207.2864920000001
 31
0.0
  0
LINE
  8
DETAIL
  6
CONTINUOUS
 62
     5
 10
-50.620086999999778
 20
207.2864920000001
 30
0.0
 11
-50.672000999999909
 21
207.38859400000001
 31
0.0
  0
LINE
  8
DETAIL
  6
CONTINUOUS
 62
     5
 10
-50.672000999999909
 20
207.38859400000001
 30
0.0
 11
-50.72516799999994
 21
207.48252500000001
 31
0.0
  0
LINE
  8
DETAIL
  6
CONTINUOUS
 62
     5
 10
-50.72516799999994
 20
207.48252500000001
 30
0.0
 11
-50.780096999999842
 21
207.568905
 31
0.0
  0
LINE
  8
DETAIL
  6
CONTINUOUS
 62
     5
 10
-50.780096999999842
 20
207.568905
 30
0.0
 11
-50.84128399999986
 21
207.65318600000001
 31
0.0
  0
LINE
  8
DETAIL
  6
CONTINUOUS
 62
     5
 10
-47.456023999999843
 20
179.13433300000011
 30
0.0
 11
-47.927752000000048
 21
183.28539900000001
 31
0.0
  0
LINE
  8
DETAIL
  6
CONTINUOUS
 62
     5
 10
-47.927752000000048
 20
183.28539900000001
 30
0.0
 11
-48.386675999999852
 21
187.538285
 31
0.0
  0
LINE
  8
DETAIL
  6
CONTINUOUS
 62
     5
 10
-48.386675999999852
 20
187.538285
 30
0.0
 11
-48.818463000000072
 21
191.76828800000001
 31
0.0
  0
LINE
  8
DETAIL
  6
CONTINUOUS
 62
     5
 10
-48.818463000000072
 20
191.76828800000001
 30
0.0
 11
-49.223238999999921
 21
195.97524800000011
 31
0.0
  0
LINE
  8
DETAIL
  6
CONTINUOUS
 62
     5
 10
-49.223238999999921
 20
195.97524800000011
 30
0.0
 11
-49.601106000000073
 21
200.15900199999999
 31
0.0
  0
LINE
  8
DETAIL
  6
CONTINUOUS
 62
     5
 10
-49.601106000000073
 20
200.15900199999999
 30
0.0
 11
-49.942816999999877
 21
204.205319
 31
0.0
  0
LINE
  8
DETAIL
  6
CONTINUOUS
 62
     5
 10
86.001631000000089
 20
206.24806899999999
 30
0.0
 11
87.907639000000017
 21
191.0
 31
0.0
  0
LINE
  8
DETAIL
  6
CONTINUOUS
 62
     5
 10
-36.593613999999889
 20
172.34888000000001
 30
0.0
 11
-36.691859000000022
 21
172.64274399999999
 31
0.0
  0
LINE
  8
DETAIL
  6
CONTINUOUS
 62
     5
 10
-36.691859000000022
 20
172.64274399999999
 30
0.0
 11
-36.804139999999961
 21
172.92828900000009
 31
0.0
  0
LINE
  8
DETAIL
  6
CONTINUOUS
 62
     5
 10
-36.804139999999961
 20
172.92828900000009
 30
0.0
 11
-36.929918999999927
 21
173.20415299999999
 31
0.0
  0
LINE
  8
DETAIL
  6
CONTINUOUS
 62
     5
 10
-36.929918999999927
 20
173.20415299999999
 30
0.0
 11
-37.068639999999959
 21
173.46912499999999
 31
0.0
  0
LINE
  8
DETAIL
  6
CONTINUOUS
 62
     5
 10
-37.068639999999959
 20
173.46912499999999
 30
0.0
 11
-37.21961599999986
 21
173.7219630000001
 31
0.0
  0
LINE
  8
DETAIL
  6
CONTINUOUS
 62
     5
 10
-37.21961599999986
 20
173.7219630000001
 30
0.0
 11
-37.382114000000001
 21
173.96149600000001
 31
0.0
  0
LINE
  8
DETAIL
  6
CONTINUOUS
 62
     5
 10
-37.382114000000001
 20
173.96149600000001
 30
0.0
 11
-37.555335999999897
 21
174.1866659999998
 31
0.0
  0
LINE
  8
DETAIL
  6
CONTINUOUS
 62
     5
 10
-37.555335999999897
 20
174.1866659999998
 30
0.0
 11
-37.738448000000062
 21
174.396479
 31
0.0
  0
LINE
  8
DETAIL
  6
CONTINUOUS
 62
     5
 10
-37.738448000000062
 20
174.396479
 30
0.0
 11
-37.930563999999777
 21
174.59004300000001
 31
0.0
  0
LINE
  8
DETAIL
  6
CONTINUOUS
 62
     5
 10
-37.930563999999777
 20
174.59004300000001
 30
0.0
 11
-38.130772999999863
 21
174.766536
 31
0.0
  0
LINE
  8
DETAIL
  6
CONTINUOUS
 62
     5
 10
-38.130772999999863
 20
174.766536
 30
0.0
 11
-38.338129999999857
 21
174.92524900000001
 31
0.0
  0
LINE
  8
DETAIL
  6
CONTINUOUS
 62
     5
 10
-38.338129999999857
 20
174.92524900000001
 30
0.0
 11
-38.551688000000013
 21
175.06555
 31
0.0
  0
LINE
  8
DETAIL
  6
CONTINUOUS
 62
     5
 10
-38.551688000000013
 20
175.06555
 30
0.0
 11
-38.770403999999871
 21
175.18687499999999
 31
0.0
  0
LINE
  8
DETAIL
  6
CONTINUOUS
 62
     5
 10
-38.770403999999871
 20
175.18687499999999
 30
0.0
 11
-38.993223999999827
 21
175.2887549999999
 31
0.0
  0
LINE
  8
DETAIL
  6
CONTINUOUS
 62
     5
 10
-38.993223999999827
 20
175.2887549999999
 30
0.0
 11
-39.219012000000021
 21
175.3708350000002
 31
0.0
  0
LINE
  8
DETAIL
  6
CONTINUOUS
 62
     5
 10
-39.219012000000021
 20
175.3708350000002
 30
0.0
 11
-39.446625999999917
 21
175.43286699999999
 31
0.0
  0
LINE
  8
DETAIL
  6
CONTINUOUS
 62
     5
 10
-39.446625999999917
 20
175.43286699999999
 30
0.0
 11
-39.674858999999969
 21
175.4747450000001
 31
0.0
  0
LINE
  8
DETAIL
  6
CONTINUOUS
 62
     5
 10
-39.674858999999969
 20
175.4747450000001
 30
0.0
 11
-39.902357999999822
 21
175.496499
 31
0.0
  0
LINE
  8
DETAIL
  6
CONTINUOUS
 62
     5
 10
73.532639000000017
 20
183.0
 30
0.0
 11
73.532639000000017
 21
184.0
 31
0.0
  0
LINE
  8
DETAIL
  6
CONTINUOUS
 62
     5
 10
-53.211767000000009
 20
208.0
 30
0.0
 11
-51.465054000000009
 21
208.0
 31
0.0
  0
LINE
  8
DETAIL
  6
CONTINUOUS
 62
     5
 10
-39.902357999999822
 20
175.496499
 30
0.0
 11
-40.036713999999847
 21
175.49999600000001
 31
0.0
  0
LINE
  8
DETAIL
  6
CONTINUOUS
 62
     5
 10
77.548204000000169
 20
208.0
 30
0.0
 11
84.017074999999977
 21
208.0
 31
0.0
  0
LINE
  8
DETAIL
  6
CONTINUOUS
 62
     5
 10
-36.542074999999841
 20
172.17097799999999
 30
0.0
 11
-36.593613999999889
 21
172.34888000000001
 31
0.0
  0
LINE
  8
DETAIL
  6
CONTINUOUS
 62
     5
 10
-34.139631000000008
 20
163.62068800000009
 30
0.0
 11
-34.913011999999981
 21
166.32261800000001
 31
0.0
  0
LINE
  8
DETAIL
  6
CONTINUOUS
 62
     5
 10
-45.497242999999798
 20
175.5
 30
0.0
 11
-40.036815999999817
 21
175.5
 31
0.0
  0
LINE
  8
DETAIL
  6
CONTINUOUS
 62
     5
 10
-34.913011999999981
 20
166.32261800000001
 30
0.0
 11
-35.473427999999792
 21
168.3106650000002
 31
0.0
  0
LINE
  8
DETAIL
  6
CONTINUOUS
 62
     5
 10
-35.473427999999792
 20
168.3106650000002
 30
0.0
 11
-36.026581000000078
 21
170.29718099999999
 31
0.0
  0
LINE
  8
DETAIL
  6
CONTINUOUS
 62
     5
 10
-45.497300000000003
 20
175.50000299999999
 30
0.0
 11
-45.599385999999868
 21
175.50575699999999
 31
0.0
  0
LINE
  8
DETAIL
  6
CONTINUOUS
 62
     5
 10
-45.599385999999868
 20
175.50575699999999
 30
0.0
 11
-45.738680999999808
 21
175.53310200000001
 31
0.0
  0
LINE
  8
DETAIL
  6
CONTINUOUS
 62
     5
 10
-45.738680999999808
 20
175.53310200000001
 30
0.0
 11
-45.870607999999947
 21
175.58079600000011
 31
0.0
  0
LINE
  8
DETAIL
  6
CONTINUOUS
 62
     5
 10
-45.870607999999947
 20
175.58079600000011
 30
0.0
 11
-45.998469999999998
 21
175.6481680000002
 31
0.0
  0
LINE
  8
DETAIL
  6
CONTINUOUS
 62
     5
 10
-45.998469999999998
 20
175.6481680000002
 30
0.0
 11
-46.124227999999903
 21
175.735648
 31
0.0
  0
LINE
  8
DETAIL
  6
CONTINUOUS
 62
     5
 10
-46.124227999999903
 20
175.735648
 30
0.0
 11
-46.247339999999888
 21
175.84279799999999
 31
0.0
  0
LINE
  8
DETAIL
  6
CONTINUOUS
 62
     5
 10
-46.247339999999888
 20
175.84279799999999
 30
0.0
 11
-46.367671999999857
 21
175.9695379999998
 31
0.0
  0
LINE
  8
DETAIL
  6
CONTINUOUS
 62
     5
 10
73.657639000000017
 20
191.0
 30
0.0
 11
75.563648000000057
 21
206.24806899999999
 31
0.0
  0
LINE
  8
DETAIL
  6
CONTINUOUS
 62
     5
 10
-46.367671999999857
 20
175.9695379999998
 30
0.0
 11
-46.484837999999847
 21
176.115714
 31
0.0
  0
LINE
  8
DETAIL
  6
CONTINUOUS
 62
     5
 10
-46.484837999999847
 20
176.115714
 30
0.0
 11
-46.598657000000003
 21
176.28155899999999
 31
0.0
  0
LINE
  8
DETAIL
  6
CONTINUOUS
 62
     5
 10
-46.598657000000003
 20
176.28155899999999
 30
0.0
 11
-46.708638000000057
 21
176.467027
 31
0.0
  0
LINE
  8
DETAIL
  6
CONTINUOUS
 62
     5
 10
-46.708638000000057
 20
176.467027
 30
0.0
 11
-46.814682999999832
 21
176.67290399999999
 31
0.0
  0
LINE
  8
DETAIL
  6
CONTINUOUS
 62
     5
 10
-46.814682999999832
 20
176.67290399999999
 30
0.0
 11
-46.915661999999877
 21
176.89799500000001
 31
0.0
  0
LINE
  8
DETAIL
  6
CONTINUOUS
 62
     5
 10
-46.915661999999877
 20
176.89799500000001
 30
0.0
 11
-47.010861999999861
 21
177.14148900000001
 31
0.0
  0
LINE
  8
DETAIL
  6
CONTINUOUS
 62
     5
 10
-47.010861999999861
 20
177.14148900000001
 30
0.0
 11
-47.09958000000006
 21
177.402197
 31
0.0
  0
LINE
  8
DETAIL
  6
CONTINUOUS
 62
     5
 10
-47.09958000000006
 20
177.402197
 30
0.0
 11
-47.181224999999813
 21
177.6788359999999
 31
0.0
  0
LINE
  8
DETAIL
  6
CONTINUOUS
 62
     5
 10
-47.181224999999813
 20
177.6788359999999
 30
0.0
 11
-47.255323999999973
 21
177.9700740000001
 31
0.0
  0
LINE
  8
DETAIL
  6
CONTINUOUS
 62
     5
 10
-47.255323999999973
 20
177.9700740000001
 30
0.0
 11
-47.321461999999883
 21
178.27445100000011
 31
0.0
  0
LINE
  8
DETAIL
  6
CONTINUOUS
 62
     5
 10
-47.321461999999883
 20
178.27445100000011
 30
0.0
 11
-47.379320999999891
 21
178.59057600000011
 31
0.0
  0
LINE
  8
DETAIL
  6
CONTINUOUS
 62
     5
 10
-47.379320999999891
 20
178.59057600000011
 30
0.0
 11
-47.428614999999809
 21
178.9169000000002
 31
0.0
  0
LINE
  8
DETAIL
  6
CONTINUOUS
 62
     5
 10
-47.428614999999809
 20
178.9169000000002
 30
0.0
 11
-47.456020999999957
 21
179.13432299999999
 31
0.0
  0
LINE
  8
DETAIL
  6
CONTINUOUS
 62
     5
 10
-36.026581000000078
 20
170.29718099999999
 30
0.0
 11
-36.542073999999957
 21
172.17098500000009
 31
0.0
  0
LINE
  8
DETAIL
  6
CONTINUOUS
 62
     5
 10
-31.765777000000071
 20
162.5
 30
0.0
 11
72.405138999999963
 21
162.5
 31
0.0
  0
LINE
  8
DETAIL
  6
CONTINUOUS
 62
     5
 10
-97.73699600000009
 20
71.034903999999983
 30
0.0
 11
-98.715088999999807
 21
15.0
 31
0.0
  0
LINE
  8
DETAIL
  6
CONTINUOUS
 62
     5
 10
-91.603290000000015
 20
153.01745199999991
 30
0.0
 11
-92.982849999999871
 21
73.982523000000015
 31
0.0
  0
ARC
  8
DETAIL
  6
CONTINUOUS
 62
     5
 10
-95.737298999999894
 20
71.0
 30
0.0
 40
2.0
 50
90.000061000000926
 51
179.00000099998911
  0
ARC
  8
DETAIL
  6
CONTINUOUS
 62
     5
 10
-93.982696999999916
 20
74.0
 30
0.0
 40
1.0
 50
270.0
 51
358.99863600000867
  0
ARC
  8
DETAIL
  6
CONTINUOUS
 62
     5
 10
-90.603442000000086
 20
153.0
 30
0.0
 40
1.0
 50
90.0
 51
179.00000000001131
  0
ARC
  8
DETAIL
  6
CONTINUOUS
 62
     5
 10
-53.211767000000009
 20
207.5
 30
0.0
 40
0.5
 50
90.0
 51
154.74639899999769
  0
LINE
  8
DETAIL
  6
CONTINUOUS
 62
     5
 10
-50.84128399999986
 20
207.65318600000001
 30
0.0
 11
-50.903452999999899
 21
207.72689299999999
 31
0.0
  0
LINE
  8
DETAIL
  6
CONTINUOUS
 62
     5
 10
-50.903452999999899
 20
207.72689299999999
 30
0.0
 11
-50.971340999999939
 21
207.79489599999999
 31
0.0
  0
LINE
  8
DETAIL
  6
CONTINUOUS
 62
     5
 10
-50.971340999999939
 20
207.79489599999999
 30
0.0
 11
-51.04708299999993
 21
207.85701399999991
 31
0.0
  0
LINE
  8
DETAIL
  6
CONTINUOUS
 62
     5
 10
-51.04708299999993
 20
207.85701399999991
 30
0.0
 11
-51.131864999999827
 21
207.91138699999999
 31
0.0
  0
LINE
  8
DETAIL
  6
CONTINUOUS
 62
     5
 10
-51.131864999999827
 20
207.91138699999999
 30
0.0
 11
-51.227805999999873
 21
207.9559829999998
 31
0.0
  0
LINE
  8
DETAIL
  6
CONTINUOUS
 62
     5
 10
-51.227805999999873
 20
207.9559829999998
 30
0.0
 11
-51.332425999999941
 21
207.9864180000001
 31
0.0
  0
LINE
  8
DETAIL
  6
CONTINUOUS
 62
     5
 10
-51.332425999999941
 20
207.9864180000001
 30
0.0
 11
-51.440605000000012
 21
207.99942999999999
 31
0.0
  0
LINE
  8
DETAIL
  6
CONTINUOUS
 62
     5
 10
-50.83784199999991
 20
207.648762
 30
0.0
 11
-50.89966800000002
 21
207.7227300000001
 31
0.0
  0
LINE
  8
DETAIL
  6
CONTINUOUS
 62
     5
 10
-50.89966800000002
 20
207.7227300000001
 30
0.0
 11
-50.967100999999957
 21
207.7910049999999
 31
0.0
  0
LINE
  8
DETAIL
  6
CONTINUOUS
 62
     5
 10
-50.967100999999957
 20
207.7910049999999
 30
0.0
 11
-51.042243999999982
 21
207.85344599999999
 31
0.0
  0
LINE
  8
DETAIL
  6
CONTINUOUS
 62
     5
 10
-51.042243999999982
 20
207.85344599999999
 30
0.0
 11
-51.126324999999952
 21
207.9082830000001
 31
0.0
  0
LINE
  8
DETAIL
  6
CONTINUOUS
 62
     5
 10
-51.126324999999952
 20
207.9082830000001
 30
0.0
 11
-51.221507999999858
 21
207.953565
 31
0.0
  0
LINE
  8
DETAIL
  6
CONTINUOUS
 62
     5
 10
-51.221507999999858
 20
207.953565
 30
0.0
 11
-51.325464999999888
 21
207.98494700000001
 31
0.0
  0
LINE
  8
DETAIL
  6
CONTINUOUS
 62
     5
 10
-51.325464999999888
 20
207.98494700000001
 30
0.0
 11
-51.434510000000053
 21
207.99927600000001
 31
0.0
  0
LINE
  8
DETAIL
  6
CONTINUOUS
 62
     5
 10
-51.434510000000053
 20
207.99927600000001
 30
0.0
 11
-51.462902999999869
 21
207.99999099999999
 31
0.0
  0
LINE
  8
DETAIL
  6
CONTINUOUS
 62
     5
 10
-31.44994499999984
 20
190.5
 30
0.0
 11
20.449946000000178
 21
190.5
 31
0.0
  0
ARC
  8
DETAIL
  6
CONTINUOUS
 62
     5
 10
20.450041000000059
 20
185.0
 30
0.0
 40
5.5
 50
0.0
 51
90.0
  0
LINE
  8
DETAIL
  6
CONTINUOUS
 62
     5
 10
25.950041000000059
 20
185.0
 30
0.0
 11
25.950041000000059
 21
162.5
 31
0.0
  0
ARC
  8
DETAIL
  6
CONTINUOUS
 62
     5
 10
-31.449959000000039
 20
185.0
 30
0.0
 40
5.5
 50
90.0
 51
180.0
  0
LINE
  8
DETAIL
  6
CONTINUOUS
 62
     5
 10
-36.949959000000042
 20
185.0
 30
0.0
 11
-36.949959000000042
 21
173.653637
 31
0.0
  0
ARC
  8
OUTLINE
  6
CONTINUOUS
 62
     3
 10
20.450041000000059
 20
185.0
 30
0.0
 40
5.5
 50
0.0
 51
90.0
  0
LINE
  8
OUTLINE
  6
CONTINUOUS
 62
     3
 10
-31.44994499999984
 20
190.5
 30
0.0
 11
20.449946000000178
 21
190.5
 31
0.0
  0
ARC
  8
OUTLINE
  6
CONTINUOUS
 62
     3
 10
-31.449959000000039
 20
185.0
 30
0.0
 40
5.5
 50
90.0
 51
180.0
  0
LINE
  8
OUTLINE
  6
CONTINUOUS
 62
     3
 10
25.950041000000059
 20
185.0
 30
0.0
 11
25.950041000000059
 21
162.5
 31
0.0
  0
LINE
  8
OUTLINE
  6
CONTINUOUS
 62
     3
 10
-36.949959000000042
 20
185.0
 30
0.0
 11
-36.949959000000042
 21
173.2703710000001
 31
0.0
  0
LINE
  8
NOTE
  6
CENTER
 62
     4
 10
-140.0
 20
5.8021949999999833
 30
0.0
 11
-140.0
 21
-5.4178679999999986
 31
0.0
  0
LINE
  8
DETAIL
  6
CONTINUOUS
 62
     5
 10
-127.0
 20
15.0
 30
0.0
 11
-127.0
 21
0.0
 31
0.0
  0
LINE
  8
NOTE
  6
CENTER
 62
     4
 10
-65.0
 20
5.8021949999999833
 30
0.0
 11
-65.0
 21
-5.4178679999999986
 31
0.0
  0
LINE
  8
NOTE
  6
CENTER
 62
     4
 10
65.0
 20
5.8021949999999833
 30
0.0
 11
65.0
 21
-5.4178679999999986
 31
0.0
  0
LINE
  8
NOTE
  6
CENTER
 62
     4
 10
140.0
 20
5.8021949999999833
 30
0.0
 11
140.0
 21
-5.4178679999999986
 31
0.0
  0
LINE
  8
DETAIL
  6
CONTINUOUS
 62
     5
 10
127.0
 20
15.0
 30
0.0
 11
127.0
 21
0.0
 31
0.0
  0
LINE
  8
OUTLINE
  6
CONTINUOUS
 62
     3
 10
-127.0
 20
15.0
 30
0.0
 11
-127.0
 21
0.0
 31
0.0
  0
LINE
  8
OUTLINE
  6
CONTINUOUS
 62
     3
 10
127.0
 20
15.0
 30
0.0
 11
127.0
 21
0.0
 31
0.0
  0
LINE
  8
DETAIL
  6
CONTINUOUS
 62
     5
 10
0.0
 20
-20.0
 30
0.0
 11
-124.0
 21
-20.0
 31
0.0
  0
ARC
  8
DETAIL
  6
CONTINUOUS
 62
     5
 10
-154.0
 20
-6.5390469999999823
 30
0.0
 40
6.0
 50
180.0
 51
242.98452899998861
  0
ARC
  8
DETAIL
  6
CONTINUOUS
 62
     5
 10
-123.0
 20
54.261286000000041
 30
0.0
 40
74.247202000000001
 50
242.98452899998861
 51
269.22828699999968
  0
LINE
  8
DETAIL
  6
CONTINUOUS
 62
     5
 10
-122.5
 20
-20.0
 30
0.0
 11
-122.5
 21
0.0
 31
0.0
  0
LINE
  8
DETAIL
  6
CONTINUOUS
 62
     5
 10
-124.0
 20
-20.0
 30
0.0
 11
-124.0
 21
0.0
 31
0.0
  0
LINE
  8
DETAIL
  6
CONTINUOUS
 62
     5
 10
-124.0
 20
-7.0
 30
0.0
 11
-158.7030249999998
 21
-7.0
 31
0.0
  0
LINE
  8
DETAIL
  6
CONTINUOUS
 62
     5
 10
-122.5
 20
-20.0
 30
0.0
 11
-122.5
 21
0.0
 31
0.0
  0
LINE
  8
DETAIL
  6
CONTINUOUS
 62
     5
 10
-122.5
 20
-7.0
 30
0.0
 11
0.0
 21
-7.0
 31
0.0
  0
LINE
  8
DETAIL
  6
CONTINUOUS
 62
     5
 10
-160.0
 20
0.0
 30
0.0
 11
0.0
 21
0.0
 31
0.0
  0
LINE
  8
DETAIL
  6
CONTINUOUS
 62
     5
 10
-160.0
 20
0.0
 30
0.0
 11
-160.0
 21
-6.4677110000000084
 31
0.0
  0
LINE
  8
DETAIL
  6
CONTINUOUS
 62
     5
 10
-160.0
 20
0.0
 30
0.0
 11
-160.0
 21
-6.5390469999999823
 31
0.0
  0
LINE
  8
DETAIL
  6
CONTINUOUS
 62
     5
 10
0.0
 20
-20.0
 30
0.0
 11
124.0
 21
-20.0
 31
0.0
  0
LINE
  8
DETAIL
  6
CONTINUOUS
 62
     5
 10
122.5
 20
-7.0
 30
0.0
 11
0.0
 21
-7.0
 31
0.0
  0
LINE
  8
DETAIL
  6
CONTINUOUS
 62
     5
 10
160.0
 20
0.0
 30
0.0
 11
0.0
 21
0.0
 31
0.0
  0
ARC
  8
DETAIL
  6
CONTINUOUS
 62
     5
 10
123.0
 20
54.261286000000041
 30
0.0
 40
74.247202000000001
 50
270.77171300000032
 51
297.01547100001142
  0
LINE
  8
DETAIL
  6
CONTINUOUS
 62
     5
 10
124.0
 20
-7.0
 30
0.0
 11
158.70302600000011
 21
-7.0
 31
0.0
  0
ARC
  8
DETAIL
  6
CONTINUOUS
 62
     5
 10
154.0
 20
-6.5390469999999823
 30
0.0
 40
6.0
 50
297.01547100001142
 51
0.0
  0
LINE
  8
DETAIL
  6
CONTINUOUS
 62
     5
 10
160.0
 20
0.0
 30
0.0
 11
160.0
 21
-6.5390469999999823
 31
0.0
  0
LINE
  8
DETAIL
  6
CONTINUOUS
 62
     5
 10
122.5
 20
-20.0
 30
0.0
 11
122.5
 21
0.0
 31
0.0
  0
LINE
  8
DETAIL
  6
CONTINUOUS
 62
     5
 10
122.5
 20
-20.0
 30
0.0
 11
122.5
 21
0.0
 31
0.0
  0
LINE
  8
DETAIL
  6
CONTINUOUS
 62
     5
 10
124.0
 20
-20.0
 30
0.0
 11
124.0
 21
0.0
 31
0.0
  0
LINE
  8
DETAIL
  6
CONTINUOUS
 62
     5
 10
160.0
 20
0.0
 30
0.0
 11
160.0
 21
-4.8998889999999156
 31
0.0
  0
LINE
  8
OUTLINE
  6
CONTINUOUS
 62
     3
 10
-160.0
 20
0.0
 30
0.0
 11
-127.0
 21
0.0
 31
0.0
  0
LINE
  8
OUTLINE
  6
CONTINUOUS
 62
     3
 10
0.0
 20
-20.0
 30
0.0
 11
-124.0
 21
-20.0
 31
0.0
  0
ARC
  8
OUTLINE
  6
CONTINUOUS
 62
     3
 10
-154.0
 20
-6.5390469999999823
 30
0.0
 40
6.0
 50
180.0
 51
242.98452899998861
  0
ARC
  8
OUTLINE
  6
CONTINUOUS
 62
     3
 10
-123.0
 20
54.261287000000038
 30
0.0
 40
74.247202000000001
 50
242.98452899998861
 51
269.22828699999968
  0
LINE
  8
OUTLINE
  6
CONTINUOUS
 62
     3
 10
-160.0
 20
0.0
 30
0.0
 11
-160.0
 21
-6.4677110000000084
 31
0.0
  0
LINE
  8
OUTLINE
  6
CONTINUOUS
 62
     3
 10
-160.0
 20
0.0
 30
0.0
 11
-160.0
 21
-6.5390469999999823
 31
0.0
  0
LINE
  8
OUTLINE
  6
CONTINUOUS
 62
     3
 10
160.0
 20
0.0
 30
0.0
 11
127.0
 21
0.0
 31
0.0
  0
LINE
  8
OUTLINE
  6
CONTINUOUS
 62
     3
 10
0.0
 20
-20.0
 30
0.0
 11
124.0
 21
-20.0
 31
0.0
  0
ARC
  8
OUTLINE
  6
CONTINUOUS
 62
     3
 10
123.0
 20
54.261287000000038
 30
0.0
 40
74.247202000000001
 50
270.77171300000032
 51
297.01547100001142
  0
ARC
  8
OUTLINE
  6
CONTINUOUS
 62
     3
 10
154.0
 20
-6.5390469999999823
 30
0.0
 40
6.0
 50
297.01547100001142
 51
0.0
  0
LINE
  8
OUTLINE
  6
CONTINUOUS
 62
     3
 10
160.0
 20
0.0
 30
0.0
 11
160.0
 21
-6.5390469999999823
 31
0.0
  0
LINE
  8
OUTLINE
  6
CONTINUOUS
 62
     3
 10
160.0
 20
0.0
 30
0.0
 11
160.0
 21
-4.899887999999919
 31
0.0
  0
LINE
  8
DETAIL
  6
CONTINUOUS
 62
     5
 10
127.0
 20
15.0
 30
0.0
 11
-127.0
 21
15.0
 31
0.0
  0
LINE
  8
OUTLINE
  6
CONTINUOUS
 62
     3
 10
-98.715088999999807
 20
15.0
 30
0.0
 11
-127.0
 21
15.0
 31
0.0
  0
LINE
  8
OUTLINE
  6
CONTINUOUS
 62
     3
 10
127.0
 20
15.0
 30
0.0
 11
100.467832
 21
15.0
 31
0.0
  0
LINE
  8
SIZE
  6
CONTINUOUS
 62
    30
 10
147.0
 20
15.0
 30
0.0
 11
282.96409896397932
 21
14.99999999999994
 31
0.0
  0
LINE
  8
SIZE
  6
CONTINUOUS
 62
    30
 10
180.0
 20
0.0
 30
0.0
 11
282.96409896397932
 21
-0.0000000000000568
 31
0.0
  0
LINE
  8
SIZE
  6
CONTINUOUS
 62
    30
 10
262.96409896397932
 20
26.99999999999994
 30
0.0
 11
262.96409896397932
 21
38.999999999999943
 31
0.0
  0
LINE
  8
SIZE
  6
CONTINUOUS
 62
    30
 10
262.96409896397932
 20
-12.0
 30
0.0
 11
262.96409896397932
 21
-163.75527766334591
 31
0.0
  0
LINE
  8
SIZE
  6
CONTINUOUS
 62
    30
 10
262.96409896397932
 20
14.99999999999994
 30
0.0
 11
262.96409896397932
 21
-0.0000000000000568
 31
0.0
  0
CIRCLE
  8
SIZE
  6
CONTINUOUS
 62
    30
 10
262.96409896397932
 20
14.99999999999994
 30
0.0
 40
6.0
  0
LINE
  8
SIZE
  6
CONTINUOUS
 62
    30
 10
262.96409896397932
 20
14.99999999999994
 30
0.0
 11
262.96409896397932
 21
26.99999999999994
 31
0.0
  0
CIRCLE
  8
SIZE
  6
CONTINUOUS
 62
    30
 10
262.96409896397932
 20
-0.0000000000000568
 30
0.0
 40
6.0
  0
LINE
  8
SIZE
  6
CONTINUOUS
 62
    30
 10
262.96409896397932
 20
-0.0000000000000568
 30
0.0
 11
262.96409896397932
 21
-12.0
 31
0.0
  0
TEXT
  8
SIZE
  6
CONTINUOUS
 62
    30
 10
237.9640989639793
 20
-138.75527766334591
 30
0.0
 40
64.0
  1
15
 50
90.0
 41
0.9
 72
     1
 11
237.9640989639793
 21
-97.612420520488797
 31
0.0
  0
POINT
  8
DEFPOINTS
  6
CONTINUOUS
 62
    30
 10
127.0
 20
15.0
 30
0.0
  0
POINT
  8
DEFPOINTS
  6
CONTINUOUS
 62
    30
 10
160.0
 20
0.0
 30
0.0
  0
POINT
  8
DEFPOINTS
  6
CONTINUOUS
 62
    30
 10
262.96409896397932
 20
-0.0000000000000568
 30
0.0
  0
TEXT
  8
NOTE
  6
CONTINUOUS
 62
     4
 10
-628.85036906209643
 20
297.94585082546092
 30
0.0
 40
63.999999999999993
  1
8-φ5
 41
0.9
  0
LINE
  8
NOTE
  6
CONTINUOUS
 62
     4
 10
-657.27608208040567
 20
265.00379997897869
 30
0.0
 11
-375.28356798458663
 21
265.00379997897869
 31
0.0
  0
ENDSEC
  0
EOF
