  0
SECTION
  2
HEADER
  9
$ACADVER
  1
AC1009
  9
$DWGCODEPAGE
  3
dos932
  9
$INSBASE
 10
0.0
 20
0.0
 30
0.0
  9
$EXTMIN
 10
-526.60215617693393
 20
-405.990588834964
 30
-0.0015258207003583
  9
$EXTMAX
 10
1051.8447991947689
 20
861.00769876619779
 30
0.0000000349246037
  9
$LIMMIN
 10
-2970.0
 20
-2100.0
  9
$LIMMAX
 10
2970.0
 20
2100.0
  9
$ORTHOMODE
 70
     1
  9
$REGENMODE
 70
     1
  9
$FILLMODE
 70
     1
  9
$QTEXTMODE
 70
     0
  9
$MIRRTEXT
 70
     0
  9
$LTSCALE
 40
20.0
  9
$ATTMODE
 70
     1
  9
$TEXTSIZE
 40
64.0
  9
$TRACEWID
 40
0.05
  9
$TEXTSTYLE
  7
STANDARD
  9
$CLAYER
  8
SIZE
  9
$CELTYPE
  6
CONTINUOUS
  9
$CECOLOR
 62
     7
  9
$DIMSCALE
 40
1.0
  9
$DIMASZ
 40
12.0
  9
$DIMEXO
 40
20.0
  9
$DIMDLI
 40
200.0
  9
$DIMRND
 40
0.0
  9
$DIMDLE
 40
0.0
  9
$DIMEXE
 40
20.0
  9
$DIMTP
 40
0.0
  9
$DIMTM
 40
0.0
  9
$DIMTXT
 40
64.0
  9
$DIMCEN
 40
0.09
  9
$DIMTSZ
 40
0.0
  9
$DIMTOL
 70
     0
  9
$DIMLIM
 70
     0
  9
$DIMTIH
 70
     0
  9
$DIMTOH
 70
     0
  9
$DIMSE1
 70
     0
  9
$DIMSE2
 70
     0
  9
$DIMTAD
 70
     1
  9
$DIMZIN
 70
     8
  9
$DIMBLK
  1

  9
$DIMASO
 70
     1
  9
$DIMSHO
 70
     0
  9
$DIMPOST
  1

  9
$DIMAPOST
  1

  9
$DIMALT
 70
     0
  9
$DIMALTD
 70
     2
  9
$DIMALTF
 40
25.399999999999999
  9
$DIMLFAC
 40
1.0
  9
$DIMTOFL
 70
     1
  9
$DIMTVP
 40
0.0
  9
$DIMTIX
 70
     1
  9
$DIMSOXD
 70
     0
  9
$DIMSAH
 70
     0
  9
$DIMBLK1
  1

  9
$DIMBLK2
  1

  9
$DIMSTYLE
  2
STANDARD
  9
$DIMCLRD
 70
     7
  9
$DIMCLRE
 70
     7
  9
$DIMCLRT
 70
     7
  9
$DIMTFAC
 40
1.0
  9
$DIMGAP
 40
25.0
  9
$LUNITS
 70
     2
  9
$LUPREC
 70
     4
  9
$SKETCHINC
 40
0.1
  9
$FILLETRAD
 40
3.0
  9
$AUNITS
 70
     1
  9
$AUPREC
 70
     3
  9
$MENU
  1
ACAD
  9
$ELEVATION
 40
0.0
  9
$PELEVATION
 40
0.0
  9
$THICKNESS
 40
0.0
  9
$LIMCHECK
 70
     0
  9
$CHAMFERA
 40
0.0
  9
$CHAMFERB
 40
0.0
  9
$SKPOLY
 70
     0
  9
$TDCREATE
 40
2453019.62301037
  9
$TDUPDATE
 40
2459025.49254257
  9
$TDINDWG
 40
1.7131872801
  9
$TDUSRTIMER
 40
1.7131872801
  9
$USRTIMER
 70
     1
  9
$ANGBASE
 50
0.0
  9
$ANGDIR
 70
     0
  9
$PDMODE
 70
     3
  9
$PDSIZE
 40
-2.0
  9
$PLINEWID
 40
0.0
  9
$SPLFRAME
 70
     0
  9
$SPLINETYPE
 70
     6
  9
$SPLINESEGS
 70
     8
  9
$SURFTAB1
 70
     6
  9
$SURFTAB2
 70
     6
  9
$SURFTYPE
 70
     6
  9
$SURFU
 70
     6
  9
$SURFV
 70
     6
  9
$UCSNAME
  2

  9
$UCSORG
 10
0.0
 20
0.0
 30
0.0
  9
$UCSXDIR
 10
1.0
 20
0.0
 30
0.0
  9
$UCSYDIR
 10
0.0
 20
1.0
 30
0.0
  9
$PUCSNAME
  2

  9
$PUCSORG
 10
0.0
 20
0.0
 30
0.0
  9
$PUCSXDIR
 10
1.0
 20
0.0
 30
0.0
  9
$PUCSYDIR
 10
0.0
 20
1.0
 30
0.0
  9
$USERI1
 70
     0
  9
$USERI2
 70
     0
  9
$USERI3
 70
     0
  9
$USERI4
 70
     0
  9
$USERI5
 70
     0
  9
$USERR1
 40
20.0
  9
$USERR2
 40
0.0
  9
$USERR3
 40
0.0
  9
$USERR4
 40
0.0
  9
$USERR5
 40
0.0
  9
$WORLDVIEW
 70
     1
  9
$SHADEDGE
 70
     3
  9
$SHADEDIF
 70
    70
  9
$TILEMODE
 70
     1
  9
$MAXACTVP
 70
    48
  9
$PINSBASE
 10
0.0
 20
0.0
 30
0.0
  9
$PLIMCHECK
 70
     0
  9
$PEXTMIN
 10
-100000000000000000000.0
 20
-100000000000000000000.0
 30
-100000000000000000000.0
  9
$PEXTMAX
 10
100000000000000000000.0
 20
100000000000000000000.0
 30
100000000000000000000.0
  9
$PLIMMIN
 10
0.0
 20
0.0
  9
$PLIMMAX
 10
12.0
 20
9.0
  9
$UNITMODE
 70
     0
  9
$VISRETAIN
 70
     0
  9
$PLINEGEN
 70
     0
  9
$PSLTSCALE
 70
     0
  9
$TREEDEPTH
 70
  3020
  9
$ATTDIA
 70
     0
  9
$ATTREQ
 70
     1
  9
$BLIPMODE
 70
     1
  9
$COORDS
 70
     1
  9
$DRAGMODE
 70
     2
  9
$OSMODE
 70
     0
  9
$HANDLING
 70
     0
  9
$HANDSEED
  5
F07C
  0
ENDSEC
  0
SECTION
  2
TABLES
  0
TABLE
  2
LTYPE
 70
     3
  0
LTYPE
  2
CONTINUOUS
 70
     0
  3
実線
 72
    65
 73
     0
 40
0.0
  0
LTYPE
  2
DASHDOT
 70
     0
  3
____ _ ____ _ ____ _ ____ _ ____ _ ____ _ ____
 72
    65
 73
     4
 40
5.5
 49
4.0
 49
-0.6
 49
0.3
 49
-0.6
  0
LTYPE
  2
CENTER
 70
     0
  3
Center ____ _ ____ _ ____ _ ____ _ ____ _ ____
 72
    65
 73
     4
 40
1.0
 49
0.5
 49
-0.25
 49
0.0
 49
-0.25
  0
ENDTAB
  0
TABLE
  2
LAYER
 70
    12
  0
LAYER
  2
0
 70
     0
 62
     7
  6
CONTINUOUS
  0
LAYER
  2
BASIS
 70
     0
 62
     6
  6
DASHDOT
  0
LAYER
  2
OUTLINE
 70
     0
 62
     3
  6
CONTINUOUS
  0
LAYER
  2
DETAIL
 70
     0
 62
     5
  6
CONTINUOUS
  0
LAYER
  2
SIZE
 70
     0
 62
    30
  6
CONTINUOUS
  0
LAYER
  2
ARRANGE
 70
     0
 62
     1
  6
CONTINUOUS
  0
LAYER
  2
DEFPOINTS
 70
     0
 62
     7
  6
CONTINUOUS
  0
LAYER
  2
ETC
 70
     0
 62
    61
  6
CONTINUOUS
  0
LAYER
  2
FIX
 70
     0
 62
    11
  6
CONTINUOUS
  0
LAYER
  2
NOTE
 70
     0
 62
     4
  6
CONTINUOUS
  0
LAYER
  2
SERVICESPACE
 70
    64
 62
     2
  6
DASHDOT
  0
LAYER
  2
SYMBOLLINE
 70
    64
 62
    15
  6
CONTINUOUS
  0
ENDTAB
  0
TABLE
  2
STYLE
 70
     1
  0
STYLE
  2
STANDARD
 70
     0
 40
64.0
 41
0.9
 50
0.0
 71
     0
 42
64.0
  3
SIMPLEX.shx
  4
BIGFONT.shx
  0
ENDTAB
  0
TABLE
  2
APPID
 70
    19
  0
APPID
  2
ACAD
 70
     0
  0
APPID
  2
AUTOCAD_POSTSCRIPT_FIGURE
 70
     0
  0
APPID
  2
ACAD_EXEMPT_FROM_CAD_STANDARDS
 70
     0
  0
APPID
  2
ACAD_PSEXT
 70
     0
  0
APPID
  2
ACAUTHENVIRON
 70
     0
  0
APPID
  2
GENIUS_GENOENT_13
 70
     0
  0
APPID
  2
GENIUS_GENCFG_13
 70
     0
  0
APPID
  2
GENIUS_GENCFG0_13
 70
     0
  0
APPID
  2
GENIUS_GENCFG1_13
 70
     0
  0
APPID
  2
GENIUS_GENCFG2_13
 70
     0
  0
APPID
  2
GENIUS_GENCFG3_13
 70
     0
  0
APPID
  2
GENIUS_GENCFG4_13
 70
     0
  0
APPID
  2
GENIUS_GEVCFG0_13
 70
     0
  0
APPID
  2
CONTENTBLOCKICON
 70
     0
  0
APPID
  2
CONTENTBLOCKDESCRIPTION
 70
     0
  0
APPID
  2
ACAD_NAV_VCDISPLAY
 70
     0
  0
APPID
  2
ACAD_MLEADERVER
 70
     0
  0
APPID
  2
ACDBDYNAMICBLOCKTRUENAME
 70
     0
  0
APPID
  2
ACDBDYNAMICBLOCKGUID
 70
     0
  0
ENDTAB
  0
TABLE
  2
DIMSTYLE
 70
     1
  0
DIMSTYLE
  2
STANDARD
 70
     0
  3

  4

  5
_ORIGIN
  6

  7

 40
1.0
 41
12.0
 42
20.0
 43
200.0
 44
20.0
 45
0.0
 46
0.0
 47
0.0
 48
0.0
140
64.0
141
0.09
142
0.0
143
25.399999999999999
144
1.0
145
0.0
146
1.0
147
25.0
 71
     0
 72
     0
 73
     0
 74
     0
 75
     0
 76
     0
 77
     1
 78
     8
170
     0
171
     2
172
     1
173
     0
174
     1
175
     0
176
     7
177
     7
178
     7
  0
ENDTAB
  0
TABLE
  2
VIEW
 70
     1
  0
VIEW
  2
ALL
 70
     0
 40
4282.6198079999986
 10
0.0
 20
41.309904000000003
 41
5940.0
 11
0.0
 21
0.0
 31
1.0
 12
0.0
 22
0.0
 32
0.0
 42
50.0
 43
0.0
 44
0.0
 50
0.0
 71
     0
  0
ENDTAB
  0
TABLE
  2
UCS
 70
     0
  0
ENDTAB
  0
TABLE
  2
VPORT
 70
     1
  0
VPORT
  2
*ACTIVE
 70
     0
 10
0.0
 20
0.0
 11
1.0
 21
1.0
 12
262.62132150891762
 22
227.50855496561681
 13
0.0
 23
0.0
 14
1.0
 24
1.0
 15
0.0
 25
0.0
 16
0.0
 26
0.0
 36
1.0
 17
0.0
 27
0.0
 37
0.0
 40
1275.398276248241
 41
1.747787610619469
 42
50.0
 43
0.0
 44
0.0
 50
0.0
 51
0.0
 71
     0
 72
  1000
 73
     1
 74
     3
 75
     0
 76
     0
 77
     0
 78
     0
  0
ENDTAB
  0
ENDSEC
  0
SECTION
  2
BLOCKS
  0
BLOCK
  8
0
  2
_ORIGIN
 70
     0
 10
0.0
 20
0.0
 30
0.0
  3
_ORIGIN
  1
_ORIGIN
  0
CIRCLE
  8
0
  6
CONTINUOUS
 62
     7
 10
0.0
 20
0.0
 30
0.0
 40
0.5
  0
LINE
  8
0
  6
CONTINUOUS
 62
     7
 10
0.0
 20
0.0
 30
0.0
 11
-1.0
 21
0.0
 31
0.0
  0
ENDBLK
  8
0
  0
ENDSEC
  0
SECTION
  2
ENTITIES
  0
LINE
  8
NOTE
  6
CONTINUOUS
 62
     4
 10
105.9127739999999
 20
0.0
 30
0.0
 11
341.19634198458652
 21
264.8116364789787
 31
0.0
  0
LINE
  8
NOTE
  6
CONTINUOUS
 62
     4
 10
105.9127739999999
 20
0.0
 30
0.0
 11
137.22551934757891
 21
22.683422418883421
 31
0.0
  0
LINE
  8
NOTE
  6
CONTINUOUS
 62
     4
 10
124.90804869402341
 20
35.19929633376114
 30
0.0
 11
105.9127739999999
 21
0.0
 31
0.0
  0
TEXT
  8
NOTE
  6
CONTINUOUS
 62
     4
 10
-99.438244845292047
 20
70.82684204383969
 30
0.0
 40
64.0
  1
EA
 41
0.9
  0
TEXT
  8
NOTE
  6
CONTINUOUS
 62
     4
 10
225.18692541885551
 20
420.37863352193381
 30
0.0
 40
64.0
  1
EL
 41
0.9
  0
LINE
  8
NOTE
  6
CONTINUOUS
 62
     4
 10
364.82094409062029
 20
389.59841560060158
 30
0.0
 11
196.29645256420139
 21
389.59841560055918
 31
0.0
  0
LINE
  8
NOTE
  6
CONTINUOUS
 62
     4
 10
79.0
 20
173.0
 30
0.0
 11
196.29645256420139
 21
389.59841560055918
 31
0.0
  0
LINE
  8
NOTE
  6
CONTINUOUS
 62
     4
 10
79.0
 20
173.0
 30
0.0
 11
107.0733740441126
 21
199.64394918745009
 31
0.0
  0
LINE
  8
NOTE
  6
CONTINUOUS
 62
     4
 10
86.302562394578445
 20
212.2580497038455
 30
0.0
 11
79.0
 21
173.0
 31
0.0
  0
CIRCLE
  8
FIX
  6
CONTINUOUS
 62
    11
 10
106.0
 20
0.0
 30
0.0
 40
10.0
  0
CIRCLE
  8
ARRANGE
  6
CONTINUOUS
 62
     1
 10
0.0
 20
0.0
 30
0.0
 40
40.0
  0
POINT
  8
ARRANGE
  6
CONTINUOUS
 62
     1
 10
0.0
 20
0.0
 30
0.0
 50
90.0
  0
LINE
  8
NOTE
  6
CENTER
 62
     4
 10
2.136743000000024
 20
102.0
 30
0.0
 11
-113.13674399999989
 21
102.0
 31
0.0
  0
LINE
  8
NOTE
  6
CENTER
 62
     4
 10
-55.5
 20
159.636743
 30
0.0
 11
-55.5
 21
44.363255999999978
 31
0.0
  0
LINE
  8
DETAIL
  6
CONTINUOUS
 62
     5
 10
-69.860360000000128
 20
195.0
 30
0.0
 11
-70.15709599999991
 21
178.0
 31
0.0
  0
LINE
  8
DETAIL
  6
CONTINUOUS
 62
     5
 10
-62.360360000000128
 20
195.0
 30
0.0
 11
-62.65709599999991
 21
178.0
 31
0.0
  0
LINE
  8
DETAIL
  6
CONTINUOUS
 62
     5
 10
-67.639641000000211
 20
195.0
 30
0.0
 11
-67.342904999999973
 21
178.0
 31
0.0
  0
LINE
  8
DETAIL
  6
CONTINUOUS
 62
     5
 10
-59.842904999999973
 20
178.0
 30
0.0
 11
-60.139641000000211
 21
195.0
 31
0.0
  0
LINE
  8
DETAIL
  6
CONTINUOUS
 62
     5
 10
-60.139641000000211
 20
195.0
 30
0.0
 11
-62.360360000000128
 21
195.0
 31
0.0
  0
LINE
  8
DETAIL
  6
CONTINUOUS
 62
     5
 10
-67.639641000000211
 20
195.0
 30
0.0
 11
-69.860360000000128
 21
195.0
 31
0.0
  0
LINE
  8
DETAIL
  6
CONTINUOUS
 62
     5
 10
-135.89471600000019
 20
-15.0
 30
0.0
 11
136.0859609999998
 21
-15.0
 31
0.0
  0
LINE
  8
DETAIL
  6
CONTINUOUS
 62
     5
 10
-142.50237000000021
 20
-9.0082229999999299
 30
0.0
 11
0.0
 21
-9.0082229999999299
 31
0.0
  0
LINE
  8
DETAIL
  6
CONTINUOUS
 62
     5
 10
-143.0
 20
0.0
 30
0.0
 11
0.0
 21
0.0
 31
0.0
  0
ARC
  8
DETAIL
  6
CONTINUOUS
 62
     5
 10
-142.23457499999981
 20
-8.8729990000000498
 30
0.0
 40
0.3
 50
182.99999999999901
 51
226.50000000000489
  0
ARC
  8
DETAIL
  6
CONTINUOUS
 62
     5
 10
-135.89471600000019
 20
-14.19999999999993
 30
0.0
 40
0.8
 50
226.50000000000489
 51
270.0
  0
LINE
  8
DETAIL
  6
CONTINUOUS
 62
     5
 10
-136.44540000000009
 20
-14.780300000000009
 30
0.0
 11
-142.4410810000002
 21
-9.0906109999999671
 31
0.0
  0
LINE
  8
DETAIL
  6
CONTINUOUS
 62
     5
 10
-143.0
 20
0.0
 30
0.0
 11
-142.53416400000009
 21
-8.8886989999999741
 31
0.0
  0
LINE
  8
DETAIL
  6
CONTINUOUS
 62
     5
 10
0.0
 20
178.0
 30
0.0
 11
-76.0
 21
178.0
 31
0.0
  0
ARC
  8
DETAIL
  6
CONTINUOUS
 62
     5
 10
-91.052322000000004
 20
168.0
 30
0.0
 40
5.0
 50
90.0
 51
178.99196699999951
  0
CIRCLE
  8
DETAIL
  6
CONTINUOUS
 62
     5
 10
-55.5
 20
102.0
 30
0.0
 40
52.636743999999993
  0
ARC
  8
DETAIL
  6
CONTINUOUS
 62
     5
 10
-80.897138000000041
 20
62.547389000000067
 30
0.0
 40
17.0
 50
178.99196699999951
 51
270.0
  0
LINE
  8
DETAIL
  6
CONTINUOUS
 62
     5
 10
-80.897138000000041
 20
45.547389000000067
 30
0.0
 11
-7.5
 21
45.547389000000067
 31
0.0
  0
ARC
  8
DETAIL
  6
CONTINUOUS
 62
     5
 10
-79.56389100000024
 20
138.3202950000001
 30
0.0
 40
17.0
 50
90.0
 51
178.99196699999951
  0
CIRCLE
  8
DETAIL
  6
CONTINUOUS
 62
     5
 10
-55.5
 20
102.0
 30
0.0
 40
47.0
  0
CIRCLE
  8
DETAIL
  6
CONTINUOUS
 62
     5
 10
-55.5
 20
102.0
 30
0.0
 40
49.0
  0
LINE
  8
DETAIL
  6
CONTINUOUS
 62
     5
 10
-79.56389100000024
 20
155.3202950000001
 30
0.0
 11
-7.5
 21
155.3202950000001
 31
0.0
  0
ARC
  8
DETAIL
  6
CONTINUOUS
 62
     5
 10
-76.0
 20
177.0
 30
0.0
 40
1.0
 50
90.0
 51
180.0
  0
ARC
  8
DETAIL
  6
CONTINUOUS
 62
     5
 10
-76.0
 20
177.0
 30
0.0
 40
1.0
 50
90.0
 51
180.0
  0
ARC
  8
DETAIL
  6
CONTINUOUS
 62
     5
 10
-76.0
 20
177.0
 30
0.0
 40
1.0
 50
90.0
 51
180.0
  0
LINE
  8
DETAIL
  6
CONTINUOUS
 62
     5
 10
-77.0
 20
173.0
 30
0.0
 11
-77.0
 21
177.0
 31
0.0
  0
LINE
  8
DETAIL
  6
CONTINUOUS
 62
     5
 10
0.0
 20
173.0
 30
0.0
 11
-91.052322000000004
 21
173.0
 31
0.0
  0
LINE
  8
DETAIL
  6
CONTINUOUS
 62
     5
 10
-97.768198000000211
 20
70.025018000000046
 30
0.0
 11
-97.894506999999976
 21
62.846462999999972
 31
0.0
  0
LINE
  8
DETAIL
  6
CONTINUOUS
 62
     5
 10
-96.03753800000004
 20
168.38421700000001
 30
0.0
 11
-96.561259999999947
 21
138.61936900000001
 31
0.0
  0
LINE
  8
DETAIL
  6
CONTINUOUS
 62
     5
 10
-96.561259999999947
 20
138.61936900000001
 30
0.0
 11
-96.62757600000009
 21
134.85040799999999
 31
0.0
  0
LINE
  8
DETAIL
  6
CONTINUOUS
 62
     5
 10
-97.894506999999976
 20
62.846462999999972
 30
0.0
 11
-99.000309999999899
 21
0.0
 31
0.0
  0
LINE
  8
BASIS
  6
DASHDOT
 62
     6
 10
0.0
 20
211.83161600000011
 30
0.0
 11
0.0
 21
-34.901499999999942
 31
0.0
  0
LINE
  8
DETAIL
  6
CONTINUOUS
 62
     5
 10
9.5
 20
138.3202950000001
 30
0.0
 11
9.5
 21
62.547389000000067
 31
0.0
  0
ARC
  8
DETAIL
  6
CONTINUOUS
 62
     5
 10
-7.5
 20
62.547389000000067
 30
0.0
 40
17.0
 50
270.0
 51
0.0
  0
ARC
  8
DETAIL
  6
CONTINUOUS
 62
     5
 10
-7.5
 20
138.3202950000001
 30
0.0
 40
17.0
 50
0.0
 51
90.0
  0
ARC
  8
DETAIL
  6
CONTINUOUS
 62
     5
 10
142.23457400000009
 20
-8.8729990000000498
 30
0.0
 40
0.3
 50
313.499999999995
 51
357.00000000000091
  0
ARC
  8
DETAIL
  6
CONTINUOUS
 62
     5
 10
135.89471499999991
 20
-14.19999999999993
 30
0.0
 40
0.8
 50
270.0
 51
313.499999999995
  0
LINE
  8
DETAIL
  6
CONTINUOUS
 62
     5
 10
136.44539900000001
 20
-14.780300000000009
 30
0.0
 11
142.4410800000002
 21
-9.0906109999999671
 31
0.0
  0
LINE
  8
DETAIL
  6
CONTINUOUS
 62
     5
 10
143.0
 20
0.0
 30
0.0
 11
142.53416299999981
 21
-8.8886989999999741
 31
0.0
  0
LINE
  8
DETAIL
  6
CONTINUOUS
 62
     5
 10
142.50236899999979
 20
-9.0082229999999299
 30
0.0
 11
0.0
 21
-9.0082229999999299
 31
0.0
  0
LINE
  8
DETAIL
  6
CONTINUOUS
 62
     5
 10
143.0
 20
0.0
 30
0.0
 11
0.0
 21
0.0
 31
0.0
  0
LINE
  8
DETAIL
  6
CONTINUOUS
 62
     5
 10
69.860358999999789
 20
195.0
 30
0.0
 11
70.157095000000027
 21
178.0
 31
0.0
  0
LINE
  8
DETAIL
  6
CONTINUOUS
 62
     5
 10
62.360358999999789
 20
195.0
 30
0.0
 11
62.657095000000027
 21
178.0
 31
0.0
  0
LINE
  8
DETAIL
  6
CONTINUOUS
 62
     5
 10
67.639639999999872
 20
195.0
 30
0.0
 11
67.342903999999862
 21
178.0
 31
0.0
  0
LINE
  8
DETAIL
  6
CONTINUOUS
 62
     5
 10
59.842903999999862
 20
178.0
 30
0.0
 11
60.139639999999872
 21
195.0
 31
0.0
  0
LINE
  8
DETAIL
  6
CONTINUOUS
 62
     5
 10
60.139639999999872
 20
195.0
 30
0.0
 11
62.360358999999789
 21
195.0
 31
0.0
  0
LINE
  8
DETAIL
  6
CONTINUOUS
 62
     5
 10
67.639639999999872
 20
195.0
 30
0.0
 11
69.860358999999789
 21
195.0
 31
0.0
  0
LINE
  8
DETAIL
  6
CONTINUOUS
 62
     5
 10
0.0
 20
178.0
 30
0.0
 11
76.0
 21
178.0
 31
0.0
  0
ARC
  8
DETAIL
  6
CONTINUOUS
 62
     5
 10
91.052320999999893
 20
168.0
 30
0.0
 40
5.0
 50
1.008033000000546
 51
90.0
  0
ARC
  8
DETAIL
  6
CONTINUOUS
 62
     5
 10
76.0
 20
177.0
 30
0.0
 40
1.0
 50
0.0
 51
90.0
  0
ARC
  8
DETAIL
  6
CONTINUOUS
 62
     5
 10
76.0
 20
177.0
 30
0.0
 40
1.0
 50
0.0
 51
90.0
  0
ARC
  8
DETAIL
  6
CONTINUOUS
 62
     5
 10
76.0
 20
177.0
 30
0.0
 40
1.0
 50
0.0
 51
90.0
  0
LINE
  8
DETAIL
  6
CONTINUOUS
 62
     5
 10
77.0
 20
173.0
 30
0.0
 11
77.0
 21
177.0
 31
0.0
  0
LINE
  8
DETAIL
  6
CONTINUOUS
 62
     5
 10
0.0
 20
173.0
 30
0.0
 11
91.052320999999893
 21
173.0
 31
0.0
  0
LINE
  8
DETAIL
  6
CONTINUOUS
 62
     5
 10
96.037536999999929
 20
168.38421700000001
 30
0.0
 11
99.000309000000016
 21
0.0
 31
0.0
  0
LINE
  8
NOTE
  6
CENTER
 62
     4
 10
79.0
 20
183.33160200000009
 30
0.0
 11
79.0
 21
162.31503499999999
 31
0.0
  0
LINE
  8
OUTLINE
  6
CONTINUOUS
 62
     3
 10
-135.89471600000019
 20
-15.0
 30
0.0
 11
136.0859609999998
 21
-15.0
 31
0.0
  0
ARC
  8
OUTLINE
  6
CONTINUOUS
 62
     3
 10
-142.23457499999981
 20
-8.8729979999999955
 30
0.0
 40
0.3
 50
182.99999999999901
 51
226.50000000000489
  0
ARC
  8
OUTLINE
  6
CONTINUOUS
 62
     3
 10
-135.89471600000019
 20
-14.200000000000051
 30
0.0
 40
0.8
 50
226.50000000000489
 51
270.0
  0
LINE
  8
OUTLINE
  6
CONTINUOUS
 62
     3
 10
-136.44540000000009
 20
-14.78029900000001
 30
0.0
 11
-142.4410810000002
 21
-9.0906100000000265
 31
0.0
  0
LINE
  8
OUTLINE
  6
CONTINUOUS
 62
     3
 10
-143.0
 20
0.0
 30
0.0
 11
-142.53416400000009
 21
-8.888699000000031
 31
0.0
  0
ARC
  8
OUTLINE
  6
CONTINUOUS
 62
     3
 10
-91.052322000000004
 20
168.0
 30
0.0
 40
5.0
 50
90.0
 51
178.99196699999951
  0
ARC
  8
OUTLINE
  6
CONTINUOUS
 62
     3
 10
-76.0
 20
177.0
 30
0.0
 40
1.0
 50
90.0
 51
180.0
  0
ARC
  8
OUTLINE
  6
CONTINUOUS
 62
     3
 10
-76.0
 20
177.0
 30
0.0
 40
1.0
 50
90.0
 51
180.0
  0
ARC
  8
OUTLINE
  6
CONTINUOUS
 62
     3
 10
-76.0
 20
177.0
 30
0.0
 40
1.0
 50
90.0
 51
180.0
  0
ARC
  8
OUTLINE
  6
CONTINUOUS
 62
     3
 10
142.23457400000009
 20
-8.8729979999999955
 30
0.0
 40
0.3
 50
313.499999999995
 51
357.00000000000091
  0
ARC
  8
OUTLINE
  6
CONTINUOUS
 62
     3
 10
135.89471499999991
 20
-14.200000000000051
 30
0.0
 40
0.8
 50
270.0
 51
313.499999999995
  0
LINE
  8
OUTLINE
  6
CONTINUOUS
 62
     3
 10
136.44539900000001
 20
-14.78029900000001
 30
0.0
 11
142.4410800000002
 21
-9.0906100000000265
 31
0.0
  0
LINE
  8
OUTLINE
  6
CONTINUOUS
 62
     3
 10
143.0
 20
0.0
 30
0.0
 11
142.53416299999981
 21
-8.888699000000031
 31
0.0
  0
ARC
  8
OUTLINE
  6
CONTINUOUS
 62
     3
 10
91.052320999999893
 20
168.0
 30
0.0
 40
5.0
 50
1.008033000000546
 51
90.0
  0
ARC
  8
OUTLINE
  6
CONTINUOUS
 62
     3
 10
76.0
 20
177.0
 30
0.0
 40
1.0
 50
0.0
 51
90.0
  0
ARC
  8
OUTLINE
  6
CONTINUOUS
 62
     3
 10
76.0
 20
177.0
 30
0.0
 40
1.0
 50
0.0
 51
90.0
  0
ARC
  8
OUTLINE
  6
CONTINUOUS
 62
     3
 10
76.0
 20
177.0
 30
0.0
 40
1.0
 50
0.0
 51
90.0
  0
LINE
  8
OUTLINE
  6
CONTINUOUS
 62
     3
 10
143.0
 20
0.0
 30
0.0
 11
99.000309000000016
 21
0.0
 31
0.0
  0
LINE
  8
OUTLINE
  6
CONTINUOUS
 62
     3
 10
96.037536999999929
 20
168.38421700000001
 30
0.0
 11
99.000309000000016
 21
0.0
 31
0.0
  0
LINE
  8
OUTLINE
  6
CONTINUOUS
 62
     3
 10
-143.0
 20
0.0
 30
0.0
 11
-99.000309999999899
 21
0.0
 31
0.0
  0
LINE
  8
OUTLINE
  6
CONTINUOUS
 62
     3
 10
-97.757786000000124
 20
70.616782999999998
 30
0.0
 11
-99.000309999999899
 21
0.0
 31
0.0
  0
LINE
  8
OUTLINE
  6
CONTINUOUS
 62
     3
 10
-96.03753800000004
 20
168.38421700000001
 30
0.0
 11
-96.62757600000009
 21
134.85040900000001
 31
0.0
  0
ARC
  8
OUTLINE
  6
CONTINUOUS
 62
     3
 10
-55.5
 20
101.9999999999999
 30
0.0
 40
52.636743999999993
 50
141.38409500000549
 51
216.59983899999941
  0
LINE
  8
OUTLINE
  6
CONTINUOUS
 62
     3
 10
77.0
 20
173.0
 30
0.0
 11
91.052320999999893
 21
173.0
 31
0.0
  0
LINE
  8
OUTLINE
  6
CONTINUOUS
 62
     3
 10
77.0
 20
173.0
 30
0.0
 11
77.0
 21
177.0
 31
0.0
  0
LINE
  8
OUTLINE
  6
CONTINUOUS
 62
     3
 10
0.0
 20
178.0
 30
0.0
 11
76.0
 21
178.0
 31
0.0
  0
LINE
  8
OUTLINE
  6
CONTINUOUS
 62
     3
 10
0.0
 20
178.0
 30
0.0
 11
-76.0
 21
178.0
 31
0.0
  0
LINE
  8
OUTLINE
  6
CONTINUOUS
 62
     3
 10
-77.0
 20
173.0
 30
0.0
 11
-91.052322000000004
 21
173.0
 31
0.0
  0
LINE
  8
OUTLINE
  6
CONTINUOUS
 62
     3
 10
-77.0
 20
173.0
 30
0.0
 11
-77.0
 21
177.0
 31
0.0
  0
LINE
  8
NOTE
  6
CENTER
 62
     4
 10
75.0
 20
7.2487081459693172
 30
0.0
 11
75.0
 21
-6.6345182982605593
 31
0.0
  0
LINE
  8
NOTE
  6
CENTER
 62
     4
 10
106.0
 20
8.8544161769785887
 30
0.0
 11
106.0
 21
-5.9458221262322013
 31
0.0
  0
LINE
  8
NOTE
  6
CENTER
 62
     4
 10
-75.0
 20
7.2487081459693172
 30
0.0
 11
-75.0
 21
-6.6345182982605593
 31
0.0
  0
LINE
  8
NOTE
  6
CENTER
 62
     4
 10
-106.0
 20
8.8544161769785887
 30
0.0
 11
-106.0
 21
-5.9458221262322013
 31
0.0
  0
CIRCLE
  8
FIX
  6
CONTINUOUS
 62
    11
 10
75.0
 20
0.0
 30
0.0
 40
10.0
  0
CIRCLE
  8
FIX
  6
CONTINUOUS
 62
    11
 10
-75.0
 20
0.307094923854379
 30
0.0
 40
10.0
  0
CIRCLE
  8
FIX
  6
CONTINUOUS
 62
    11
 10
-106.0
 20
0.0
 30
0.0
 40
10.0
  0
LINE
  8
SIZE
  6
CONTINUOUS
 62
    30
 10
-99.000309999999899
 20
20.0
 30
0.0
 11
-99.000309999999899
 21
438.38316677572197
 31
0.0
  0
LINE
  8
SIZE
  6
CONTINUOUS
 62
    30
 10
99.000309000000016
 20
20.0
 30
0.0
 11
99.000309000000016
 21
438.38316677572197
 31
0.0
  0
LINE
  8
SIZE
  6
CONTINUOUS
 62
    30
 10
-111.0003099999999
 20
418.38316677572197
 30
0.0
 11
-123.0003099999999
 21
418.38316677572197
 31
0.0
  0
LINE
  8
SIZE
  6
CONTINUOUS
 62
    30
 10
111.000309
 20
418.38316677572197
 30
0.0
 11
123.000309
 21
418.38316677572197
 31
0.0
  0
LINE
  8
SIZE
  6
CONTINUOUS
 62
    30
 10
-99.000309999999899
 20
418.38316677572197
 30
0.0
 11
99.000309000000016
 21
418.38316677572197
 31
0.0
  0
CIRCLE
  8
SIZE
  6
CONTINUOUS
 62
    30
 10
-99.000309999999899
 20
418.38316677572197
 30
0.0
 40
6.0
  0
LINE
  8
SIZE
  6
CONTINUOUS
 62
    30
 10
-99.000309999999899
 20
418.38316677572197
 30
0.0
 11
-111.0003099999999
 21
418.38316677572197
 31
0.0
  0
CIRCLE
  8
SIZE
  6
CONTINUOUS
 62
    30
 10
99.000309000000016
 20
418.38316677572197
 30
0.0
 40
6.0
  0
LINE
  8
SIZE
  6
CONTINUOUS
 62
    30
 10
99.000309000000016
 20
418.38316677572197
 30
0.0
 11
111.000309
 21
418.38316677572197
 31
0.0
  0
TEXT
  8
SIZE
  6
CONTINUOUS
 62
    30
 10
-105.0514290714285
 20
443.38316677572197
 30
0.0
 40
64.0
  1
□198
 41
0.9
 72
     1
 11
-0.0000004999999419
 21
443.38316677572197
 31
0.0
  0
POINT
  8
DEFPOINTS
  6
CONTINUOUS
 62
    30
 10
-99.000309999999899
 20
0.0
 30
0.0
  0
POINT
  8
DEFPOINTS
  6
CONTINUOUS
 62
    30
 10
99.000309000000016
 20
0.0
 30
0.0
  0
POINT
  8
DEFPOINTS
  6
CONTINUOUS
 62
    30
 10
99.000309000000016
 20
418.38316677572197
 30
0.0
  0
LINE
  8
SIZE
  6
CONTINUOUS
 62
    30
 10
-55.5
 20
179.636743
 30
0.0
 11
-55.5
 21
327.30407748289679
 31
0.0
  0
LINE
  8
SIZE
  6
CONTINUOUS
 62
    30
 10
0.0
 20
231.83161600000011
 30
0.0
 11
0.0
 21
327.30407748289679
 31
0.0
  0
LINE
  8
SIZE
  6
CONTINUOUS
 62
    30
 10
12.0
 20
307.30407748289679
 30
0.0
 11
24.0
 21
307.30407748289679
 31
0.0
  0
LINE
  8
SIZE
  6
CONTINUOUS
 62
    30
 10
-67.5
 20
307.30407748289679
 30
0.0
 11
-256.37765563749792
 21
307.30407748289679
 31
0.0
  0
LINE
  8
SIZE
  6
CONTINUOUS
 62
    30
 10
0.0
 20
307.30407748289679
 30
0.0
 11
-55.5
 21
307.30407748289679
 31
0.0
  0
CIRCLE
  8
SIZE
  6
CONTINUOUS
 62
    30
 10
0.0
 20
307.30407748289679
 30
0.0
 40
6.0
  0
LINE
  8
SIZE
  6
CONTINUOUS
 62
    30
 10
0.0
 20
307.30407748289679
 30
0.0
 11
12.0
 21
307.30407748289679
 31
0.0
  0
CIRCLE
  8
SIZE
  6
CONTINUOUS
 62
    30
 10
-55.5
 20
307.30407748289679
 30
0.0
 40
6.0
  0
LINE
  8
SIZE
  6
CONTINUOUS
 62
    30
 10
-55.5
 20
307.30407748289679
 30
0.0
 11
-67.5
 21
307.30407748289679
 31
0.0
  0
TEXT
  8
SIZE
  6
CONTINUOUS
 62
    30
 10
-231.37765563749801
 20
332.30407748289679
 30
0.0
 40
64.0
  1
56
 41
0.9
 72
     1
 11
-186.12051278035511
 21
332.30407748289679
 31
0.0
  0
POINT
  8
DEFPOINTS
  6
CONTINUOUS
 62
    30
 10
-55.5
 20
159.636743
 30
0.0
  0
POINT
  8
DEFPOINTS
  6
CONTINUOUS
 62
    30
 10
0.0
 20
211.83161600000011
 30
0.0
  0
POINT
  8
DEFPOINTS
  6
CONTINUOUS
 62
    30
 10
0.0
 20
307.30407748289679
 30
0.0
  0
LINE
  8
SIZE
  6
CONTINUOUS
 62
    30
 10
-75.0
 20
-26.634518298260559
 30
0.0
 11
-75.0
 21
-177.6355510144241
 31
0.0
  0
LINE
  8
SIZE
  6
CONTINUOUS
 62
    30
 10
75.0
 20
-26.634518298260559
 30
0.0
 11
75.0
 21
-177.6355510144241
 31
0.0
  0
LINE
  8
SIZE
  6
CONTINUOUS
 62
    30
 10
-87.0
 20
-157.6355510144241
 30
0.0
 11
-99.0
 21
-157.6355510144241
 31
0.0
  0
LINE
  8
SIZE
  6
CONTINUOUS
 62
    30
 10
87.0
 20
-157.6355510144241
 30
0.0
 11
99.0
 21
-157.6355510144241
 31
0.0
  0
LINE
  8
SIZE
  6
CONTINUOUS
 62
    30
 10
-75.0
 20
-157.6355510144241
 30
0.0
 11
75.0
 21
-157.6355510144241
 31
0.0
  0
CIRCLE
  8
SIZE
  6
CONTINUOUS
 62
    30
 10
-75.0
 20
-157.6355510144241
 30
0.0
 40
6.0
  0
LINE
  8
SIZE
  6
CONTINUOUS
 62
    30
 10
-75.0
 20
-157.6355510144241
 30
0.0
 11
-87.0
 21
-157.6355510144241
 31
0.0
  0
CIRCLE
  8
SIZE
  6
CONTINUOUS
 62
    30
 10
75.0
 20
-157.6355510144241
 30
0.0
 40
6.0
  0
LINE
  8
SIZE
  6
CONTINUOUS
 62
    30
 10
75.0
 20
-157.6355510144241
 30
0.0
 11
87.0
 21
-157.6355510144241
 31
0.0
  0
TEXT
  8
SIZE
  6
CONTINUOUS
 62
    30
 10
-68.571428571428569
 20
-132.6355510144241
 30
0.0
 40
64.0
  1
150
 41
0.9
 72
     1
 11
0.0
 21
-132.6355510144241
 31
0.0
  0
POINT
  8
DEFPOINTS
  6
CONTINUOUS
 62
    30
 10
-75.0
 20
-6.6345182982605593
 30
0.0
  0
POINT
  8
DEFPOINTS
  6
CONTINUOUS
 62
    30
 10
75.0
 20
-6.6345182982605593
 30
0.0
  0
POINT
  8
DEFPOINTS
  6
CONTINUOUS
 62
    30
 10
75.0
 20
-157.6355510144241
 30
0.0
  0
LINE
  8
SIZE
  6
CONTINUOUS
 62
    30
 10
-106.0
 20
-25.945822126232201
 30
0.0
 11
-106.0
 21
-298.75294556901292
 31
0.0
  0
LINE
  8
SIZE
  6
CONTINUOUS
 62
    30
 10
106.0
 20
-25.945822126232201
 30
0.0
 11
106.0
 21
-298.75294556901292
 31
0.0
  0
LINE
  8
SIZE
  6
CONTINUOUS
 62
    30
 10
-94.0
 20
-278.75294556901292
 30
0.0
 11
94.0
 21
-278.75294556901292
 31
0.0
  0
CIRCLE
  8
SIZE
  6
CONTINUOUS
 62
    30
 10
-106.0
 20
-278.75294556901292
 30
0.0
 40
6.0
  0
LINE
  8
SIZE
  6
CONTINUOUS
 62
    30
 10
-106.0
 20
-278.75294556901292
 30
0.0
 11
-94.0
 21
-278.75294556901292
 31
0.0
  0
CIRCLE
  8
SIZE
  6
CONTINUOUS
 62
    30
 10
106.0
 20
-278.75294556901292
 30
0.0
 40
6.0
  0
LINE
  8
SIZE
  6
CONTINUOUS
 62
    30
 10
106.0
 20
-278.75294556901292
 30
0.0
 11
94.0
 21
-278.75294556901292
 31
0.0
  0
TEXT
  8
SIZE
  6
CONTINUOUS
 62
    30
 10
-68.571428571428569
 20
-253.75294556901289
 30
0.0
 40
64.0
  1
212
 41
0.9
 72
     1
 11
0.0
 21
-253.75294556901289
 31
0.0
  0
POINT
  8
DEFPOINTS
  6
CONTINUOUS
 62
    30
 10
-106.0
 20
-5.9458221262322013
 30
0.0
  0
POINT
  8
DEFPOINTS
  6
CONTINUOUS
 62
    30
 10
106.0
 20
-5.9458221262322013
 30
0.0
  0
POINT
  8
DEFPOINTS
  6
CONTINUOUS
 62
    30
 10
106.0
 20
-278.75294556901292
 30
0.0
  0
LINE
  8
SIZE
  6
CONTINUOUS
 62
    30
 10
-143.0
 20
-20.0
 30
0.0
 11
-143.0
 21
-405.71533767380072
 31
0.0
  0
LINE
  8
SIZE
  6
CONTINUOUS
 62
    30
 10
143.0
 20
-20.0
 30
0.0
 11
143.0
 21
-405.71533767380072
 31
0.0
  0
LINE
  8
SIZE
  6
CONTINUOUS
 62
    30
 10
-131.0
 20
-385.71533767380072
 30
0.0
 11
131.0
 21
-385.71533767380072
 31
0.0
  0
CIRCLE
  8
SIZE
  6
CONTINUOUS
 62
    30
 10
-143.0
 20
-385.71533767380072
 30
0.0
 40
6.0
  0
LINE
  8
SIZE
  6
CONTINUOUS
 62
    30
 10
-143.0
 20
-385.71533767380072
 30
0.0
 11
-131.0
 21
-385.71533767380072
 31
0.0
  0
CIRCLE
  8
SIZE
  6
CONTINUOUS
 62
    30
 10
143.0
 20
-385.71533767380072
 30
0.0
 40
6.0
  0
LINE
  8
SIZE
  6
CONTINUOUS
 62
    30
 10
143.0
 20
-385.71533767380072
 30
0.0
 11
131.0
 21
-385.71533767380072
 31
0.0
  0
TEXT
  8
SIZE
  6
CONTINUOUS
 62
    30
 10
-109.1657142857143
 20
-360.71533767380072
 30
0.0
 40
64.0
  1
□286
 41
0.9
 72
     1
 11
0.0
 21
-360.71533767380072
 31
0.0
  0
POINT
  8
DEFPOINTS
  6
CONTINUOUS
 62
    30
 10
-143.0
 20
0.0
 30
0.0
  0
POINT
  8
DEFPOINTS
  6
CONTINUOUS
 62
    30
 10
143.0
 20
0.0
 30
0.0
  0
POINT
  8
DEFPOINTS
  6
CONTINUOUS
 62
    30
 10
143.0
 20
-385.71533767380072
 30
0.0
  0
LINE
  8
SIZE
  6
CONTINUOUS
 62
    30
 10
-163.0
 20
0.0
 30
0.0
 11
-202.0929518039375
 21
0.0
 31
0.0
  0
LINE
  8
SIZE
  6
CONTINUOUS
 62
    30
 10
-155.89471600000019
 20
-15.0
 30
0.0
 11
-202.0929518039375
 21
-15.0
 31
0.0
  0
LINE
  8
SIZE
  6
CONTINUOUS
 62
    30
 10
-182.0929518039375
 20
12.0
 30
0.0
 11
-182.0929518039375
 21
24.0
 31
0.0
  0
LINE
  8
SIZE
  6
CONTINUOUS
 62
    30
 10
-182.0929518039375
 20
-27.0
 30
0.0
 11
-182.0929518039375
 21
-171.28571428571431
 31
0.0
  0
LINE
  8
SIZE
  6
CONTINUOUS
 62
    30
 10
-182.0929518039375
 20
0.0
 30
0.0
 11
-182.0929518039375
 21
-15.0
 31
0.0
  0
CIRCLE
  8
SIZE
  6
CONTINUOUS
 62
    30
 10
-182.0929518039375
 20
0.0
 30
0.0
 40
6.0
  0
LINE
  8
SIZE
  6
CONTINUOUS
 62
    30
 10
-182.0929518039375
 20
0.0
 30
0.0
 11
-182.0929518039375
 21
12.0
 31
0.0
  0
CIRCLE
  8
SIZE
  6
CONTINUOUS
 62
    30
 10
-182.0929518039375
 20
-15.0
 30
0.0
 40
6.0
  0
LINE
  8
SIZE
  6
CONTINUOUS
 62
    30
 10
-182.0929518039375
 20
-15.0
 30
0.0
 11
-182.0929518039375
 21
-27.0
 31
0.0
  0
TEXT
  8
SIZE
  6
CONTINUOUS
 62
    30
 10
-207.0929518039375
 20
-146.28571428571439
 30
0.0
 40
64.0
  1
15
 50
90.0
 41
0.9
 72
     1
 11
-207.0929518039375
 21
-105.1428571428572
 31
0.0
  0
POINT
  8
DEFPOINTS
  6
CONTINUOUS
 62
    30
 10
-143.0
 20
0.0
 30
0.0
  0
POINT
  8
DEFPOINTS
  6
CONTINUOUS
 62
    30
 10
-135.89471600000019
 20
-15.0
 30
0.0
  0
POINT
  8
DEFPOINTS
  6
CONTINUOUS
 62
    30
 10
-182.0929518039375
 20
-15.0
 30
0.0
  0
LINE
  8
SIZE
  6
CONTINUOUS
 62
    30
 10
-89.860360000000128
 20
195.0
 30
0.0
 11
-446.18903862718969
 21
195.00000000000011
 31
0.0
  0
LINE
  8
SIZE
  6
CONTINUOUS
 62
    30
 10
-163.0
 20
0.0
 30
0.0
 11
-446.1890386271898
 21
0.0000000000001137
 31
0.0
  0
LINE
  8
SIZE
  6
CONTINUOUS
 62
    30
 10
-426.18903862718969
 20
183.00000000000011
 30
0.0
 11
-426.1890386271898
 21
12.00000000000006
 31
0.0
  0
CIRCLE
  8
SIZE
  6
CONTINUOUS
 62
    30
 10
-426.18903862718969
 20
195.00000000000011
 30
0.0
 40
6.0
  0
LINE
  8
SIZE
  6
CONTINUOUS
 62
    30
 10
-426.18903862718969
 20
195.00000000000011
 30
0.0
 11
-426.18903862718969
 21
183.00000000000011
 31
0.0
  0
CIRCLE
  8
SIZE
  6
CONTINUOUS
 62
    30
 10
-426.1890386271898
 20
0.0000000000000568
 30
0.0
 40
6.0
  0
LINE
  8
SIZE
  6
CONTINUOUS
 62
    30
 10
-426.1890386271898
 20
0.0000000000000568
 30
0.0
 11
-426.1890386271898
 21
12.00000000000006
 31
0.0
  0
TEXT
  8
SIZE
  6
CONTINUOUS
 62
    30
 10
-451.1890386271898
 20
28.928571428571711
 30
0.0
 40
64.0
  1
195
 50
90.0
 41
0.9
 72
     1
 11
-451.1890386271898
 21
97.500000000000284
 31
0.0
  0
POINT
  8
DEFPOINTS
  6
CONTINUOUS
 62
    30
 10
-69.860360000000128
 20
195.0
 30
0.0
  0
POINT
  8
DEFPOINTS
  6
CONTINUOUS
 62
    30
 10
-143.0
 20
0.0
 30
0.0
  0
POINT
  8
DEFPOINTS
  6
CONTINUOUS
 62
    30
 10
-426.1890386271898
 20
0.0000000000000568
 30
0.0
  0
LINE
  8
SIZE
  6
CONTINUOUS
 62
    30
 10
-133.13674399999991
 20
102.0
 30
0.0
 11
-409.67894058722783
 21
102.0000000000001
 31
0.0
  0
LINE
  8
SIZE
  6
CONTINUOUS
 62
    30
 10
-163.0
 20
0.0
 30
0.0
 11
-409.67894058722783
 21
0.0000000000000568
 31
0.0
  0
LINE
  8
SIZE
  6
CONTINUOUS
 62
    30
 10
-389.67894058722783
 20
90.000000000000057
 30
0.0
 11
-389.67894058722783
 21
12.00000000000006
 31
0.0
  0
LINE
  8
SIZE
  6
CONTINUOUS
 62
    30
 10
-389.67894058722783
 20
0.0000000000000568
 30
0.0
 11
-389.67894058722783
 21
-233.18083844774921
 31
0.0
  0
CIRCLE
  8
SIZE
  6
CONTINUOUS
 62
    30
 10
-389.67894058722783
 20
102.0000000000001
 30
0.0
 40
6.0
  0
LINE
  8
SIZE
  6
CONTINUOUS
 62
    30
 10
-389.67894058722783
 20
102.0000000000001
 30
0.0
 11
-389.67894058722783
 21
90.000000000000114
 31
0.0
  0
CIRCLE
  8
SIZE
  6
CONTINUOUS
 62
    30
 10
-389.67894058722783
 20
0.0000000000000568
 30
0.0
 40
6.0
  0
LINE
  8
SIZE
  6
CONTINUOUS
 62
    30
 10
-389.67894058722783
 20
0.0000000000000568
 30
0.0
 11
-389.67894058722783
 21
12.00000000000006
 31
0.0
  0
TEXT
  8
SIZE
  6
CONTINUOUS
 62
    30
 10
-414.67894058722783
 20
-208.18083844774921
 30
0.0
 40
64.0
  1
102
 50
90.0
 41
0.9
 72
     1
 11
-414.67894058722783
 21
-139.60940987632071
 31
0.0
  0
POINT
  8
DEFPOINTS
  6
CONTINUOUS
 62
    30
 10
-113.13674399999989
 20
102.0
 30
0.0
  0
POINT
  8
DEFPOINTS
  6
CONTINUOUS
 62
    30
 10
-143.0
 20
0.0
 30
0.0
  0
POINT
  8
DEFPOINTS
  6
CONTINUOUS
 62
    30
 10
-389.67894058722783
 20
0.0000000000000568
 30
0.0
  0
LINE
  8
SIZE
  6
CONTINUOUS
 62
    30
 10
-100.897138
 20
45.547389000000067
 30
0.0
 11
-298.06236072006692
 21
45.547389000000123
 31
0.0
  0
LINE
  8
SIZE
  6
CONTINUOUS
 62
    30
 10
-163.0
 20
0.0
 30
0.0
 11
-298.06236072006692
 21
0.0000000000000568
 31
0.0
  0
LINE
  8
SIZE
  6
CONTINUOUS
 62
    30
 10
-278.06236072006692
 20
57.547389000000123
 30
0.0
 11
-278.06236072006692
 21
69.547389000000123
 31
0.0
  0
LINE
  8
SIZE
  6
CONTINUOUS
 62
    30
 10
-278.06236072006692
 20
-11.99999999999994
 30
0.0
 11
-278.06236072006692
 21
-170.59553437732771
 31
0.0
  0
LINE
  8
SIZE
  6
CONTINUOUS
 62
    30
 10
-278.06236072006692
 20
45.547389000000123
 30
0.0
 11
-278.06236072006692
 21
0.0000000000000568
 31
0.0
  0
CIRCLE
  8
SIZE
  6
CONTINUOUS
 62
    30
 10
-278.06236072006692
 20
45.547389000000123
 30
0.0
 40
6.0
  0
LINE
  8
SIZE
  6
CONTINUOUS
 62
    30
 10
-278.06236072006692
 20
45.547389000000123
 30
0.0
 11
-278.06236072006692
 21
57.547389000000123
 31
0.0
  0
CIRCLE
  8
SIZE
  6
CONTINUOUS
 62
    30
 10
-278.06236072006692
 20
0.0000000000000568
 30
0.0
 40
6.0
  0
LINE
  8
SIZE
  6
CONTINUOUS
 62
    30
 10
-278.06236072006692
 20
0.0000000000000568
 30
0.0
 11
-278.06236072006692
 21
-11.99999999999994
 31
0.0
  0
TEXT
  8
SIZE
  6
CONTINUOUS
 62
    30
 10
-303.06236072006692
 20
-145.59553437732771
 30
0.0
 40
64.0
  1
45
 50
90.0
 41
0.9
 72
     1
 11
-303.06236072006692
 21
-98.966962948756304
 31
0.0
  0
POINT
  8
DEFPOINTS
  6
CONTINUOUS
 62
    30
 10
-80.897138000000041
 20
45.547389000000067
 30
0.0
  0
POINT
  8
DEFPOINTS
  6
CONTINUOUS
 62
    30
 10
-143.0
 20
0.0
 30
0.0
  0
POINT
  8
DEFPOINTS
  6
CONTINUOUS
 62
    30
 10
-278.06236072006692
 20
0.0000000000000568
 30
0.0
  0
LINE
  8
SIZE
  6
CONTINUOUS
 62
    30
 10
-427.94862935451562
 20
391.91362359279259
 30
0.0
 11
-103.635991198124
 21
139.46900520929441
 31
0.0
  0
LINE
  8
SIZE
  6
CONTINUOUS
 62
    30
 10
-7.3640088018761389
 20
64.530994790705734
 30
0.0
 11
2.105366515787523
 21
57.16004294625435
 31
0.0
  0
TEXT
  8
SIZE
  6
CONTINUOUS
 62
    30
 10
-404.11964338243689
 20
405.04624192567587
 30
0.0
 40
64.0
  1
φ98
 50
322.1028472243998
 41
0.9
 72
     1
 11
-335.50725536645058
 21
351.63843084702262
 31
0.0
  0
LINE
  8
SIZE
  6
CONTINUOUS
 62
    30
 10
-16.833384119539911
 20
71.90194663515706
 30
0.0
 11
-94.166615880460313
 21
132.09805336484311
 31
0.0
  0
CIRCLE
  8
SIZE
  6
CONTINUOUS
 62
    30
 10
-16.833384119539911
 20
71.90194663515706
 30
0.0
 40
6.0
  0
LINE
  8
SIZE
  6
CONTINUOUS
 62
    30
 10
-16.833384119539911
 20
71.90194663515706
 30
0.0
 11
-7.3640088018761389
 21
64.530994790705734
 31
0.0
  0
CIRCLE
  8
SIZE
  6
CONTINUOUS
 62
    30
 10
-94.166615880460313
 20
132.09805336484311
 30
0.0
 40
6.0
  0
LINE
  8
SIZE
  6
CONTINUOUS
 62
    30
 10
-94.166615880460313
 20
132.09805336484311
 30
0.0
 11
-103.635991198124
 21
139.46900520929441
 31
0.0
  0
POINT
  8
DEFPOINTS
  6
CONTINUOUS
 62
    30
 10
-94.166615880460313
 20
132.09805336484311
 30
0.0
  0
POINT
  8
DEFPOINTS
  6
CONTINUOUS
 62
    30
 10
-16.833384119539911
 20
71.90194663515706
 30
0.0
  0
LINE
  8
SIZE
  6
CONTINUOUS
 62
    30
 10
-526.55027115927373
 20
274.73159662533158
 30
0.0
 11
-116.185359923177
 21
124.252994538175
 31
0.0
  0
LINE
  8
SIZE
  6
CONTINUOUS
 62
    30
 10
5.1853599231759517
 20
79.747005461824983
 30
0.0
 11
16.45177394734344
 21
75.61567213757678
 31
0.0
  0
TEXT
  8
SIZE
  6
CONTINUOUS
 62
    30
 10
-507.86256866165638
 20
294.50673283460287
 30
0.0
 40
64.0
  1
φ105
 50
339.86228516658701
 41
0.9
 72
     1
 11
-405.62790883092578
 21
257.01783386942469
 31
0.0
  0
LINE
  8
SIZE
  6
CONTINUOUS
 62
    30
 10
-6.0810541009914232
 20
83.878338786073186
 30
0.0
 11
-104.9189458990095
 21
120.1216612139268
 31
0.0
  0
CIRCLE
  8
SIZE
  6
CONTINUOUS
 62
    30
 10
-6.0810541009914232
 20
83.878338786073186
 30
0.0
 40
6.0
  0
LINE
  8
SIZE
  6
CONTINUOUS
 62
    30
 10
-6.0810541009914232
 20
83.878338786073186
 30
0.0
 11
5.1853599231759517
 21
79.747005461824983
 31
0.0
  0
CIRCLE
  8
SIZE
  6
CONTINUOUS
 62
    30
 10
-104.9189458990095
 20
120.1216612139268
 30
0.0
 40
6.0
  0
LINE
  8
SIZE
  6
CONTINUOUS
 62
    30
 10
-104.9189458990095
 20
120.1216612139268
 30
0.0
 11
-116.185359923177
 21
124.252994538175
 31
0.0
  0
POINT
  8
DEFPOINTS
  6
CONTINUOUS
 62
    30
 10
-104.9189458990095
 20
120.1216612139268
 30
0.0
  0
POINT
  8
DEFPOINTS
  6
CONTINUOUS
 62
    30
 10
-6.0810541009914232
 20
83.878338786073186
 30
0.0
  0
TEXT
  8
ETC
  6
CONTINUOUS
 62
    61
 10
453.7874599702568
 20
796.84034720725003
 30
0.0
 40
64.0
  1
VD-13ZC13_2
 41
0.9
  0
TEXT
  8
ETC
  6
CONTINUOUS
 62
    61
 10
449.60146597025641
 20
678.88503719241885
 30
0.0
 40
64.0
  1
換気扇
 41
0.9
  0
TEXT
  8
ETC
  6
CONTINUOUS
 62
    61
 10
500.30286421881237
 20
570.73626430619368
 30
0.0
 40
40.0
  1
VD-13ZC13
 41
0.9
  0
TEXT
  8
ETC
  6
CONTINUOUS
 62
    61
 10
500.30286421881237
 20
504.73626430619362
 30
0.0
 40
40.0
  1
VD-13ZC13-BL
 41
0.9
  0
TEXT
  8
ETC
  6
CONTINUOUS
 62
    61
 10
500.30286421881237
 20
438.73626430619362
 30
0.0
 40
40.0
  1
VD-13ZLC13
 41
0.9
  0
TEXT
  8
NOTE
  6
CONTINUOUS
 62
     4
 10
369.62205720471371
 20
296.98864923914567
 30
0.0
 40
63.999999999999993
  1
8-φ5×11
 50
359.85073780173718
 41
0.9
  0
LINE
  8
NOTE
  6
CONTINUOUS
 62
     4
 10
770.09258789917567
 20
264.81163648304499
 30
0.0
 11
341.19634418640447
 21
265.68968746081151
 31
0.0
  0
ENDSEC
  0
EOF
