  0
SECTION
  2
HEADER
  9
$ACADVER
  1
AC1009
  9
$DWGCODEPAGE
  3
dos932
  9
$INSBASE
 10
0.0
 20
0.0
 30
0.0
  9
$EXTMIN
 10
-770.41624337483336
 20
-421.69188279855553
 30
-0.0015258207003583
  9
$EXTMAX
 10
1108.946239690931
 20
649.20044754305854
 30
0.0000000349246037
  9
$LIMMIN
 10
-2970.0
 20
-2100.0
  9
$LIMMAX
 10
2970.0
 20
2100.0
  9
$ORTHOMODE
 70
     1
  9
$REGENMODE
 70
     1
  9
$FILLMODE
 70
     1
  9
$QTEXTMODE
 70
     0
  9
$MIRRTEXT
 70
     0
  9
$LTSCALE
 40
20.0
  9
$ATTMODE
 70
     1
  9
$TEXTSIZE
 40
64.0
  9
$TRACEWID
 40
0.05
  9
$TEXTSTYLE
  7
STANDARD
  9
$CLAYER
  8
SIZE
  9
$CELTYPE
  6
CONTINUOUS
  9
$CECOLOR
 62
     7
  9
$DIMSCALE
 40
1.0
  9
$DIMASZ
 40
12.0
  9
$DIMEXO
 40
20.0
  9
$DIMDLI
 40
200.0
  9
$DIMRND
 40
0.0
  9
$DIMDLE
 40
0.0
  9
$DIMEXE
 40
20.0
  9
$DIMTP
 40
0.0
  9
$DIMTM
 40
0.0
  9
$DIMTXT
 40
64.0
  9
$DIMCEN
 40
0.09
  9
$DIMTSZ
 40
0.0
  9
$DIMTOL
 70
     0
  9
$DIMLIM
 70
     0
  9
$DIMTIH
 70
     0
  9
$DIMTOH
 70
     0
  9
$DIMSE1
 70
     0
  9
$DIMSE2
 70
     0
  9
$DIMTAD
 70
     1
  9
$DIMZIN
 70
     8
  9
$DIMBLK
  1

  9
$DIMASO
 70
     1
  9
$DIMSHO
 70
     0
  9
$DIMPOST
  1

  9
$DIMAPOST
  1

  9
$DIMALT
 70
     0
  9
$DIMALTD
 70
     2
  9
$DIMALTF
 40
25.399999999999999
  9
$DIMLFAC
 40
1.0
  9
$DIMTOFL
 70
     1
  9
$DIMTVP
 40
0.0
  9
$DIMTIX
 70
     1
  9
$DIMSOXD
 70
     0
  9
$DIMSAH
 70
     0
  9
$DIMBLK1
  1

  9
$DIMBLK2
  1

  9
$DIMSTYLE
  2
STANDARD
  9
$DIMCLRD
 70
     7
  9
$DIMCLRE
 70
     7
  9
$DIMCLRT
 70
     7
  9
$DIMTFAC
 40
1.0
  9
$DIMGAP
 40
25.0
  9
$LUNITS
 70
     2
  9
$LUPREC
 70
     4
  9
$SKETCHINC
 40
0.1
  9
$FILLETRAD
 40
3.0
  9
$AUNITS
 70
     1
  9
$AUPREC
 70
     3
  9
$MENU
  1
ACAD
  9
$ELEVATION
 40
0.0
  9
$PELEVATION
 40
0.0
  9
$THICKNESS
 40
0.0
  9
$LIMCHECK
 70
     0
  9
$CHAMFERA
 40
0.0
  9
$CHAMFERB
 40
0.0
  9
$SKPOLY
 70
     0
  9
$TDCREATE
 40
2453019.62301037
  9
$TDUPDATE
 40
2459025.49272493
  9
$TDINDWG
 40
1.7136849653
  9
$TDUSRTIMER
 40
1.7136849653
  9
$USRTIMER
 70
     1
  9
$ANGBASE
 50
0.0
  9
$ANGDIR
 70
     0
  9
$PDMODE
 70
     3
  9
$PDSIZE
 40
-2.0
  9
$PLINEWID
 40
0.0
  9
$SPLFRAME
 70
     0
  9
$SPLINETYPE
 70
     6
  9
$SPLINESEGS
 70
     8
  9
$SURFTAB1
 70
     6
  9
$SURFTAB2
 70
     6
  9
$SURFTYPE
 70
     6
  9
$SURFU
 70
     6
  9
$SURFV
 70
     6
  9
$UCSNAME
  2

  9
$UCSORG
 10
0.0
 20
0.0
 30
0.0
  9
$UCSXDIR
 10
1.0
 20
0.0
 30
0.0
  9
$UCSYDIR
 10
0.0
 20
1.0
 30
0.0
  9
$PUCSNAME
  2

  9
$PUCSORG
 10
0.0
 20
0.0
 30
0.0
  9
$PUCSXDIR
 10
1.0
 20
0.0
 30
0.0
  9
$PUCSYDIR
 10
0.0
 20
1.0
 30
0.0
  9
$USERI1
 70
     0
  9
$USERI2
 70
     0
  9
$USERI3
 70
     0
  9
$USERI4
 70
     0
  9
$USERI5
 70
     0
  9
$USERR1
 40
20.0
  9
$USERR2
 40
0.0
  9
$USERR3
 40
0.0
  9
$USERR4
 40
0.0
  9
$USERR5
 40
0.0
  9
$WORLDVIEW
 70
     1
  9
$SHADEDGE
 70
     3
  9
$SHADEDIF
 70
    70
  9
$TILEMODE
 70
     1
  9
$MAXACTVP
 70
    48
  9
$PINSBASE
 10
0.0
 20
0.0
 30
0.0
  9
$PLIMCHECK
 70
     0
  9
$PEXTMIN
 10
-100000000000000000000.0
 20
-100000000000000000000.0
 30
-100000000000000000000.0
  9
$PEXTMAX
 10
100000000000000000000.0
 20
100000000000000000000.0
 30
100000000000000000000.0
  9
$PLIMMIN
 10
0.0
 20
0.0
  9
$PLIMMAX
 10
12.0
 20
9.0
  9
$UNITMODE
 70
     0
  9
$VISRETAIN
 70
     0
  9
$PLINEGEN
 70
     0
  9
$PSLTSCALE
 70
     0
  9
$TREEDEPTH
 70
  3020
  9
$ATTDIA
 70
     0
  9
$ATTREQ
 70
     1
  9
$BLIPMODE
 70
     1
  9
$COORDS
 70
     1
  9
$DRAGMODE
 70
     2
  9
$OSMODE
 70
     0
  9
$HANDLING
 70
     0
  9
$HANDSEED
  5
FAC4
  0
ENDSEC
  0
SECTION
  2
TABLES
  0
TABLE
  2
LTYPE
 70
     3
  0
LTYPE
  2
CONTINUOUS
 70
     0
  3
実線
 72
    65
 73
     0
 40
0.0
  0
LTYPE
  2
DASHDOT
 70
     0
  3
____ _ ____ _ ____ _ ____ _ ____ _ ____ _ ____
 72
    65
 73
     4
 40
5.5
 49
4.0
 49
-0.6
 49
0.3
 49
-0.6
  0
LTYPE
  2
CENTER
 70
     0
  3
Center ____ _ ____ _ ____ _ ____ _ ____ _ ____
 72
    65
 73
     4
 40
1.0
 49
0.5
 49
-0.25
 49
0.0
 49
-0.25
  0
ENDTAB
  0
TABLE
  2
LAYER
 70
    12
  0
LAYER
  2
0
 70
     0
 62
     7
  6
CONTINUOUS
  0
LAYER
  2
BASIS
 70
     0
 62
     6
  6
DASHDOT
  0
LAYER
  2
OUTLINE
 70
     0
 62
     3
  6
CONTINUOUS
  0
LAYER
  2
DETAIL
 70
     0
 62
     5
  6
CONTINUOUS
  0
LAYER
  2
SIZE
 70
     0
 62
    30
  6
CONTINUOUS
  0
LAYER
  2
ARRANGE
 70
     0
 62
     1
  6
CONTINUOUS
  0
LAYER
  2
DEFPOINTS
 70
     0
 62
     7
  6
CONTINUOUS
  0
LAYER
  2
ETC
 70
     0
 62
    61
  6
CONTINUOUS
  0
LAYER
  2
FIX
 70
     0
 62
    11
  6
CONTINUOUS
  0
LAYER
  2
NOTE
 70
     0
 62
     4
  6
CONTINUOUS
  0
LAYER
  2
SERVICESPACE
 70
    64
 62
     2
  6
DASHDOT
  0
LAYER
  2
SYMBOLLINE
 70
    64
 62
    15
  6
CONTINUOUS
  0
ENDTAB
  0
TABLE
  2
STYLE
 70
     1
  0
STYLE
  2
STANDARD
 70
     0
 40
64.0
 41
0.9
 50
0.0
 71
     0
 42
64.0
  3
SIMPLEX.shx
  4
BIGFONT.shx
  0
ENDTAB
  0
TABLE
  2
APPID
 70
    19
  0
APPID
  2
ACAD
 70
     0
  0
APPID
  2
AUTOCAD_POSTSCRIPT_FIGURE
 70
     0
  0
APPID
  2
ACAD_EXEMPT_FROM_CAD_STANDARDS
 70
     0
  0
APPID
  2
ACAD_PSEXT
 70
     0
  0
APPID
  2
ACAUTHENVIRON
 70
     0
  0
APPID
  2
GENIUS_GENOENT_13
 70
     0
  0
APPID
  2
GENIUS_GENCFG_13
 70
     0
  0
APPID
  2
GENIUS_GENCFG0_13
 70
     0
  0
APPID
  2
GENIUS_GENCFG1_13
 70
     0
  0
APPID
  2
GENIUS_GENCFG2_13
 70
     0
  0
APPID
  2
GENIUS_GENCFG3_13
 70
     0
  0
APPID
  2
GENIUS_GENCFG4_13
 70
     0
  0
APPID
  2
GENIUS_GEVCFG0_13
 70
     0
  0
APPID
  2
CONTENTBLOCKICON
 70
     0
  0
APPID
  2
CONTENTBLOCKDESCRIPTION
 70
     0
  0
APPID
  2
ACAD_NAV_VCDISPLAY
 70
     0
  0
APPID
  2
ACAD_MLEADERVER
 70
     0
  0
APPID
  2
ACDBDYNAMICBLOCKTRUENAME
 70
     0
  0
APPID
  2
ACDBDYNAMICBLOCKGUID
 70
     0
  0
ENDTAB
  0
TABLE
  2
DIMSTYLE
 70
     1
  0
DIMSTYLE
  2
STANDARD
 70
     0
  3

  4

  5
_ORIGIN
  6

  7

 40
1.0
 41
12.0
 42
20.0
 43
200.0
 44
20.0
 45
0.0
 46
0.0
 47
0.0
 48
0.0
140
64.0
141
0.09
142
0.0
143
25.399999999999999
144
1.0
145
0.0
146
1.0
147
25.0
 71
     0
 72
     0
 73
     0
 74
     0
 75
     0
 76
     0
 77
     1
 78
     8
170
     0
171
     2
172
     1
173
     0
174
     1
175
     0
176
     7
177
     7
178
     7
  0
ENDTAB
  0
TABLE
  2
VIEW
 70
     1
  0
VIEW
  2
ALL
 70
     0
 40
4282.6198079999986
 10
0.0
 20
41.309904000000003
 41
5940.0
 11
0.0
 21
0.0
 31
1.0
 12
0.0
 22
0.0
 32
0.0
 42
50.0
 43
0.0
 44
0.0
 50
0.0
 71
     0
  0
ENDTAB
  0
TABLE
  2
UCS
 70
     0
  0
ENDTAB
  0
TABLE
  2
VPORT
 70
     1
  0
VPORT
  2
*ACTIVE
 70
     0
 10
0.0
 20
0.0
 11
1.0
 21
1.0
 12
169.264998158049
 22
113.7542823722515
 13
0.0
 23
0.0
 14
1.0
 24
1.0
 15
0.0
 25
0.0
 16
0.0
 26
0.0
 36
1.0
 17
0.0
 27
0.0
 37
0.0
 40
1079.359645972442
 41
1.747787610619469
 42
50.0
 43
0.0
 44
0.0
 50
0.0
 51
0.0
 71
     0
 72
  1000
 73
     1
 74
     3
 75
     0
 76
     0
 77
     0
 78
     0
  0
ENDTAB
  0
ENDSEC
  0
SECTION
  2
BLOCKS
  0
BLOCK
  8
0
  2
_ORIGIN
 70
     0
 10
0.0
 20
0.0
 30
0.0
  3
_ORIGIN
  1
_ORIGIN
  0
CIRCLE
  8
0
  6
CONTINUOUS
 62
     7
 10
0.0
 20
0.0
 30
0.0
 40
0.5
  0
LINE
  8
0
  6
CONTINUOUS
 62
     7
 10
0.0
 20
0.0
 30
0.0
 11
-1.0
 21
0.0
 31
0.0
  0
ENDBLK
  8
0
  0
ENDSEC
  0
SECTION
  2
ENTITIES
  0
TEXT
  8
NOTE
  6
CONTINUOUS
 62
     4
 10
228.30877196576279
 20
72.999698692489915
 30
0.0
 40
64.0
  1
EA
 41
0.9
 72
     2
 11
324.30877196576279
 21
72.999698692489915
 31
0.0
  0
CIRCLE
  8
ARRANGE
  6
CONTINUOUS
 62
     1
 10
0.0
 20
0.0
 30
0.0
 40
40.0
  0
POINT
  8
ARRANGE
  6
CONTINUOUS
 62
     1
 10
0.0
 20
0.0
 30
0.0
 50
90.000000000000014
  0
LINE
  8
BASIS
  6
DASHDOT
 62
     6
 10
0.0
 20
205.503829
 30
0.0
 11
0.0
 21
-31.987551
 31
0.0
  0
LINE
  8
DETAIL
  6
CONTINUOUS
 62
     5
 10
-51.434510000000053
 20
194.99927600000001
 30
0.0
 11
-51.462902999999642
 21
194.99999099999999
 31
0.0
  0
LINE
  8
DETAIL
  6
CONTINUOUS
 62
     5
 10
-51.325464999999888
 20
194.98494700000001
 30
0.0
 11
-51.434510000000053
 21
194.99927600000001
 31
0.0
  0
LINE
  8
DETAIL
  6
CONTINUOUS
 62
     5
 10
-51.221507999999631
 20
194.953565
 30
0.0
 11
-51.325464999999888
 21
194.98494700000001
 31
0.0
  0
LINE
  8
DETAIL
  6
CONTINUOUS
 62
     5
 10
-51.126325000000179
 20
194.9082830000001
 30
0.0
 11
-51.221507999999631
 21
194.953565
 31
0.0
  0
LINE
  8
DETAIL
  6
CONTINUOUS
 62
     5
 10
-51.04224400000021
 20
194.85344599999999
 30
0.0
 11
-51.126325000000179
 21
194.9082830000001
 31
0.0
  0
LINE
  8
DETAIL
  6
CONTINUOUS
 62
     5
 10
-50.967101000000177
 20
194.7910049999999
 30
0.0
 11
-51.04224400000021
 21
194.85344599999999
 31
0.0
  0
LINE
  8
DETAIL
  6
CONTINUOUS
 62
     5
 10
-50.89966800000002
 20
194.7227300000001
 30
0.0
 11
-50.967101000000177
 21
194.7910049999999
 31
0.0
  0
LINE
  8
DETAIL
  6
CONTINUOUS
 62
     5
 10
-50.83784199999991
 20
194.648762
 30
0.0
 11
-50.89966800000002
 21
194.7227300000001
 31
0.0
  0
LINE
  8
DETAIL
  6
CONTINUOUS
 62
     5
 10
-51.332425999999941
 20
194.9864180000001
 30
0.0
 11
-51.440604999999778
 21
194.99942999999999
 31
0.0
  0
LINE
  8
DETAIL
  6
CONTINUOUS
 62
     5
 10
-51.227805999999873
 20
194.9559829999998
 30
0.0
 11
-51.332425999999941
 21
194.9864180000001
 31
0.0
  0
LINE
  8
DETAIL
  6
CONTINUOUS
 62
     5
 10
-51.131864999999827
 20
194.91138699999999
 30
0.0
 11
-51.227805999999873
 21
194.9559829999998
 31
0.0
  0
LINE
  8
DETAIL
  6
CONTINUOUS
 62
     5
 10
-51.04708299999993
 20
194.85701399999991
 30
0.0
 11
-51.131864999999827
 21
194.91138699999999
 31
0.0
  0
LINE
  8
DETAIL
  6
CONTINUOUS
 62
     5
 10
-50.971340999999939
 20
194.79489599999999
 30
0.0
 11
-51.04708299999993
 21
194.85701399999991
 31
0.0
  0
LINE
  8
DETAIL
  6
CONTINUOUS
 62
     5
 10
-50.903452999999899
 20
194.72689299999999
 30
0.0
 11
-50.971340999999939
 21
194.79489599999999
 31
0.0
  0
LINE
  8
DETAIL
  6
CONTINUOUS
 62
     5
 10
-50.841284000000087
 20
194.65318600000001
 30
0.0
 11
-50.903452999999899
 21
194.72689299999999
 31
0.0
  0
ARC
  8
DETAIL
  6
CONTINUOUS
 62
     5
 10
-53.211766999999782
 20
194.5
 30
0.0
 40
0.5
 50
90.0
 51
154.74639900000619
  0
ARC
  8
DETAIL
  6
CONTINUOUS
 62
     5
 10
-90.603442000000086
 20
140.0
 30
0.0
 40
1.0
 50
90.0
 51
179.00000000000469
  0
ARC
  8
DETAIL
  6
CONTINUOUS
 62
     5
 10
-93.982696999999916
 20
61.0
 30
0.0
 40
1.0
 50
270.0
 51
358.99863600000219
  0
ARC
  8
DETAIL
  6
CONTINUOUS
 62
     5
 10
-95.737298999999894
 20
58.0
 30
0.0
 40
2.0
 50
90.000061000000926
 51
179.00000099999559
  0
LINE
  8
DETAIL
  6
CONTINUOUS
 62
     5
 10
-91.603290000000015
 20
140.01745199999991
 30
0.0
 11
-92.982849999999871
 21
60.982523000000008
 31
0.0
  0
LINE
  8
DETAIL
  6
CONTINUOUS
 62
     5
 10
-97.73699600000009
 20
58.034903999999983
 30
0.0
 11
-98.75
 21
0.0
 31
0.0
  0
LINE
  8
DETAIL
  6
CONTINUOUS
 62
     5
 10
-31.765777000000071
 20
149.5
 30
0.0
 11
72.405138999999963
 21
149.5
 31
0.0
  0
LINE
  8
DETAIL
  6
CONTINUOUS
 62
     5
 10
-36.026581000000078
 20
157.29718099999999
 30
0.0
 11
-36.542073999999957
 21
159.17098500000009
 31
0.0
  0
LINE
  8
DETAIL
  6
CONTINUOUS
 62
     5
 10
-47.428614999999809
 20
165.9169000000002
 30
0.0
 11
-47.456020999999957
 21
166.13432299999999
 31
0.0
  0
LINE
  8
DETAIL
  6
CONTINUOUS
 62
     5
 10
-47.379320999999891
 20
165.5905760000002
 30
0.0
 11
-47.428614999999809
 21
165.9169000000002
 31
0.0
  0
LINE
  8
DETAIL
  6
CONTINUOUS
 62
     5
 10
-47.321461999999883
 20
165.27445100000011
 30
0.0
 11
-47.379320999999891
 21
165.5905760000002
 31
0.0
  0
LINE
  8
DETAIL
  6
CONTINUOUS
 62
     5
 10
-47.255323999999753
 20
164.9700740000001
 30
0.0
 11
-47.321461999999883
 21
165.27445100000011
 31
0.0
  0
LINE
  8
DETAIL
  6
CONTINUOUS
 62
     5
 10
-47.181224999999813
 20
164.6788359999999
 30
0.0
 11
-47.255323999999753
 21
164.9700740000001
 31
0.0
  0
LINE
  8
DETAIL
  6
CONTINUOUS
 62
     5
 10
-47.09958000000006
 20
164.402197
 30
0.0
 11
-47.181224999999813
 21
164.6788359999999
 31
0.0
  0
LINE
  8
DETAIL
  6
CONTINUOUS
 62
     5
 10
-47.010862000000088
 20
164.14148900000001
 30
0.0
 11
-47.09958000000006
 21
164.402197
 31
0.0
  0
LINE
  8
DETAIL
  6
CONTINUOUS
 62
     5
 10
-46.915661999999877
 20
163.89799500000001
 30
0.0
 11
-47.010862000000088
 21
164.14148900000001
 31
0.0
  0
LINE
  8
DETAIL
  6
CONTINUOUS
 62
     5
 10
-46.814682999999597
 20
163.67290399999999
 30
0.0
 11
-46.915661999999877
 21
163.89799500000001
 31
0.0
  0
LINE
  8
DETAIL
  6
CONTINUOUS
 62
     5
 10
-46.708638000000057
 20
163.467027
 30
0.0
 11
-46.814682999999597
 21
163.67290399999999
 31
0.0
  0
LINE
  8
DETAIL
  6
CONTINUOUS
 62
     5
 10
-46.598657000000003
 20
163.28155899999999
 30
0.0
 11
-46.708638000000057
 21
163.467027
 31
0.0
  0
LINE
  8
DETAIL
  6
CONTINUOUS
 62
     5
 10
-46.484837999999847
 20
163.115714
 30
0.0
 11
-46.598657000000003
 21
163.28155899999999
 31
0.0
  0
LINE
  8
DETAIL
  6
CONTINUOUS
 62
     5
 10
-46.367671999999857
 20
162.9695379999998
 30
0.0
 11
-46.484837999999847
 21
163.115714
 31
0.0
  0
LINE
  8
DETAIL
  6
CONTINUOUS
 62
     5
 10
73.657639000000017
 20
178.0
 30
0.0
 11
75.563648000000285
 21
193.24806899999999
 31
0.0
  0
LINE
  8
DETAIL
  6
CONTINUOUS
 62
     5
 10
-46.247339999999888
 20
162.84279799999999
 30
0.0
 11
-46.367671999999857
 21
162.9695379999998
 31
0.0
  0
LINE
  8
DETAIL
  6
CONTINUOUS
 62
     5
 10
-46.124227999999682
 20
162.735648
 30
0.0
 11
-46.247339999999888
 21
162.84279799999999
 31
0.0
  0
LINE
  8
DETAIL
  6
CONTINUOUS
 62
     5
 10
-45.998469999999998
 20
162.6481680000002
 30
0.0
 11
-46.124227999999682
 21
162.735648
 31
0.0
  0
LINE
  8
DETAIL
  6
CONTINUOUS
 62
     5
 10
-45.870608000000168
 20
162.58079600000019
 30
0.0
 11
-45.998469999999998
 21
162.6481680000002
 31
0.0
  0
LINE
  8
DETAIL
  6
CONTINUOUS
 62
     5
 10
-45.738680999999808
 20
162.53310200000001
 30
0.0
 11
-45.870608000000168
 21
162.58079600000019
 31
0.0
  0
LINE
  8
DETAIL
  6
CONTINUOUS
 62
     5
 10
-45.599385999999868
 20
162.50575699999999
 30
0.0
 11
-45.738680999999808
 21
162.53310200000001
 31
0.0
  0
LINE
  8
DETAIL
  6
CONTINUOUS
 62
     5
 10
-45.497300000000003
 20
162.50000299999999
 30
0.0
 11
-45.599385999999868
 21
162.50575699999999
 31
0.0
  0
LINE
  8
DETAIL
  6
CONTINUOUS
 62
     5
 10
-35.473427999999792
 20
155.3106650000002
 30
0.0
 11
-36.026581000000078
 21
157.29718099999999
 31
0.0
  0
LINE
  8
DETAIL
  6
CONTINUOUS
 62
     5
 10
-34.913011999999981
 20
153.32261800000001
 30
0.0
 11
-35.473427999999792
 21
155.3106650000002
 31
0.0
  0
LINE
  8
DETAIL
  6
CONTINUOUS
 62
     5
 10
-45.497242999999798
 20
162.5
 30
0.0
 11
-40.036815999999817
 21
162.5
 31
0.0
  0
LINE
  8
DETAIL
  6
CONTINUOUS
 62
     5
 10
-34.139631000000008
 20
150.62068800000009
 30
0.0
 11
-34.913011999999981
 21
153.32261800000001
 31
0.0
  0
LINE
  8
DETAIL
  6
CONTINUOUS
 62
     5
 10
-36.542074999999841
 20
159.17097799999999
 30
0.0
 11
-36.593613999999889
 21
159.34888000000001
 31
0.0
  0
LINE
  8
DETAIL
  6
CONTINUOUS
 62
     5
 10
77.548204000000169
 20
195.0
 30
0.0
 11
84.01707499999975
 21
195.0
 31
0.0
  0
LINE
  8
DETAIL
  6
CONTINUOUS
 62
     5
 10
-39.902357999999822
 20
162.496499
 30
0.0
 11
-40.036713999999847
 21
162.49999600000001
 31
0.0
  0
LINE
  8
DETAIL
  6
CONTINUOUS
 62
     5
 10
-53.211766999999782
 20
195.0
 30
0.0
 11
-51.465054000000237
 21
195.0
 31
0.0
  0
LINE
  8
DETAIL
  6
CONTINUOUS
 62
     5
 10
73.532639000000017
 20
170.0
 30
0.0
 11
73.532639000000017
 21
171.0
 31
0.0
  0
LINE
  8
DETAIL
  6
CONTINUOUS
 62
     5
 10
-39.674858999999742
 20
162.4747450000001
 30
0.0
 11
-39.902357999999822
 21
162.496499
 31
0.0
  0
LINE
  8
DETAIL
  6
CONTINUOUS
 62
     5
 10
-39.446625999999917
 20
162.43286699999999
 30
0.0
 11
-39.674858999999742
 21
162.4747450000001
 31
0.0
  0
LINE
  8
DETAIL
  6
CONTINUOUS
 62
     5
 10
-39.219012000000021
 20
162.3708350000002
 30
0.0
 11
-39.446625999999917
 21
162.43286699999999
 31
0.0
  0
LINE
  8
DETAIL
  6
CONTINUOUS
 62
     5
 10
-38.993223999999827
 20
162.2887549999999
 30
0.0
 11
-39.219012000000021
 21
162.3708350000002
 31
0.0
  0
LINE
  8
DETAIL
  6
CONTINUOUS
 62
     5
 10
-38.770403999999871
 20
162.18687499999999
 30
0.0
 11
-38.993223999999827
 21
162.2887549999999
 31
0.0
  0
LINE
  8
DETAIL
  6
CONTINUOUS
 62
     5
 10
-38.551688000000013
 20
162.06555
 30
0.0
 11
-38.770403999999871
 21
162.18687499999999
 31
0.0
  0
LINE
  8
DETAIL
  6
CONTINUOUS
 62
     5
 10
-38.338130000000092
 20
161.92524900000001
 30
0.0
 11
-38.551688000000013
 21
162.06555
 31
0.0
  0
LINE
  8
DETAIL
  6
CONTINUOUS
 62
     5
 10
-38.130772999999863
 20
161.766536
 30
0.0
 11
-38.338130000000092
 21
161.92524900000001
 31
0.0
  0
LINE
  8
DETAIL
  6
CONTINUOUS
 62
     5
 10
-37.930563999999777
 20
161.59004300000001
 30
0.0
 11
-38.130772999999863
 21
161.766536
 31
0.0
  0
LINE
  8
DETAIL
  6
CONTINUOUS
 62
     5
 10
-37.738448000000062
 20
161.396479
 30
0.0
 11
-37.930563999999777
 21
161.59004300000001
 31
0.0
  0
LINE
  8
DETAIL
  6
CONTINUOUS
 62
     5
 10
-37.555335999999897
 20
161.1866659999998
 30
0.0
 11
-37.738448000000062
 21
161.396479
 31
0.0
  0
LINE
  8
DETAIL
  6
CONTINUOUS
 62
     5
 10
-37.382114000000001
 20
160.96149600000001
 30
0.0
 11
-37.555335999999897
 21
161.1866659999998
 31
0.0
  0
LINE
  8
DETAIL
  6
CONTINUOUS
 62
     5
 10
-37.21961599999986
 20
160.7219630000001
 30
0.0
 11
-37.382114000000001
 21
160.96149600000001
 31
0.0
  0
LINE
  8
DETAIL
  6
CONTINUOUS
 62
     5
 10
-37.068639999999959
 20
160.46912499999999
 30
0.0
 11
-37.21961599999986
 21
160.7219630000001
 31
0.0
  0
LINE
  8
DETAIL
  6
CONTINUOUS
 62
     5
 10
-36.929919000000147
 20
160.20415299999999
 30
0.0
 11
-37.068639999999959
 21
160.46912499999999
 31
0.0
  0
LINE
  8
DETAIL
  6
CONTINUOUS
 62
     5
 10
-36.804140000000189
 20
159.92828900000009
 30
0.0
 11
-36.929919000000147
 21
160.20415299999999
 31
0.0
  0
LINE
  8
DETAIL
  6
CONTINUOUS
 62
     5
 10
-36.691859000000022
 20
159.64274399999999
 30
0.0
 11
-36.804140000000189
 21
159.92828900000009
 31
0.0
  0
LINE
  8
DETAIL
  6
CONTINUOUS
 62
     5
 10
-36.593613999999889
 20
159.34888000000001
 30
0.0
 11
-36.691859000000022
 21
159.64274399999999
 31
0.0
  0
LINE
  8
DETAIL
  6
CONTINUOUS
 62
     5
 10
86.001631000000089
 20
193.24806899999999
 30
0.0
 11
87.907639000000017
 21
178.0
 31
0.0
  0
LINE
  8
DETAIL
  6
CONTINUOUS
 62
     5
 10
-49.601106000000073
 20
187.15900199999999
 30
0.0
 11
-49.942817000000097
 21
191.205319
 31
0.0
  0
LINE
  8
DETAIL
  6
CONTINUOUS
 62
     5
 10
-49.223238999999921
 20
182.97524800000011
 30
0.0
 11
-49.601106000000073
 21
187.15900199999999
 31
0.0
  0
LINE
  8
DETAIL
  6
CONTINUOUS
 62
     5
 10
-48.818463000000072
 20
178.76828800000001
 30
0.0
 11
-49.223238999999921
 21
182.97524800000011
 31
0.0
  0
LINE
  8
DETAIL
  6
CONTINUOUS
 62
     5
 10
-48.38667600000008
 20
174.538285
 30
0.0
 11
-48.818463000000072
 21
178.76828800000001
 31
0.0
  0
LINE
  8
DETAIL
  6
CONTINUOUS
 62
     5
 10
-47.927752000000048
 20
170.28539900000001
 30
0.0
 11
-48.38667600000008
 21
174.538285
 31
0.0
  0
LINE
  8
DETAIL
  6
CONTINUOUS
 62
     5
 10
-47.45602400000007
 20
166.1343330000002
 30
0.0
 11
-47.927752000000048
 21
170.28539900000001
 31
0.0
  0
LINE
  8
DETAIL
  6
CONTINUOUS
 62
     5
 10
-50.780096999999842
 20
194.568905
 30
0.0
 11
-50.841284000000087
 21
194.65318600000001
 31
0.0
  0
LINE
  8
DETAIL
  6
CONTINUOUS
 62
     5
 10
-50.72516799999994
 20
194.48252500000001
 30
0.0
 11
-50.780096999999842
 21
194.568905
 31
0.0
  0
LINE
  8
DETAIL
  6
CONTINUOUS
 62
     5
 10
-50.672000999999909
 20
194.38859400000001
 30
0.0
 11
-50.72516799999994
 21
194.48252500000001
 31
0.0
  0
LINE
  8
DETAIL
  6
CONTINUOUS
 62
     5
 10
-50.620086999999778
 20
194.2864920000001
 30
0.0
 11
-50.672000999999909
 21
194.38859400000001
 31
0.0
  0
LINE
  8
DETAIL
  6
CONTINUOUS
 62
     5
 10
-50.568948999999982
 20
194.17531199999999
 30
0.0
 11
-50.620086999999778
 21
194.2864920000001
 31
0.0
  0
LINE
  8
DETAIL
  6
CONTINUOUS
 62
     5
 10
-50.518449000000153
 20
194.05456100000001
 30
0.0
 11
-50.568948999999982
 21
194.17531199999999
 31
0.0
  0
LINE
  8
DETAIL
  6
CONTINUOUS
 62
     5
 10
-50.468474999999671
 20
193.92363700000001
 30
0.0
 11
-50.518449000000153
 21
194.05456100000001
 31
0.0
  0
LINE
  8
DETAIL
  6
CONTINUOUS
 62
     5
 10
-34.13383900000008
 20
150.6142110000001
 30
0.0
 11
-34.139631000000008
 21
150.62068800000009
 31
0.0
  0
LINE
  8
DETAIL
  6
CONTINUOUS
 62
     5
 10
-50.419050999999847
 20
193.78212700000009
 30
0.0
 11
-50.468474999999671
 21
193.92363700000001
 31
0.0
  0
LINE
  8
DETAIL
  6
CONTINUOUS
 62
     5
 10
-33.916002999999819
 20
150.40373299999999
 30
0.0
 11
-34.13383900000008
 21
150.6142110000001
 31
0.0
  0
LINE
  8
DETAIL
  6
CONTINUOUS
 62
     5
 10
-50.3702830000002
 20
193.629727
 30
0.0
 11
-50.419050999999847
 21
193.78212700000009
 31
0.0
  0
LINE
  8
DETAIL
  6
CONTINUOUS
 62
     5
 10
-33.685973999999987
 20
150.21294399999999
 30
0.0
 11
-33.916002999999819
 21
150.40373299999999
 31
0.0
  0
LINE
  8
DETAIL
  6
CONTINUOUS
 62
     5
 10
-50.32219699999996
 20
193.465746
 30
0.0
 11
-50.3702830000002
 21
193.629727
 31
0.0
  0
LINE
  8
DETAIL
  6
CONTINUOUS
 62
     5
 10
-33.444524000000001
 20
150.042824
 30
0.0
 11
-33.685973999999987
 21
150.21294399999999
 31
0.0
  0
LINE
  8
DETAIL
  6
CONTINUOUS
 62
     5
 10
-50.274903999999879
 20
193.28958900000009
 30
0.0
 11
-50.32219699999996
 21
193.465746
 31
0.0
  0
LINE
  8
DETAIL
  6
CONTINUOUS
 62
     5
 10
-33.192755000000027
 20
149.89447799999991
 30
0.0
 11
-33.444524000000001
 21
150.042824
 31
0.0
  0
LINE
  8
DETAIL
  6
CONTINUOUS
 62
     5
 10
-50.228592999999819
 20
193.10070999999991
 30
0.0
 11
-50.274903999999879
 21
193.28958900000009
 31
0.0
  0
LINE
  8
DETAIL
  6
CONTINUOUS
 62
     5
 10
-32.93177999999989
 20
149.7687830000001
 30
0.0
 11
-33.192755000000027
 21
149.89447799999991
 31
0.0
  0
LINE
  8
DETAIL
  6
CONTINUOUS
 62
     5
 10
-50.183492000000108
 20
192.898584
 30
0.0
 11
-50.228592999999819
 21
193.10070999999991
 31
0.0
  0
LINE
  8
DETAIL
  6
CONTINUOUS
 62
     5
 10
-32.662718000000041
 20
149.66648500000019
 30
0.0
 11
-32.93177999999989
 21
149.7687830000001
 31
0.0
  0
LINE
  8
DETAIL
  6
CONTINUOUS
 62
     5
 10
-50.139905999999883
 20
192.6827770000001
 30
0.0
 11
-50.183492000000108
 21
192.898584
 31
0.0
  0
LINE
  8
DETAIL
  6
CONTINUOUS
 62
     5
 10
-32.386803999999763
 20
149.58819100000019
 30
0.0
 11
-32.662718000000041
 21
149.66648500000019
 31
0.0
  0
LINE
  8
DETAIL
  6
CONTINUOUS
 62
     5
 10
-50.09818499999983
 20
192.45290900000001
 30
0.0
 11
-50.139905999999883
 21
192.6827770000001
 31
0.0
  0
LINE
  8
DETAIL
  6
CONTINUOUS
 62
     5
 10
-32.105168000000049
 20
149.534368
 30
0.0
 11
-32.386803999999763
 21
149.58819100000019
 31
0.0
  0
LINE
  8
DETAIL
  6
CONTINUOUS
 62
     5
 10
-50.05873100000008
 20
192.2086810000001
 30
0.0
 11
-50.09818499999983
 21
192.45290900000001
 31
0.0
  0
LINE
  8
DETAIL
  6
CONTINUOUS
 62
     5
 10
-31.819030999999999
 20
149.505392
 30
0.0
 11
-32.105168000000049
 21
149.534368
 31
0.0
  0
LINE
  8
DETAIL
  6
CONTINUOUS
 62
     5
 10
-50.022006000000147
 20
191.949873
 30
0.0
 11
-50.05873100000008
 21
192.2086810000001
 31
0.0
  0
LINE
  8
DETAIL
  6
CONTINUOUS
 62
     5
 10
-31.63159700000006
 20
149.5000040000001
 30
0.0
 11
-31.819030999999999
 21
149.505392
 31
0.0
  0
LINE
  8
DETAIL
  6
CONTINUOUS
 62
     5
 10
-49.988508999999787
 20
191.67633900000001
 30
0.0
 11
-50.022006000000147
 21
191.949873
 31
0.0
  0
LINE
  8
DETAIL
  6
CONTINUOUS
 62
     5
 10
-49.958786000000153
 20
191.38787600000001
 30
0.0
 11
-49.988508999999787
 21
191.67633900000001
 31
0.0
  0
LINE
  8
DETAIL
  6
CONTINUOUS
 62
     5
 10
-49.942817999999988
 20
191.20531700000001
 30
0.0
 11
-49.958786000000153
 21
191.38787600000001
 31
0.0
  0
LINE
  8
DETAIL
  6
CONTINUOUS
 62
     5
 10
-48.624663999999939
 20
176.83970099999999
 30
0.0
 11
-48.680548999999701
 21
177.4172150000002
 31
0.0
  0
LINE
  8
DETAIL
  6
CONTINUOUS
 62
     5
 10
-48.555977999999868
 20
176.196855
 30
0.0
 11
-48.624663999999939
 21
176.83970099999999
 31
0.0
  0
ARC
  8
DETAIL
  6
CONTINUOUS
 62
     5
 10
84.01707499999975
 20
193.0
 30
0.0
 40
2.0
 50
7.1250160000032734
 51
90.0
  0
ARC
  8
DETAIL
  6
CONTINUOUS
 62
     5
 10
77.548204000000169
 20
193.0
 30
0.0
 40
2.0
 50
90.0
 51
172.87498399999669
  0
ARC
  8
DETAIL
  6
CONTINUOUS
 62
     5
 10
-142.23457400000009
 20
-8.8729990000000498
 30
0.0
 40
0.3
 50
182.99999999999901
 51
226.50000000000489
  0
LINE
  8
DETAIL
  6
CONTINUOUS
 62
     5
 10
-136.44539900000021
 20
-14.780300000000009
 30
0.0
 11
-142.4410800000002
 21
-9.0906109999999671
 31
0.0
  0
LINE
  8
DETAIL
  6
CONTINUOUS
 62
     5
 10
-143.0
 20
0.0
 30
0.0
 11
-142.53416299999981
 21
-8.8886989999999741
 31
0.0
  0
ARC
  8
DETAIL
  6
CONTINUOUS
 62
     5
 10
-135.89471499999991
 20
-14.19999999999993
 30
0.0
 40
0.8
 50
226.50000000000489
 51
270.0
  0
ARC
  8
DETAIL
  6
CONTINUOUS
 62
     5
 10
142.2345750000004
 20
-8.8729990000000498
 30
0.0
 40
0.3
 50
313.49999999999483
 51
357.00000000000102
  0
LINE
  8
DETAIL
  6
CONTINUOUS
 62
     5
 10
136.44540000000009
 20
-14.780300000000009
 30
0.0
 11
142.44108099999991
 21
-9.0906109999999671
 31
0.0
  0
LINE
  8
DETAIL
  6
CONTINUOUS
 62
     5
 10
143.0
 20
0.0
 30
0.0
 11
142.53416400000009
 21
-8.8886989999999741
 31
0.0
  0
ARC
  8
DETAIL
  6
CONTINUOUS
 62
     5
 10
135.89471600000019
 20
-14.19999999999993
 30
0.0
 40
0.8
 50
270.0
 51
313.49999999999483
  0
LINE
  8
NOTE
  6
CENTER
 62
     4
 10
213.82820100000029
 20
102.0
 30
0.0
 11
63.315588999999818
 21
102.0
 31
0.0
  0
LINE
  8
DETAIL
  6
CONTINUOUS
 62
     5
 10
179.49382800000009
 20
52.562467999999967
 30
0.0
 11
179.49382800000009
 21
151.43753100000001
 31
0.0
  0
LINE
  8
DETAIL
  6
CONTINUOUS
 62
     5
 10
176.1188910000001
 20
49.538982000000033
 30
0.0
 11
176.1188910000001
 21
154.46101800000019
 31
0.0
  0
LINE
  8
DETAIL
  6
CONTINUOUS
 62
     5
 10
134.8021470000003
 20
49.00269000000003
 30
0.0
 11
134.8021470000003
 21
154.997309
 31
0.0
  0
LINE
  8
DETAIL
  6
CONTINUOUS
 62
     5
 10
66.493828000000121
 20
173.0
 30
0.0
 11
95.517622000000301
 21
173.0
 31
0.0
  0
LINE
  8
DETAIL
  6
CONTINUOUS
 62
     5
 10
66.493828000000121
 20
171.0
 30
0.0
 11
79.050780000000032
 21
171.0
 31
0.0
  0
LINE
  8
DETAIL
  6
CONTINUOUS
 62
     5
 10
175.30070000000021
 20
154.6438830000001
 30
0.0
 11
98.765736000000288
 21
155.31179400000019
 31
0.0
  0
ARC
  8
DETAIL
  6
CONTINUOUS
 62
     5
 10
175.2832470000003
 20
152.64395999999999
 30
0.0
 40
2.0
 50
44.999999999991083
 51
89.500000000034504
  0
ARC
  8
DETAIL
  6
CONTINUOUS
 62
     5
 10
180.32947200000041
 20
153.25458900000001
 30
0.0
 40
2.0
 50
224.9999999999911
 51
269.50000000003462
  0
LINE
  8
DETAIL
  6
CONTINUOUS
 62
     5
 10
178.91525799999999
 20
151.84037599999999
 30
0.0
 11
176.69746099999969
 21
154.05817300000001
 31
0.0
  0
ARC
  8
DETAIL
  6
CONTINUOUS
 62
     5
 10
79.050780000000032
 20
169.0
 30
0.0
 40
2.0
 50
1.0000000000017759
 51
90.0
  0
LINE
  8
DETAIL
  6
CONTINUOUS
 62
     5
 10
67.493828000000121
 20
178.0
 30
0.0
 11
90.493828000000121
 21
178.0
 31
0.0
  0
LINE
  8
DETAIL
  6
CONTINUOUS
 62
     5
 10
91.493828000000121
 20
177.0
 30
0.0
 11
91.493828000000121
 21
173.0
 31
0.0
  0
ARC
  8
DETAIL
  6
CONTINUOUS
 62
     5
 10
90.493828000000121
 20
177.0
 30
0.0
 40
1.0
 50
0.0
 51
90.0
  0
LINE
  8
DETAIL
  6
CONTINUOUS
 62
     5
 10
66.493828000000121
 20
177.0
 30
0.0
 11
66.493828000000121
 21
171.0
 31
0.0
  0
ARC
  8
DETAIL
  6
CONTINUOUS
 62
     5
 10
67.493828000000121
 20
177.0
 30
0.0
 40
1.0
 50
90.0
 51
180.0
  0
LINE
  8
DETAIL
  6
CONTINUOUS
 62
     5
 10
81.050475000000006
 20
169.03490400000001
 30
0.0
 11
84.000990999999885
 21
0.0
 31
0.0
  0
ARC
  8
DETAIL
  6
CONTINUOUS
 62
     5
 10
95.517622000000301
 20
171.0
 30
0.0
 40
2.0
 50
1.0000000000017759
 51
90.0
  0
ARC
  8
DETAIL
  6
CONTINUOUS
 62
     5
 10
100.72364300000029
 20
44.643310000000042
 30
0.0
 40
1.0
 50
95.668187000012011
 51
181.00000000000179
  0
LINE
  8
DETAIL
  6
CONTINUOUS
 62
     5
 10
100.6248759999999
 20
45.638420000000004
 30
0.0
 11
134.49382800000009
 21
49.0
 31
0.0
  0
LINE
  8
DETAIL
  6
CONTINUOUS
 62
     5
 10
175.30070000000021
 20
49.356116000000043
 30
0.0
 11
134.49382800000009
 21
49.0
 31
0.0
  0
ARC
  8
DETAIL
  6
CONTINUOUS
 62
     5
 10
175.2832470000003
 20
51.356040000000007
 30
0.0
 40
2.0
 50
270.49999999996538
 51
315.00000000000892
  0
LINE
  8
DETAIL
  6
CONTINUOUS
 62
     5
 10
178.91525799999999
 20
52.159624000000008
 30
0.0
 11
176.69746099999969
 21
49.941826000000113
 31
0.0
  0
ARC
  8
DETAIL
  6
CONTINUOUS
 62
     5
 10
180.32947200000041
 20
50.745409999999993
 30
0.0
 40
2.0
 50
90.500000000017621
 51
135.0000000000089
  0
LINE
  8
DETAIL
  6
CONTINUOUS
 62
     5
 10
209.49382800000009
 20
53.0
 30
0.0
 11
180.31201899999999
 21
52.745334000000071
 31
0.0
  0
LINE
  8
DETAIL
  6
CONTINUOUS
 62
     5
 10
209.49382800000009
 20
151.0
 30
0.0
 11
209.49382800000009
 21
53.0
 31
0.0
  0
LINE
  8
DETAIL
  6
CONTINUOUS
 62
     5
 10
209.49382800000009
 20
151.0
 30
0.0
 11
180.31201899999999
 21
151.2546649999999
 31
0.0
  0
ARC
  8
DETAIL
  6
CONTINUOUS
 62
     5
 10
98.774463000000196
 20
156.3117559999998
 30
0.0
 40
1.0
 50
181.00000000000179
 51
269.50000000003462
  0
LINE
  8
DETAIL
  6
CONTINUOUS
 62
     5
 10
99.723794999999882
 20
44.625857000000003
 30
0.0
 11
100.5027420000001
 21
0.0
 31
0.0
  0
LINE
  8
DETAIL
  6
CONTINUOUS
 62
     5
 10
97.517316999999821
 20
171.03490400000001
 30
0.0
 11
97.774615000000267
 21
156.29430300000001
 31
0.0
  0
LINE
  8
DETAIL
  6
CONTINUOUS
 62
     5
 10
-95.737301000000116
 20
60.0
 30
0.0
 11
-93.982696999999916
 21
60.0
 31
0.0
  0
LINE
  8
DETAIL
  6
CONTINUOUS
 62
     5
 10
-90.603442000000086
 20
141.0
 30
0.0
 11
-79.000950999999986
 21
141.0
 31
0.0
  0
LINE
  8
DETAIL
  6
CONTINUOUS
 62
     5
 10
-53.663980999999687
 20
194.713312
 30
0.0
 11
-79.000950999999986
 21
141.0
 31
0.0
  0
LINE
  8
DETAIL
  6
CONTINUOUS
 62
     5
 10
72.405138999999963
 20
149.5
 30
0.0
 11
73.532639000000017
 21
170.0
 31
0.0
  0
LINE
  8
DETAIL
  6
CONTINUOUS
 62
     5
 10
-143.0
 20
0.0
 30
0.0
 11
143.0
 21
0.0
 31
0.0
  0
LINE
  8
DETAIL
  6
CONTINUOUS
 62
     5
 10
-142.50236899999979
 20
-9.0082229999999299
 30
0.0
 11
142.52789999999999
 21
-9.0082229999999299
 31
0.0
  0
LINE
  8
DETAIL
  6
CONTINUOUS
 62
     5
 10
-135.89471499999991
 20
-15.0
 30
0.0
 11
135.89471600000019
 21
-15.0
 31
0.0
  0
LINE
  8
NOTE
  6
CENTER
 62
     4
 10
56.0
 20
159.418756
 30
0.0
 11
56.0
 21
139.137597
 31
0.0
  0
LINE
  8
OUTLINE
  6
CONTINUOUS
 62
     3
 10
-51.434510000000053
 20
194.99927700000001
 30
0.0
 11
-51.462902999999642
 21
194.99999199999999
 31
0.0
  0
LINE
  8
OUTLINE
  6
CONTINUOUS
 62
     3
 10
-51.325464999999888
 20
194.984948
 30
0.0
 11
-51.434510000000053
 21
194.99927700000001
 31
0.0
  0
LINE
  8
OUTLINE
  6
CONTINUOUS
 62
     3
 10
-51.221507999999631
 20
194.953565
 30
0.0
 11
-51.325464999999888
 21
194.984948
 31
0.0
  0
LINE
  8
OUTLINE
  6
CONTINUOUS
 62
     3
 10
-51.126325000000179
 20
194.90828400000009
 30
0.0
 11
-51.221507999999631
 21
194.953565
 31
0.0
  0
LINE
  8
OUTLINE
  6
CONTINUOUS
 62
     3
 10
-51.04224400000021
 20
194.8534460000001
 30
0.0
 11
-51.126325000000179
 21
194.90828400000009
 31
0.0
  0
LINE
  8
OUTLINE
  6
CONTINUOUS
 62
     3
 10
-50.967101000000177
 20
194.79100600000001
 30
0.0
 11
-51.04224400000021
 21
194.8534460000001
 31
0.0
  0
LINE
  8
OUTLINE
  6
CONTINUOUS
 62
     3
 10
-50.89966800000002
 20
194.72273000000001
 30
0.0
 11
-50.967101000000177
 21
194.79100600000001
 31
0.0
  0
LINE
  8
OUTLINE
  6
CONTINUOUS
 62
     3
 10
-50.83784199999991
 20
194.648763
 30
0.0
 11
-50.89966800000002
 21
194.72273000000001
 31
0.0
  0
LINE
  8
OUTLINE
  6
CONTINUOUS
 62
     3
 10
-51.332425999999941
 20
194.98641799999999
 30
0.0
 11
-51.440604999999778
 21
194.9994300000001
 31
0.0
  0
LINE
  8
OUTLINE
  6
CONTINUOUS
 62
     3
 10
-51.227805999999873
 20
194.95598300000009
 30
0.0
 11
-51.332425999999941
 21
194.98641799999999
 31
0.0
  0
LINE
  8
OUTLINE
  6
CONTINUOUS
 62
     3
 10
-51.131864999999827
 20
194.91138699999999
 30
0.0
 11
-51.227805999999873
 21
194.95598300000009
 31
0.0
  0
LINE
  8
OUTLINE
  6
CONTINUOUS
 62
     3
 10
-51.04708299999993
 20
194.85701399999991
 30
0.0
 11
-51.131864999999827
 21
194.91138699999999
 31
0.0
  0
LINE
  8
OUTLINE
  6
CONTINUOUS
 62
     3
 10
-50.971340999999939
 20
194.79489699999999
 30
0.0
 11
-51.04708299999993
 21
194.85701399999991
 31
0.0
  0
LINE
  8
OUTLINE
  6
CONTINUOUS
 62
     3
 10
-50.903452999999899
 20
194.72689399999999
 30
0.0
 11
-50.971340999999939
 21
194.79489699999999
 31
0.0
  0
LINE
  8
OUTLINE
  6
CONTINUOUS
 62
     3
 10
-50.841284000000087
 20
194.65318600000001
 30
0.0
 11
-50.903452999999899
 21
194.72689399999999
 31
0.0
  0
ARC
  8
OUTLINE
  6
CONTINUOUS
 62
     3
 10
-53.211766999999782
 20
194.5
 30
0.0
 40
0.5
 50
90.0
 51
154.74639900000619
  0
ARC
  8
OUTLINE
  6
CONTINUOUS
 62
     3
 10
-90.603442000000086
 20
140.0
 30
0.0
 40
1.0
 50
90.0
 51
179.00000000000469
  0
ARC
  8
OUTLINE
  6
CONTINUOUS
 62
     3
 10
-93.982696999999916
 20
61.0
 30
0.0
 40
1.0
 50
270.0
 51
358.99863600000219
  0
ARC
  8
OUTLINE
  6
CONTINUOUS
 62
     3
 10
-95.737298999999894
 20
58.0
 30
0.0
 40
2.0
 50
90.000061000000926
 51
179.00000099999559
  0
LINE
  8
OUTLINE
  6
CONTINUOUS
 62
     3
 10
-91.603290000000015
 20
140.0174529999999
 30
0.0
 11
-92.982849999999871
 21
60.982524000000012
 31
0.0
  0
LINE
  8
OUTLINE
  6
CONTINUOUS
 62
     3
 10
-97.73699600000009
 20
58.034904999999981
 30
0.0
 11
-98.75
 21
0.0
 31
0.0
  0
LINE
  8
OUTLINE
  6
CONTINUOUS
 62
     3
 10
-47.428614999999809
 20
165.91690100000019
 30
0.0
 11
-47.456020999999957
 21
166.13432399999999
 31
0.0
  0
LINE
  8
OUTLINE
  6
CONTINUOUS
 62
     3
 10
-47.379320999999891
 20
165.5905760000002
 30
0.0
 11
-47.428614999999809
 21
165.91690100000019
 31
0.0
  0
LINE
  8
OUTLINE
  6
CONTINUOUS
 62
     3
 10
-47.321461999999883
 20
165.274452
 30
0.0
 11
-47.379320999999891
 21
165.5905760000002
 31
0.0
  0
LINE
  8
OUTLINE
  6
CONTINUOUS
 62
     3
 10
-47.255323999999753
 20
164.9700740000001
 30
0.0
 11
-47.321461999999883
 21
165.274452
 31
0.0
  0
LINE
  8
OUTLINE
  6
CONTINUOUS
 62
     3
 10
-47.181224999999813
 20
164.6788369999999
 30
0.0
 11
-47.255323999999753
 21
164.9700740000001
 31
0.0
  0
LINE
  8
OUTLINE
  6
CONTINUOUS
 62
     3
 10
-47.09958000000006
 20
164.402197
 30
0.0
 11
-47.181224999999813
 21
164.6788369999999
 31
0.0
  0
LINE
  8
OUTLINE
  6
CONTINUOUS
 62
     3
 10
-47.010862000000088
 20
164.14148900000009
 30
0.0
 11
-47.09958000000006
 21
164.402197
 31
0.0
  0
LINE
  8
OUTLINE
  6
CONTINUOUS
 62
     3
 10
-46.915661999999877
 20
163.89799500000001
 30
0.0
 11
-47.010862000000088
 21
164.14148900000009
 31
0.0
  0
LINE
  8
OUTLINE
  6
CONTINUOUS
 62
     3
 10
-46.814682999999597
 20
163.67290499999999
 30
0.0
 11
-46.915661999999877
 21
163.89799500000001
 31
0.0
  0
LINE
  8
OUTLINE
  6
CONTINUOUS
 62
     3
 10
-46.708638000000057
 20
163.467027
 30
0.0
 11
-46.814682999999597
 21
163.67290499999999
 31
0.0
  0
LINE
  8
OUTLINE
  6
CONTINUOUS
 62
     3
 10
-46.598657000000003
 20
163.28156000000001
 30
0.0
 11
-46.708638000000057
 21
163.467027
 31
0.0
  0
LINE
  8
OUTLINE
  6
CONTINUOUS
 62
     3
 10
-46.484837999999847
 20
163.11571499999999
 30
0.0
 11
-46.598657000000003
 21
163.28156000000001
 31
0.0
  0
LINE
  8
OUTLINE
  6
CONTINUOUS
 62
     3
 10
-46.367671999999857
 20
162.9695390000002
 30
0.0
 11
-46.484837999999847
 21
163.11571499999999
 31
0.0
  0
LINE
  8
OUTLINE
  6
CONTINUOUS
 62
     3
 10
73.657639000000017
 20
178.0
 30
0.0
 11
75.563648000000285
 21
193.2480700000001
 31
0.0
  0
LINE
  8
OUTLINE
  6
CONTINUOUS
 62
     3
 10
-46.247339999999888
 20
162.84279799999999
 30
0.0
 11
-46.367671999999857
 21
162.9695390000002
 31
0.0
  0
LINE
  8
OUTLINE
  6
CONTINUOUS
 62
     3
 10
-46.124227999999682
 20
162.73564800000011
 30
0.0
 11
-46.247339999999888
 21
162.84279799999999
 31
0.0
  0
LINE
  8
OUTLINE
  6
CONTINUOUS
 62
     3
 10
-45.998469999999998
 20
162.64816900000019
 30
0.0
 11
-46.124227999999682
 21
162.73564800000011
 31
0.0
  0
LINE
  8
OUTLINE
  6
CONTINUOUS
 62
     3
 10
-45.870608000000168
 20
162.58079599999999
 30
0.0
 11
-45.998469999999998
 21
162.64816900000019
 31
0.0
  0
LINE
  8
OUTLINE
  6
CONTINUOUS
 62
     3
 10
-45.738680999999808
 20
162.53310300000001
 30
0.0
 11
-45.870608000000168
 21
162.58079599999999
 31
0.0
  0
LINE
  8
OUTLINE
  6
CONTINUOUS
 62
     3
 10
-45.599385999999868
 20
162.50575799999999
 30
0.0
 11
-45.738680999999808
 21
162.53310300000001
 31
0.0
  0
LINE
  8
OUTLINE
  6
CONTINUOUS
 62
     3
 10
-45.497300000000003
 20
162.50000299999999
 30
0.0
 11
-45.599385999999868
 21
162.50575799999999
 31
0.0
  0
LINE
  8
OUTLINE
  6
CONTINUOUS
 62
     3
 10
-45.497242999999798
 20
162.5
 30
0.0
 11
-40.036815999999817
 21
162.5
 31
0.0
  0
LINE
  8
OUTLINE
  6
CONTINUOUS
 62
     3
 10
77.548204000000169
 20
195.0
 30
0.0
 11
84.01707499999975
 21
195.0
 31
0.0
  0
LINE
  8
OUTLINE
  6
CONTINUOUS
 62
     3
 10
-39.902357999999822
 20
162.4965
 30
0.0
 11
-40.036713999999847
 21
162.49999700000001
 31
0.0
  0
LINE
  8
OUTLINE
  6
CONTINUOUS
 62
     3
 10
-53.211766999999782
 20
195.0
 30
0.0
 11
-51.465054000000237
 21
195.0
 31
0.0
  0
LINE
  8
OUTLINE
  6
CONTINUOUS
 62
     3
 10
-39.674858999999742
 20
162.47474500000001
 30
0.0
 11
-39.902357999999822
 21
162.4965
 31
0.0
  0
LINE
  8
OUTLINE
  6
CONTINUOUS
 62
     3
 10
-39.446625999999917
 20
162.43286699999999
 30
0.0
 11
-39.674858999999742
 21
162.47474500000001
 31
0.0
  0
LINE
  8
OUTLINE
  6
CONTINUOUS
 62
     3
 10
-39.219012000000021
 20
162.3708360000002
 30
0.0
 11
-39.446625999999917
 21
162.43286699999999
 31
0.0
  0
LINE
  8
OUTLINE
  6
CONTINUOUS
 62
     3
 10
-38.993223999999827
 20
162.28875600000001
 30
0.0
 11
-39.219012000000021
 21
162.3708360000002
 31
0.0
  0
LINE
  8
OUTLINE
  6
CONTINUOUS
 62
     3
 10
-38.770403999999871
 20
162.18687499999999
 30
0.0
 11
-38.993223999999827
 21
162.28875600000001
 31
0.0
  0
LINE
  8
OUTLINE
  6
CONTINUOUS
 62
     3
 10
-38.551688000000013
 20
162.065551
 30
0.0
 11
-38.770403999999871
 21
162.18687499999999
 31
0.0
  0
LINE
  8
OUTLINE
  6
CONTINUOUS
 62
     3
 10
-38.338130000000092
 20
161.92525000000001
 30
0.0
 11
-38.551688000000013
 21
162.065551
 31
0.0
  0
LINE
  8
OUTLINE
  6
CONTINUOUS
 62
     3
 10
-38.130772999999863
 20
161.76653600000009
 30
0.0
 11
-38.338130000000092
 21
161.92525000000001
 31
0.0
  0
LINE
  8
OUTLINE
  6
CONTINUOUS
 62
     3
 10
-37.930563999999777
 20
161.59004300000001
 30
0.0
 11
-38.130772999999863
 21
161.76653600000009
 31
0.0
  0
LINE
  8
OUTLINE
  6
CONTINUOUS
 62
     3
 10
-37.738448000000062
 20
161.396479
 30
0.0
 11
-37.930563999999777
 21
161.59004300000001
 31
0.0
  0
LINE
  8
OUTLINE
  6
CONTINUOUS
 62
     3
 10
-37.382114000000001
 20
160.96149700000001
 30
0.0
 11
-37.555335999999897
 21
161.18666600000009
 31
0.0
  0
LINE
  8
OUTLINE
  6
CONTINUOUS
 62
     3
 10
-37.21961599999986
 20
160.72196299999999
 30
0.0
 11
-37.382114000000001
 21
160.96149700000001
 31
0.0
  0
LINE
  8
OUTLINE
  6
CONTINUOUS
 62
     3
 10
-36.929919000000147
 20
160.20415299999999
 30
0.0
 11
-37.068639999999959
 21
160.4691250000001
 31
0.0
  0
LINE
  8
OUTLINE
  6
CONTINUOUS
 62
     3
 10
86.001631000000089
 20
193.2480700000001
 30
0.0
 11
87.907639000000017
 21
178.0
 31
0.0
  0
LINE
  8
OUTLINE
  6
CONTINUOUS
 62
     3
 10
-49.601106000000073
 20
187.15900300000001
 30
0.0
 11
-49.942817000000097
 21
191.205319
 31
0.0
  0
LINE
  8
OUTLINE
  6
CONTINUOUS
 62
     3
 10
-49.223238999999921
 20
182.9752490000001
 30
0.0
 11
-49.601106000000073
 21
187.15900300000001
 31
0.0
  0
LINE
  8
OUTLINE
  6
CONTINUOUS
 62
     3
 10
-48.818463000000072
 20
178.7682890000001
 30
0.0
 11
-49.223238999999921
 21
182.9752490000001
 31
0.0
  0
LINE
  8
OUTLINE
  6
CONTINUOUS
 62
     3
 10
-48.38667600000008
 20
174.53828500000009
 30
0.0
 11
-48.818463000000072
 21
178.7682890000001
 31
0.0
  0
LINE
  8
OUTLINE
  6
CONTINUOUS
 62
     3
 10
-47.927752000000048
 20
170.28540000000001
 30
0.0
 11
-48.38667600000008
 21
174.53828500000009
 31
0.0
  0
LINE
  8
OUTLINE
  6
CONTINUOUS
 62
     3
 10
-47.45602400000007
 20
166.134333
 30
0.0
 11
-47.927752000000048
 21
170.28540000000001
 31
0.0
  0
LINE
  8
OUTLINE
  6
CONTINUOUS
 62
     3
 10
-50.780096999999842
 20
194.568906
 30
0.0
 11
-50.841284000000087
 21
194.65318600000001
 31
0.0
  0
LINE
  8
OUTLINE
  6
CONTINUOUS
 62
     3
 10
-50.72516799999994
 20
194.48252600000001
 30
0.0
 11
-50.780096999999842
 21
194.568906
 31
0.0
  0
LINE
  8
OUTLINE
  6
CONTINUOUS
 62
     3
 10
-50.672000999999909
 20
194.38859500000001
 30
0.0
 11
-50.72516799999994
 21
194.48252600000001
 31
0.0
  0
LINE
  8
OUTLINE
  6
CONTINUOUS
 62
     3
 10
-50.620086999999778
 20
194.28649300000009
 30
0.0
 11
-50.672000999999909
 21
194.38859500000001
 31
0.0
  0
LINE
  8
OUTLINE
  6
CONTINUOUS
 62
     3
 10
-50.568948999999982
 20
194.1753120000001
 30
0.0
 11
-50.620086999999778
 21
194.28649300000009
 31
0.0
  0
LINE
  8
OUTLINE
  6
CONTINUOUS
 62
     3
 10
-50.518449000000153
 20
194.05456100000001
 30
0.0
 11
-50.568948999999982
 21
194.1753120000001
 31
0.0
  0
LINE
  8
OUTLINE
  6
CONTINUOUS
 62
     3
 10
-50.468474999999671
 20
193.92363800000001
 30
0.0
 11
-50.518449000000153
 21
194.05456100000001
 31
0.0
  0
LINE
  8
OUTLINE
  6
CONTINUOUS
 62
     3
 10
-50.419050999999847
 20
193.78212800000011
 30
0.0
 11
-50.468474999999671
 21
193.92363800000001
 31
0.0
  0
LINE
  8
OUTLINE
  6
CONTINUOUS
 62
     3
 10
-50.3702830000002
 20
193.629727
 30
0.0
 11
-50.419050999999847
 21
193.78212800000011
 31
0.0
  0
LINE
  8
OUTLINE
  6
CONTINUOUS
 62
     3
 10
-50.32219699999996
 20
193.46574699999999
 30
0.0
 11
-50.3702830000002
 21
193.629727
 31
0.0
  0
LINE
  8
OUTLINE
  6
CONTINUOUS
 62
     3
 10
-50.274903999999879
 20
193.28958900000001
 30
0.0
 11
-50.32219699999996
 21
193.46574699999999
 31
0.0
  0
LINE
  8
OUTLINE
  6
CONTINUOUS
 62
     3
 10
-50.228592999999819
 20
193.10071099999999
 30
0.0
 11
-50.274903999999879
 21
193.28958900000001
 31
0.0
  0
LINE
  8
OUTLINE
  6
CONTINUOUS
 62
     3
 10
-50.183492000000108
 20
192.898585
 30
0.0
 11
-50.228592999999819
 21
193.10071099999999
 31
0.0
  0
LINE
  8
OUTLINE
  6
CONTINUOUS
 62
     3
 10
-50.139905999999883
 20
192.68277699999999
 30
0.0
 11
-50.183492000000108
 21
192.898585
 31
0.0
  0
LINE
  8
OUTLINE
  6
CONTINUOUS
 62
     3
 10
-50.09818499999983
 20
192.45291
 30
0.0
 11
-50.139905999999883
 21
192.68277699999999
 31
0.0
  0
LINE
  8
OUTLINE
  6
CONTINUOUS
 62
     3
 10
-50.05873100000008
 20
192.2086810000001
 30
0.0
 11
-50.09818499999983
 21
192.45291
 31
0.0
  0
LINE
  8
OUTLINE
  6
CONTINUOUS
 62
     3
 10
-50.022006000000147
 20
191.94987399999999
 30
0.0
 11
-50.05873100000008
 21
192.2086810000001
 31
0.0
  0
LINE
  8
OUTLINE
  6
CONTINUOUS
 62
     3
 10
-49.988508999999787
 20
191.67634000000001
 30
0.0
 11
-50.022006000000147
 21
191.94987399999999
 31
0.0
  0
LINE
  8
OUTLINE
  6
CONTINUOUS
 62
     3
 10
-49.958786000000153
 20
191.38787600000001
 30
0.0
 11
-49.988508999999787
 21
191.67634000000001
 31
0.0
  0
LINE
  8
OUTLINE
  6
CONTINUOUS
 62
     3
 10
-49.942817999999988
 20
191.20531800000001
 30
0.0
 11
-49.958786000000153
 21
191.38787600000001
 31
0.0
  0
LINE
  8
OUTLINE
  6
CONTINUOUS
 62
     3
 10
-48.624663999999939
 20
176.83970199999999
 30
0.0
 11
-48.680548999999701
 21
177.4172150000002
 31
0.0
  0
LINE
  8
OUTLINE
  6
CONTINUOUS
 62
     3
 10
-48.555977999999868
 20
176.196855
 30
0.0
 11
-48.624663999999939
 21
176.83970199999999
 31
0.0
  0
ARC
  8
OUTLINE
  6
CONTINUOUS
 62
     3
 10
84.01707499999975
 20
193.0
 30
0.0
 40
2.0
 50
7.1250160000032734
 51
90.0
  0
ARC
  8
OUTLINE
  6
CONTINUOUS
 62
     3
 10
77.548204000000169
 20
193.0
 30
0.0
 40
2.0
 50
90.0
 51
172.87498399999669
  0
ARC
  8
OUTLINE
  6
CONTINUOUS
 62
     3
 10
-142.23457400000009
 20
-8.8729979999999387
 30
0.0
 40
0.3
 50
182.99999999999901
 51
226.50000000000489
  0
LINE
  8
OUTLINE
  6
CONTINUOUS
 62
     3
 10
-136.44539900000021
 20
-14.78029900000001
 30
0.0
 11
-142.4410800000002
 21
-9.0906099999999697
 31
0.0
  0
LINE
  8
OUTLINE
  6
CONTINUOUS
 62
     3
 10
-143.0
 20
0.0
 30
0.0
 11
-142.53416299999981
 21
-8.8886989999999741
 31
0.0
  0
ARC
  8
OUTLINE
  6
CONTINUOUS
 62
     3
 10
-135.89471499999991
 20
-14.200000000000051
 30
0.0
 40
0.8
 50
226.50000000000489
 51
270.0
  0
ARC
  8
OUTLINE
  6
CONTINUOUS
 62
     3
 10
142.2345750000004
 20
-8.8729979999999387
 30
0.0
 40
0.3
 50
313.49999999999483
 51
357.00000000000102
  0
LINE
  8
OUTLINE
  6
CONTINUOUS
 62
     3
 10
136.44540000000009
 20
-14.78029900000001
 30
0.0
 11
142.44108099999991
 21
-9.0906099999999697
 31
0.0
  0
LINE
  8
OUTLINE
  6
CONTINUOUS
 62
     3
 10
143.0
 20
0.0
 30
0.0
 11
142.53416400000009
 21
-8.8886989999999741
 31
0.0
  0
ARC
  8
OUTLINE
  6
CONTINUOUS
 62
     3
 10
135.89471600000019
 20
-14.200000000000051
 30
0.0
 40
0.8
 50
270.0
 51
313.49999999999483
  0
LINE
  8
OUTLINE
  6
CONTINUOUS
 62
     3
 10
175.30070000000021
 20
154.6438840000001
 30
0.0
 11
98.765736000000288
 21
155.31179399999999
 31
0.0
  0
ARC
  8
OUTLINE
  6
CONTINUOUS
 62
     3
 10
175.2832470000003
 20
152.64395999999999
 30
0.0
 40
2.0
 50
44.999999999991083
 51
89.500000000034504
  0
ARC
  8
OUTLINE
  6
CONTINUOUS
 62
     3
 10
180.32947200000041
 20
153.25459000000001
 30
0.0
 40
2.0
 50
224.9999999999911
 51
269.50000000003462
  0
LINE
  8
OUTLINE
  6
CONTINUOUS
 62
     3
 10
178.91525799999999
 20
151.84037599999999
 30
0.0
 11
176.69746099999969
 21
154.05817400000001
 31
0.0
  0
ARC
  8
OUTLINE
  6
CONTINUOUS
 62
     3
 10
90.493828000000121
 20
177.0
 30
0.0
 40
1.0
 50
0.0
 51
90.0
  0
LINE
  8
OUTLINE
  6
CONTINUOUS
 62
     3
 10
66.493828000000121
 20
177.0
 30
0.0
 11
66.493828000000121
 21
171.0
 31
0.0
  0
ARC
  8
OUTLINE
  6
CONTINUOUS
 62
     3
 10
67.493828000000121
 20
177.0
 30
0.0
 40
1.0
 50
90.0
 51
180.0
  0
ARC
  8
OUTLINE
  6
CONTINUOUS
 62
     3
 10
95.517622000000301
 20
171.0
 30
0.0
 40
2.0
 50
1.0000000000017759
 51
90.0
  0
ARC
  8
OUTLINE
  6
CONTINUOUS
 62
     3
 10
100.72364300000029
 20
44.643310000000042
 30
0.0
 40
1.0
 50
95.668187000012011
 51
181.00000000000179
  0
LINE
  8
OUTLINE
  6
CONTINUOUS
 62
     3
 10
100.6248759999999
 20
45.638421000000108
 30
0.0
 11
134.49382800000009
 21
49.0
 31
0.0
  0
LINE
  8
OUTLINE
  6
CONTINUOUS
 62
     3
 10
175.30070000000021
 20
49.356115999999929
 30
0.0
 11
134.49382800000009
 21
49.0
 31
0.0
  0
ARC
  8
OUTLINE
  6
CONTINUOUS
 62
     3
 10
175.2832470000003
 20
51.356040000000007
 30
0.0
 40
2.0
 50
270.49999999996538
 51
315.00000000000892
  0
LINE
  8
OUTLINE
  6
CONTINUOUS
 62
     3
 10
178.91525799999999
 20
52.159624000000008
 30
0.0
 11
176.69746099999969
 21
49.941827000000103
 31
0.0
  0
ARC
  8
OUTLINE
  6
CONTINUOUS
 62
     3
 10
180.32947200000041
 20
50.745411000000097
 30
0.0
 40
2.0
 50
90.500000000017621
 51
135.0000000000089
  0
LINE
  8
OUTLINE
  6
CONTINUOUS
 62
     3
 10
209.49382800000009
 20
53.0
 30
0.0
 11
180.31201899999999
 21
52.745333999999957
 31
0.0
  0
LINE
  8
OUTLINE
  6
CONTINUOUS
 62
     3
 10
209.49382800000009
 20
151.0
 30
0.0
 11
209.49382800000009
 21
53.0
 31
0.0
  0
LINE
  8
OUTLINE
  6
CONTINUOUS
 62
     3
 10
209.49382800000009
 20
151.0
 30
0.0
 11
180.31201899999999
 21
151.25466599999999
 31
0.0
  0
ARC
  8
OUTLINE
  6
CONTINUOUS
 62
     3
 10
98.774463000000196
 20
156.31175600000009
 30
0.0
 40
1.0
 50
181.00000000000179
 51
269.50000000003462
  0
LINE
  8
OUTLINE
  6
CONTINUOUS
 62
     3
 10
99.723794999999882
 20
44.625858000000107
 30
0.0
 11
100.5027420000001
 21
0.0
 31
0.0
  0
LINE
  8
OUTLINE
  6
CONTINUOUS
 62
     3
 10
97.517316999999821
 20
171.03490500000001
 30
0.0
 11
97.774615000000267
 21
156.29430400000001
 31
0.0
  0
LINE
  8
OUTLINE
  6
CONTINUOUS
 62
     3
 10
-95.737301000000116
 20
60.0
 30
0.0
 11
-93.982696999999916
 21
60.0
 31
0.0
  0
LINE
  8
OUTLINE
  6
CONTINUOUS
 62
     3
 10
-90.603442000000086
 20
141.0
 30
0.0
 11
-79.000950999999986
 21
141.0
 31
0.0
  0
LINE
  8
OUTLINE
  6
CONTINUOUS
 62
     3
 10
-53.663980999999687
 20
194.713313
 30
0.0
 11
-79.000950999999986
 21
141.0
 31
0.0
  0
LINE
  8
OUTLINE
  6
CONTINUOUS
 62
     3
 10
-135.89471499999991
 20
-15.0
 30
0.0
 11
135.89471600000019
 21
-15.0
 31
0.0
  0
LINE
  8
OUTLINE
  6
CONTINUOUS
 62
     3
 10
-143.0
 20
0.0
 30
0.0
 11
-98.75
 21
0.0
 31
0.0
  0
LINE
  8
OUTLINE
  6
CONTINUOUS
 62
     3
 10
100.5027420000001
 20
0.0
 30
0.0
 11
143.0
 21
0.0
 31
0.0
  0
LINE
  8
OUTLINE
  6
CONTINUOUS
 62
     3
 10
67.493828000000121
 20
178.0
 30
0.0
 11
73.657639000000017
 21
178.0
 31
0.0
  0
LINE
  8
OUTLINE
  6
CONTINUOUS
 62
     3
 10
87.907639000000017
 20
178.0
 30
0.0
 11
90.493828000000121
 21
178.0
 31
0.0
  0
LINE
  8
OUTLINE
  6
CONTINUOUS
 62
     3
 10
91.493828000000121
 20
173.0
 30
0.0
 11
95.517622000000301
 21
173.0
 31
0.0
  0
LINE
  8
OUTLINE
  6
CONTINUOUS
 62
     3
 10
91.493828000000121
 20
177.0
 30
0.0
 11
91.493828000000121
 21
173.0
 31
0.0
  0
LINE
  8
OUTLINE
  6
CONTINUOUS
 62
     3
 10
72.405138999999963
 20
149.5
 30
0.0
 11
73.532639000000017
 21
170.0
 31
0.0
  0
LINE
  8
OUTLINE
  6
CONTINUOUS
 62
     3
 10
73.532639000000017
 20
170.0
 30
0.0
 11
73.532639000000017
 21
171.0
 31
0.0
  0
LINE
  8
OUTLINE
  6
CONTINUOUS
 62
     3
 10
66.493828000000121
 20
171.0
 30
0.0
 11
73.532639000000017
 21
171.0
 31
0.0
  0
LINE
  8
OUTLINE
  6
CONTINUOUS
 62
     3
 10
25.950041000000059
 20
149.5
 30
0.0
 11
72.405138999999963
 21
149.5
 31
0.0
  0
LINE
  8
OUTLINE
  6
CONTINUOUS
 62
     3
 10
-37.555335999999897
 20
161.18666600000009
 30
0.0
 11
-37.738448000000062
 21
161.396479
 31
0.0
  0
LINE
  8
OUTLINE
  6
CONTINUOUS
 62
     3
 10
-36.949959000000042
 20
160.2703710000001
 30
0.0
 11
-37.21961599999986
 21
160.72196299999999
 31
0.0
  0
CIRCLE
  8
FIX
  6
CONTINUOUS
 62
    11
 10
-106.0
 20
0.0
 30
0.0
 40
10.0
  0
LINE
  8
NOTE
  6
CENTER
 62
     4
 10
-75.0
 20
7.2487081459693172
 30
0.0
 11
-75.0
 21
-6.6345182982605593
 31
0.0
  0
LINE
  8
NOTE
  6
CENTER
 62
     4
 10
-106.0
 20
8.8544161769785887
 30
0.0
 11
-106.0
 21
-5.9458221262322013
 31
0.0
  0
LINE
  8
NOTE
  6
CENTER
 62
     4
 10
75.0
 20
7.2487081459693172
 30
0.0
 11
75.0
 21
-6.6345182982605593
 31
0.0
  0
LINE
  8
NOTE
  6
CENTER
 62
     4
 10
106.0
 20
8.8544161769785887
 30
0.0
 11
106.0
 21
-5.9458221262322013
 31
0.0
  0
CIRCLE
  8
FIX
  6
CONTINUOUS
 62
    11
 10
-75.0
 20
0.0
 30
0.0
 40
10.0
  0
CIRCLE
  8
FIX
  6
CONTINUOUS
 62
    11
 10
75.0
 20
0.307094923854379
 30
0.0
 40
10.0
  0
CIRCLE
  8
FIX
  6
CONTINUOUS
 62
    11
 10
106.0
 20
0.0
 30
0.0
 40
10.0
  0
LINE
  8
NOTE
  6
CONTINUOUS
 62
     4
 10
-106.0
 20
0.0
 30
0.0
 11
-341.28356798458663
 21
264.8116364789787
 31
0.0
  0
LINE
  8
NOTE
  6
CONTINUOUS
 62
     4
 10
-106.0
 20
0.0
 30
0.0
 11
-137.31274534757901
 21
22.683422418883421
 31
0.0
  0
LINE
  8
NOTE
  6
CONTINUOUS
 62
     4
 10
-124.99527469402349
 20
35.19929633376114
 30
0.0
 11
-106.0
 21
0.0
 31
0.0
  0
TEXT
  8
NOTE
  6
CONTINUOUS
 62
     4
 10
-255.7965168087089
 20
396.65681002195402
 30
0.0
 40
64.0
  1
EL
 41
0.9
  0
LINE
  8
NOTE
  6
CONTINUOUS
 62
     4
 10
-310.40196405190272
 20
365.87659210062179
 30
0.0
 11
-141.8774725254834
 21
365.87659210057927
 31
0.0
  0
LINE
  8
NOTE
  6
CONTINUOUS
 62
     4
 10
56.0
 20
149.2781765
 30
0.0
 11
-141.8774725254834
 21
365.87659210057927
 31
0.0
  0
LINE
  8
NOTE
  6
CONTINUOUS
 62
     4
 10
56.0
 20
149.2781765
 30
0.0
 11
22.538683123113511
 21
169.63975493535949
 31
0.0
  0
LINE
  8
NOTE
  6
CONTINUOUS
 62
     4
 10
39.570840273867361
 20
181.23959990892129
 30
0.0
 11
56.0
 21
149.2781765
 31
0.0
  0
LINE
  8
SIZE
  6
CONTINUOUS
 62
    30
 10
106.0
 20
-25.945822126232201
 30
0.0
 11
106.0
 21
-307.44785297474772
 31
0.0
  0
LINE
  8
SIZE
  6
CONTINUOUS
 62
    30
 10
-106.0
 20
-25.945822126232201
 30
0.0
 11
-106.0
 21
-307.44785297474772
 31
0.0
  0
LINE
  8
SIZE
  6
CONTINUOUS
 62
    30
 10
94.0
 20
-287.44785297474772
 30
0.0
 11
-94.0
 21
-287.44785297474772
 31
0.0
  0
CIRCLE
  8
SIZE
  6
CONTINUOUS
 62
    30
 10
106.0
 20
-287.44785297474772
 30
0.0
 40
6.0
  0
LINE
  8
SIZE
  6
CONTINUOUS
 62
    30
 10
106.0
 20
-287.44785297474772
 30
0.0
 11
94.0
 21
-287.44785297474772
 31
0.0
  0
CIRCLE
  8
SIZE
  6
CONTINUOUS
 62
    30
 10
-106.0
 20
-287.44785297474772
 30
0.0
 40
6.0
  0
LINE
  8
SIZE
  6
CONTINUOUS
 62
    30
 10
-106.0
 20
-287.44785297474772
 30
0.0
 11
-94.0
 21
-287.44785297474772
 31
0.0
  0
TEXT
  8
SIZE
  6
CONTINUOUS
 62
    30
 10
-68.571428571428569
 20
-262.44785297474772
 30
0.0
 40
64.0
  1
212
 41
0.9
 72
     1
 11
0.0
 21
-262.44785297474772
 31
0.0
  0
POINT
  8
DEFPOINTS
  6
CONTINUOUS
 62
    30
 10
106.0
 20
-5.9458221262322013
 30
0.0
  0
POINT
  8
DEFPOINTS
  6
CONTINUOUS
 62
    30
 10
-106.0
 20
-5.9458221262322013
 30
0.0
  0
POINT
  8
DEFPOINTS
  6
CONTINUOUS
 62
    30
 10
-106.0
 20
-287.44785297474772
 30
0.0
  0
LINE
  8
SIZE
  6
CONTINUOUS
 62
    30
 10
100.5027420000001
 20
20.0
 30
0.0
 11
100.5027420000002
 21
482.28937749149452
 31
0.0
  0
LINE
  8
SIZE
  6
CONTINUOUS
 62
    30
 10
-98.75
 20
20.0
 30
0.0
 11
-98.75
 21
482.28937749149452
 31
0.0
  0
LINE
  8
SIZE
  6
CONTINUOUS
 62
    30
 10
112.5027420000002
 20
462.28937749149452
 30
0.0
 11
124.5027420000002
 21
462.28937749149452
 31
0.0
  0
LINE
  8
SIZE
  6
CONTINUOUS
 62
    30
 10
-110.75
 20
462.28937749149452
 30
0.0
 11
-122.75
 21
462.28937749149452
 31
0.0
  0
LINE
  8
SIZE
  6
CONTINUOUS
 62
    30
 10
100.5027420000002
 20
462.28937749149452
 30
0.0
 11
-98.75
 21
462.28937749149452
 31
0.0
  0
CIRCLE
  8
SIZE
  6
CONTINUOUS
 62
    30
 10
100.5027420000002
 20
462.28937749149452
 30
0.0
 40
6.0
  0
LINE
  8
SIZE
  6
CONTINUOUS
 62
    30
 10
100.5027420000002
 20
462.28937749149452
 30
0.0
 11
112.5027420000002
 21
462.28937749149452
 31
0.0
  0
CIRCLE
  8
SIZE
  6
CONTINUOUS
 62
    30
 10
-98.75
 20
462.28937749149452
 30
0.0
 40
6.0
  0
LINE
  8
SIZE
  6
CONTINUOUS
 62
    30
 10
-98.75
 20
462.28937749149452
 30
0.0
 11
-110.75
 21
462.28937749149452
 31
0.0
  0
TEXT
  8
SIZE
  6
CONTINUOUS
 62
    30
 10
-104.1750575714285
 20
487.28937749149452
 30
0.0
 40
64.0
  1
□198
 41
0.9
 72
     1
 11
0.8763710000000629
 21
487.28937749149452
 31
0.0
  0
POINT
  8
DEFPOINTS
  6
CONTINUOUS
 62
    30
 10
100.5027420000001
 20
0.0
 30
0.0
  0
POINT
  8
DEFPOINTS
  6
CONTINUOUS
 62
    30
 10
-98.75
 20
0.0
 30
0.0
  0
POINT
  8
DEFPOINTS
  6
CONTINUOUS
 62
    30
 10
-98.75
 20
462.28937749149452
 30
0.0
  0
LINE
  8
SIZE
  6
CONTINUOUS
 62
    30
 10
100.5027420000001
 20
20.0
 30
0.0
 11
100.5027420000002
 21
482.28937749149452
 31
0.0
  0
LINE
  8
SIZE
  6
CONTINUOUS
 62
    30
 10
209.49382800000009
 20
171.0
 30
0.0
 11
209.49382800000009
 21
482.28937749149452
 31
0.0
  0
LINE
  8
SIZE
  6
CONTINUOUS
 62
    30
 10
112.5027420000002
 20
462.28937749149452
 30
0.0
 11
197.49382800000009
 21
462.28937749149452
 31
0.0
  0
LINE
  8
SIZE
  6
CONTINUOUS
 62
    30
 10
209.49382800000009
 20
462.28937749149452
 30
0.0
 11
405.89382800000038
 21
462.28937749149452
 31
0.0
  0
CIRCLE
  8
SIZE
  6
CONTINUOUS
 62
    30
 10
100.5027420000002
 20
462.28937749149452
 30
0.0
 40
6.0
  0
LINE
  8
SIZE
  6
CONTINUOUS
 62
    30
 10
100.5027420000002
 20
462.28937749149452
 30
0.0
 11
112.5027420000002
 21
462.28937749149452
 31
0.0
  0
CIRCLE
  8
SIZE
  6
CONTINUOUS
 62
    30
 10
209.49382800000009
 20
462.28937749149452
 30
0.0
 40
6.0
  0
LINE
  8
SIZE
  6
CONTINUOUS
 62
    30
 10
209.49382800000009
 20
462.28937749149452
 30
0.0
 11
197.49382800000009
 21
462.28937749149452
 31
0.0
  0
TEXT
  8
SIZE
  6
CONTINUOUS
 62
    30
 10
246.49382800000041
 20
487.28937749149452
 30
0.0
 40
64.0
  1
109
 41
0.9
 72
     1
 11
313.69382800000039
 21
487.28937749149452
 31
0.0
  0
POINT
  8
DEFPOINTS
  6
CONTINUOUS
 62
    30
 10
100.5027420000001
 20
0.0
 30
0.0
  0
POINT
  8
DEFPOINTS
  6
CONTINUOUS
 62
    30
 10
209.49382800000009
 20
151.0
 30
0.0
  0
POINT
  8
DEFPOINTS
  6
CONTINUOUS
 62
    30
 10
209.49382800000009
 20
462.28937749149452
 30
0.0
  0
LINE
  8
SIZE
  6
CONTINUOUS
 62
    30
 10
209.49382800000009
 20
171.0
 30
0.0
 11
209.49382800000009
 21
271.947680664426
 31
0.0
  0
LINE
  8
SIZE
  6
CONTINUOUS
 62
    30
 10
179.49382800000009
 20
171.43753100000001
 30
0.0
 11
179.49382800000009
 21
271.947680664426
 31
0.0
  0
LINE
  8
SIZE
  6
CONTINUOUS
 62
    30
 10
167.49382800000009
 20
251.947680664426
 30
0.0
 11
155.49382800000009
 21
251.947680664426
 31
0.0
  0
LINE
  8
SIZE
  6
CONTINUOUS
 62
    30
 10
221.49382800000009
 20
251.947680664426
 30
0.0
 11
376.75097085714287
 21
251.947680664426
 31
0.0
  0
LINE
  8
SIZE
  6
CONTINUOUS
 62
    30
 10
179.49382800000009
 20
251.947680664426
 30
0.0
 11
209.49382800000009
 21
251.947680664426
 31
0.0
  0
CIRCLE
  8
SIZE
  6
CONTINUOUS
 62
    30
 10
179.49382800000009
 20
251.947680664426
 30
0.0
 40
6.0
  0
LINE
  8
SIZE
  6
CONTINUOUS
 62
    30
 10
179.49382800000009
 20
251.947680664426
 30
0.0
 11
167.49382800000009
 21
251.947680664426
 31
0.0
  0
CIRCLE
  8
SIZE
  6
CONTINUOUS
 62
    30
 10
209.49382800000009
 20
251.947680664426
 30
0.0
 40
6.0
  0
LINE
  8
SIZE
  6
CONTINUOUS
 62
    30
 10
209.49382800000009
 20
251.947680664426
 30
0.0
 11
221.49382800000009
 21
251.947680664426
 31
0.0
  0
TEXT
  8
SIZE
  6
CONTINUOUS
 62
    30
 10
258.49382800000012
 20
276.947680664426
 30
0.0
 40
64.0
  1
30
 41
0.9
 72
     1
 11
305.1223994285715
 21
276.947680664426
 31
0.0
  0
POINT
  8
DEFPOINTS
  6
CONTINUOUS
 62
    30
 10
209.49382800000009
 20
151.0
 30
0.0
  0
POINT
  8
DEFPOINTS
  6
CONTINUOUS
 62
    30
 10
179.49382800000009
 20
151.43753100000001
 30
0.0
  0
POINT
  8
DEFPOINTS
  6
CONTINUOUS
 62
    30
 10
179.49382800000009
 20
251.947680664426
 30
0.0
  0
LINE
  8
SIZE
  6
CONTINUOUS
 62
    30
 10
209.49382800000009
 20
171.0
 30
0.0
 11
209.49382800000009
 21
372.1138243466803
 31
0.0
  0
LINE
  8
SIZE
  6
CONTINUOUS
 62
    30
 10
134.8021470000003
 20
174.997309
 30
0.0
 11
134.8021470000003
 21
372.1138243466803
 31
0.0
  0
LINE
  8
SIZE
  6
CONTINUOUS
 62
    30
 10
146.8021470000003
 20
352.1138243466803
 30
0.0
 11
197.49382800000009
 21
352.1138243466803
 31
0.0
  0
LINE
  8
SIZE
  6
CONTINUOUS
 62
    30
 10
209.49382800000009
 20
352.1138243466803
 30
0.0
 11
364.75097085714287
 21
352.1138243466803
 31
0.0
  0
CIRCLE
  8
SIZE
  6
CONTINUOUS
 62
    30
 10
134.8021470000003
 20
352.1138243466803
 30
0.0
 40
6.0
  0
LINE
  8
SIZE
  6
CONTINUOUS
 62
    30
 10
134.8021470000003
 20
352.1138243466803
 30
0.0
 11
146.8021470000003
 21
352.1138243466803
 31
0.0
  0
CIRCLE
  8
SIZE
  6
CONTINUOUS
 62
    30
 10
209.49382800000009
 20
352.1138243466803
 30
0.0
 40
6.0
  0
LINE
  8
SIZE
  6
CONTINUOUS
 62
    30
 10
209.49382800000009
 20
352.1138243466803
 30
0.0
 11
197.49382800000009
 21
352.1138243466803
 31
0.0
  0
TEXT
  8
SIZE
  6
CONTINUOUS
 62
    30
 10
246.49382800000009
 20
377.1138243466803
 30
0.0
 40
64.0
  1
75
 41
0.9
 72
     1
 11
293.1223994285715
 21
377.1138243466803
 31
0.0
  0
POINT
  8
DEFPOINTS
  6
CONTINUOUS
 62
    30
 10
209.49382800000009
 20
151.0
 30
0.0
  0
POINT
  8
DEFPOINTS
  6
CONTINUOUS
 62
    30
 10
134.8021470000003
 20
154.997309
 30
0.0
  0
POINT
  8
DEFPOINTS
  6
CONTINUOUS
 62
    30
 10
134.8021470000003
 20
352.1138243466803
 30
0.0
  0
LINE
  8
SIZE
  6
CONTINUOUS
 62
    30
 10
119.7237949999999
 20
44.625857000000003
 30
0.0
 11
344.6563533993176
 21
44.625856999999939
 31
0.0
  0
LINE
  8
SIZE
  6
CONTINUOUS
 62
    30
 10
120.5027420000001
 20
0.0
 30
0.0
 11
344.6563533993176
 21
-0.0000000000000568
 31
0.0
  0
LINE
  8
SIZE
  6
CONTINUOUS
 62
    30
 10
324.6563533993176
 20
56.625856999999939
 30
0.0
 11
324.6563533993176
 21
68.625856999999939
 31
0.0
  0
LINE
  8
SIZE
  6
CONTINUOUS
 62
    30
 10
324.6563533993176
 20
-12.00000000000006
 30
0.0
 11
324.6563533993176
 21
-167.2571428571429
 31
0.0
  0
LINE
  8
SIZE
  6
CONTINUOUS
 62
    30
 10
324.6563533993176
 20
44.625856999999939
 30
0.0
 11
324.6563533993176
 21
-0.0000000000000568
 31
0.0
  0
CIRCLE
  8
SIZE
  6
CONTINUOUS
 62
    30
 10
324.6563533993176
 20
44.625856999999939
 30
0.0
 40
6.0
  0
LINE
  8
SIZE
  6
CONTINUOUS
 62
    30
 10
324.6563533993176
 20
44.625856999999939
 30
0.0
 11
324.6563533993176
 21
56.625856999999939
 31
0.0
  0
CIRCLE
  8
SIZE
  6
CONTINUOUS
 62
    30
 10
324.6563533993176
 20
-0.0000000000000568
 30
0.0
 40
6.0
  0
LINE
  8
SIZE
  6
CONTINUOUS
 62
    30
 10
324.6563533993176
 20
-0.0000000000000568
 30
0.0
 11
324.6563533993176
 21
-12.00000000000006
 31
0.0
  0
TEXT
  8
SIZE
  6
CONTINUOUS
 62
    30
 10
299.6563533993176
 20
-142.2571428571429
 30
0.0
 40
64.0
  1
45
 50
90.0
 41
0.9
 72
     1
 11
299.6563533993176
 21
-95.628571428571433
 31
0.0
  0
POINT
  8
DEFPOINTS
  6
CONTINUOUS
 62
    30
 10
99.723794999999882
 20
44.625857000000003
 30
0.0
  0
POINT
  8
DEFPOINTS
  6
CONTINUOUS
 62
    30
 10
100.5027420000001
 20
0.0
 30
0.0
  0
POINT
  8
DEFPOINTS
  6
CONTINUOUS
 62
    30
 10
324.6563533993176
 20
-0.0000000000000568
 30
0.0
  0
LINE
  8
SIZE
  6
CONTINUOUS
 62
    30
 10
233.82820100000029
 20
102.0
 30
0.0
 11
449.6568753676529
 21
101.9999999999999
 31
0.0
  0
LINE
  8
SIZE
  6
CONTINUOUS
 62
    30
 10
163.0
 20
0.0
 30
0.0
 11
449.6568753676529
 21
-0.0000000000001137
 31
0.0
  0
LINE
  8
SIZE
  6
CONTINUOUS
 62
    30
 10
429.6568753676529
 20
89.999999999999943
 30
0.0
 11
429.6568753676529
 21
11.99999999999994
 31
0.0
  0
LINE
  8
SIZE
  6
CONTINUOUS
 62
    30
 10
429.6568753676529
 20
-0.0000000000000568
 30
0.0
 11
429.6568753676529
 21
-199.1428571428572
 31
0.0
  0
CIRCLE
  8
SIZE
  6
CONTINUOUS
 62
    30
 10
429.6568753676529
 20
101.9999999999999
 30
0.0
 40
6.0
  0
LINE
  8
SIZE
  6
CONTINUOUS
 62
    30
 10
429.6568753676529
 20
101.9999999999999
 30
0.0
 11
429.6568753676529
 21
89.999999999999886
 31
0.0
  0
CIRCLE
  8
SIZE
  6
CONTINUOUS
 62
    30
 10
429.6568753676529
 20
-0.0000000000000568
 30
0.0
 40
6.0
  0
LINE
  8
SIZE
  6
CONTINUOUS
 62
    30
 10
429.6568753676529
 20
-0.0000000000000568
 30
0.0
 11
429.6568753676529
 21
11.99999999999994
 31
0.0
  0
TEXT
  8
SIZE
  6
CONTINUOUS
 62
    30
 10
404.6568753676529
 20
-174.14285714285711
 30
0.0
 40
64.0
  1
102
 50
90.0
 41
0.9
 72
     1
 11
404.6568753676529
 21
-105.5714285714286
 31
0.0
  0
POINT
  8
DEFPOINTS
  6
CONTINUOUS
 62
    30
 10
213.82820100000029
 20
102.0
 30
0.0
  0
POINT
  8
DEFPOINTS
  6
CONTINUOUS
 62
    30
 10
143.0
 20
0.0
 30
0.0
  0
POINT
  8
DEFPOINTS
  6
CONTINUOUS
 62
    30
 10
429.6568753676529
 20
-0.0000000000000568
 30
0.0
  0
LINE
  8
SIZE
  6
CONTINUOUS
 62
    30
 10
229.49382800000009
 20
151.0
 30
0.0
 11
581.25754757535651
 21
150.99999999999989
 31
0.0
  0
LINE
  8
SIZE
  6
CONTINUOUS
 62
    30
 10
229.49382800000009
 20
53.0
 30
0.0
 11
581.25754757535651
 21
52.999999999999893
 31
0.0
  0
LINE
  8
SIZE
  6
CONTINUOUS
 62
    30
 10
561.25754757535651
 20
138.99999999999989
 30
0.0
 11
561.25754757535651
 21
64.999999999999886
 31
0.0
  0
LINE
  8
SIZE
  6
CONTINUOUS
 62
    30
 10
561.25754757535651
 20
52.999999999999893
 30
0.0
 11
561.25754757535651
 21
-201.29173646411081
 31
0.0
  0
CIRCLE
  8
SIZE
  6
CONTINUOUS
 62
    30
 10
561.25754757535651
 20
150.99999999999989
 30
0.0
 40
6.0
  0
LINE
  8
SIZE
  6
CONTINUOUS
 62
    30
 10
561.25754757535651
 20
150.99999999999989
 30
0.0
 11
561.25754757535651
 21
138.99999999999989
 31
0.0
  0
CIRCLE
  8
SIZE
  6
CONTINUOUS
 62
    30
 10
561.25754757535651
 20
52.999999999999893
 30
0.0
 40
6.0
  0
LINE
  8
SIZE
  6
CONTINUOUS
 62
    30
 10
561.25754757535651
 20
52.999999999999893
 30
0.0
 11
561.25754757535651
 21
64.999999999999886
 31
0.0
  0
TEXT
  8
SIZE
  6
CONTINUOUS
 62
    30
 10
525.59088090868977
 20
-186.44030789268211
 30
0.0
 40
64.0
  1
φ98
 50
90.0
 41
0.9
 72
     1
 11
525.59088090868977
 21
-99.491736464110659
 31
0.0
  0
POINT
  8
DEFPOINTS
  6
CONTINUOUS
 62
    30
 10
209.49382800000009
 20
151.0
 30
0.0
  0
POINT
  8
DEFPOINTS
  6
CONTINUOUS
 62
    30
 10
209.49382800000009
 20
53.0
 30
0.0
  0
POINT
  8
DEFPOINTS
  6
CONTINUOUS
 62
    30
 10
561.25754757535651
 20
52.999999999999893
 30
0.0
  0
LINE
  8
SIZE
  6
CONTINUOUS
 62
    30
 10
195.30070000000021
 20
154.64388299999999
 30
0.0
 11
705.85817291836429
 21
154.64388299999999
 31
0.0
  0
LINE
  8
SIZE
  6
CONTINUOUS
 62
    30
 10
195.30070000000021
 20
49.356115999999929
 30
0.0
 11
705.85817291836429
 21
49.356115999999759
 31
0.0
  0
LINE
  8
SIZE
  6
CONTINUOUS
 62
    30
 10
685.85817291836429
 20
142.64388299999999
 30
0.0
 11
685.85817291836429
 21
61.356115999999759
 31
0.0
  0
LINE
  8
SIZE
  6
CONTINUOUS
 62
    30
 10
685.85817291836429
 20
49.356115999999759
 30
0.0
 11
685.85817291836429
 21
-245.1213430957861
 31
0.0
  0
CIRCLE
  8
SIZE
  6
CONTINUOUS
 62
    30
 10
685.85817291836429
 20
154.64388299999999
 30
0.0
 40
6.0
  0
LINE
  8
SIZE
  6
CONTINUOUS
 62
    30
 10
685.85817291836429
 20
154.64388299999999
 30
0.0
 11
685.85817291836429
 21
142.64388299999999
 31
0.0
  0
CIRCLE
  8
SIZE
  6
CONTINUOUS
 62
    30
 10
685.85817291836429
 20
49.356115999999759
 30
0.0
 40
6.0
  0
LINE
  8
SIZE
  6
CONTINUOUS
 62
    30
 10
685.85817291836429
 20
49.356115999999759
 30
0.0
 11
685.85817291836429
 21
61.356115999999759
 31
0.0
  0
TEXT
  8
SIZE
  6
CONTINUOUS
 62
    30
 10
650.19150625169777
 20
-230.26991452435729
 30
0.0
 40
64.0
  1
φ105
 50
90.0
 41
0.9
 72
     1
 11
650.19150625169777
 21
-121.3784859529288
 31
0.0
  0
POINT
  8
DEFPOINTS
  6
CONTINUOUS
 62
    30
 10
175.30070000000021
 20
154.6438830000001
 30
0.0
  0
POINT
  8
DEFPOINTS
  6
CONTINUOUS
 62
    30
 10
175.30070000000021
 20
49.356115999999929
 30
0.0
  0
POINT
  8
DEFPOINTS
  6
CONTINUOUS
 62
    30
 10
685.85817291836429
 20
49.356115999999759
 30
0.0
  0
LINE
  8
SIZE
  6
CONTINUOUS
 62
    30
 10
75.0
 20
-26.634518298260559
 30
0.0
 11
75.0
 21
-186.03768220895029
 31
0.0
  0
LINE
  8
SIZE
  6
CONTINUOUS
 62
    30
 10
-75.0
 20
-26.634518298260559
 30
0.0
 11
-75.0
 21
-186.03768220895029
 31
0.0
  0
LINE
  8
SIZE
  6
CONTINUOUS
 62
    30
 10
87.0
 20
-166.03768220895029
 30
0.0
 11
99.0
 21
-166.03768220895029
 31
0.0
  0
LINE
  8
SIZE
  6
CONTINUOUS
 62
    30
 10
-87.0
 20
-166.03768220895029
 30
0.0
 11
-99.0
 21
-166.03768220895029
 31
0.0
  0
LINE
  8
SIZE
  6
CONTINUOUS
 62
    30
 10
75.0
 20
-166.03768220895029
 30
0.0
 11
-75.0
 21
-166.03768220895029
 31
0.0
  0
CIRCLE
  8
SIZE
  6
CONTINUOUS
 62
    30
 10
75.0
 20
-166.03768220895029
 30
0.0
 40
6.0
  0
LINE
  8
SIZE
  6
CONTINUOUS
 62
    30
 10
75.0
 20
-166.03768220895029
 30
0.0
 11
87.0
 21
-166.03768220895029
 31
0.0
  0
CIRCLE
  8
SIZE
  6
CONTINUOUS
 62
    30
 10
-75.0
 20
-166.03768220895029
 30
0.0
 40
6.0
  0
LINE
  8
SIZE
  6
CONTINUOUS
 62
    30
 10
-75.0
 20
-166.03768220895029
 30
0.0
 11
-87.0
 21
-166.03768220895029
 31
0.0
  0
TEXT
  8
SIZE
  6
CONTINUOUS
 62
    30
 10
-68.571428571428569
 20
-141.03768220895029
 30
0.0
 40
64.0
  1
150
 41
0.9
 72
     1
 11
0.0
 21
-141.03768220895029
 31
0.0
  0
POINT
  8
DEFPOINTS
  6
CONTINUOUS
 62
    30
 10
75.0
 20
-6.6345182982605593
 30
0.0
  0
POINT
  8
DEFPOINTS
  6
CONTINUOUS
 62
    30
 10
-75.0
 20
-6.6345182982605593
 30
0.0
  0
POINT
  8
DEFPOINTS
  6
CONTINUOUS
 62
    30
 10
-75.0
 20
-166.03768220895029
 30
0.0
  0
LINE
  8
SIZE
  6
CONTINUOUS
 62
    30
 10
143.0
 20
-20.0
 30
0.0
 11
143.0
 21
-421.47512544864293
 31
0.0
  0
LINE
  8
SIZE
  6
CONTINUOUS
 62
    30
 10
-143.0
 20
-20.0
 30
0.0
 11
-143.0
 21
-421.47512544864293
 31
0.0
  0
LINE
  8
SIZE
  6
CONTINUOUS
 62
    30
 10
131.0
 20
-401.47512544864293
 30
0.0
 11
-131.0
 21
-401.47512544864293
 31
0.0
  0
CIRCLE
  8
SIZE
  6
CONTINUOUS
 62
    30
 10
143.0
 20
-401.47512544864293
 30
0.0
 40
6.0
  0
LINE
  8
SIZE
  6
CONTINUOUS
 62
    30
 10
143.0
 20
-401.47512544864293
 30
0.0
 11
131.0
 21
-401.47512544864293
 31
0.0
  0
CIRCLE
  8
SIZE
  6
CONTINUOUS
 62
    30
 10
-143.0
 20
-401.47512544864293
 30
0.0
 40
6.0
  0
LINE
  8
SIZE
  6
CONTINUOUS
 62
    30
 10
-143.0
 20
-401.47512544864293
 30
0.0
 11
-131.0
 21
-401.47512544864293
 31
0.0
  0
TEXT
  8
SIZE
  6
CONTINUOUS
 62
    30
 10
-109.1657142857143
 20
-376.47512544864293
 30
0.0
 40
64.0
  1
□286
 41
0.9
 72
     1
 11
0.0
 21
-376.47512544864293
 31
0.0
  0
POINT
  8
DEFPOINTS
  6
CONTINUOUS
 62
    30
 10
143.0
 20
0.0
 30
0.0
  0
POINT
  8
DEFPOINTS
  6
CONTINUOUS
 62
    30
 10
-143.0
 20
0.0
 30
0.0
  0
POINT
  8
DEFPOINTS
  6
CONTINUOUS
 62
    30
 10
-143.0
 20
-401.47512544864293
 30
0.0
  0
LINE
  8
SIZE
  6
CONTINUOUS
 62
    30
 10
-73.211766999999782
 20
195.0
 30
0.0
 11
-380.08534601033892
 21
195.00000000000011
 31
0.0
  0
LINE
  8
SIZE
  6
CONTINUOUS
 62
    30
 10
-163.0
 20
0.0
 30
0.0
 11
-380.08534601033898
 21
0.0000000000000568
 31
0.0
  0
LINE
  8
SIZE
  6
CONTINUOUS
 62
    30
 10
-360.08534601033892
 20
183.00000000000011
 30
0.0
 11
-360.08534601033898
 21
12.00000000000006
 31
0.0
  0
CIRCLE
  8
SIZE
  6
CONTINUOUS
 62
    30
 10
-360.08534601033892
 20
195.00000000000011
 30
0.0
 40
6.0
  0
LINE
  8
SIZE
  6
CONTINUOUS
 62
    30
 10
-360.08534601033892
 20
195.00000000000011
 30
0.0
 11
-360.08534601033892
 21
183.00000000000011
 31
0.0
  0
CIRCLE
  8
SIZE
  6
CONTINUOUS
 62
    30
 10
-360.08534601033898
 20
0.0000000000000568
 30
0.0
 40
6.0
  0
LINE
  8
SIZE
  6
CONTINUOUS
 62
    30
 10
-360.08534601033898
 20
0.0000000000000568
 30
0.0
 11
-360.08534601033898
 21
12.00000000000006
 31
0.0
  0
TEXT
  8
SIZE
  6
CONTINUOUS
 62
    30
 10
-385.08534601033898
 20
28.928571428571431
 30
0.0
 40
64.0
  1
195
 50
90.0
 41
0.9
 72
     1
 11
-385.08534601033898
 21
97.5
 31
0.0
  0
POINT
  8
DEFPOINTS
  6
CONTINUOUS
 62
    30
 10
-53.211766999999782
 20
195.0
 30
0.0
  0
POINT
  8
DEFPOINTS
  6
CONTINUOUS
 62
    30
 10
-143.0
 20
0.0
 30
0.0
  0
POINT
  8
DEFPOINTS
  6
CONTINUOUS
 62
    30
 10
-360.08534601033898
 20
0.0000000000000568
 30
0.0
  0
LINE
  8
SIZE
  6
CONTINUOUS
 62
    30
 10
-163.0
 20
0.0
 30
0.0
 11
-380.08534601033898
 21
0.0000000000000568
 31
0.0
  0
LINE
  8
SIZE
  6
CONTINUOUS
 62
    30
 10
-155.89471499999991
 20
-15.0
 30
0.0
 11
-380.08534601033898
 21
-14.99999999999994
 31
0.0
  0
LINE
  8
SIZE
  6
CONTINUOUS
 62
    30
 10
-360.08534601033898
 20
12.00000000000006
 30
0.0
 11
-360.08534601033898
 21
24.00000000000006
 31
0.0
  0
LINE
  8
SIZE
  6
CONTINUOUS
 62
    30
 10
-360.08534601033898
 20
-26.99999999999994
 30
0.0
 11
-360.08534601033898
 21
-171.28571428571419
 31
0.0
  0
LINE
  8
SIZE
  6
CONTINUOUS
 62
    30
 10
-360.08534601033898
 20
0.0000000000000568
 30
0.0
 11
-360.08534601033898
 21
-14.99999999999994
 31
0.0
  0
CIRCLE
  8
SIZE
  6
CONTINUOUS
 62
    30
 10
-360.08534601033898
 20
0.0000000000000568
 30
0.0
 40
6.0
  0
LINE
  8
SIZE
  6
CONTINUOUS
 62
    30
 10
-360.08534601033898
 20
0.0000000000000568
 30
0.0
 11
-360.08534601033898
 21
12.00000000000006
 31
0.0
  0
CIRCLE
  8
SIZE
  6
CONTINUOUS
 62
    30
 10
-360.08534601033898
 20
-14.99999999999994
 30
0.0
 40
6.0
  0
LINE
  8
SIZE
  6
CONTINUOUS
 62
    30
 10
-360.08534601033898
 20
-14.99999999999994
 30
0.0
 11
-360.08534601033898
 21
-26.99999999999994
 31
0.0
  0
TEXT
  8
SIZE
  6
CONTINUOUS
 62
    30
 10
-385.08534601033898
 20
-146.28571428571439
 30
0.0
 40
64.0
  1
15
 50
90.0
 41
0.9
 72
     1
 11
-385.08534601033898
 21
-105.1428571428572
 31
0.0
  0
POINT
  8
DEFPOINTS
  6
CONTINUOUS
 62
    30
 10
-143.0
 20
0.0
 30
0.0
  0
POINT
  8
DEFPOINTS
  6
CONTINUOUS
 62
    30
 10
-135.89471499999991
 20
-15.0
 30
0.0
  0
POINT
  8
DEFPOINTS
  6
CONTINUOUS
 62
    30
 10
-360.08534601033898
 20
-14.99999999999994
 30
0.0
  0
LINE
  8
DETAIL
  6
CONTINUOUS
 62
     5
 10
-31.449946000000178
 20
177.5
 30
0.0
 11
20.44994499999984
 21
177.5
 31
0.0
  0
ARC
  8
DETAIL
  6
CONTINUOUS
 62
     5
 10
20.450039999999721
 20
172.0
 30
0.0
 40
5.5
 50
0.0
 51
90.0
  0
LINE
  8
DETAIL
  6
CONTINUOUS
 62
     5
 10
25.950039999999721
 20
172.0
 30
0.0
 11
25.950039999999721
 21
149.5
 31
0.0
  0
ARC
  8
DETAIL
  6
CONTINUOUS
 62
     5
 10
-31.44996000000037
 20
172.0
 30
0.0
 40
5.5
 50
90.0
 51
180.0
  0
LINE
  8
DETAIL
  6
CONTINUOUS
 62
     5
 10
-36.949960000000367
 20
172.0
 30
0.0
 11
-36.949960000000367
 21
160.653637
 31
0.0
  0
LINE
  8
OUTLINE
  6
CONTINUOUS
 62
     3
 10
-31.449946000000178
 20
177.5
 30
0.0
 11
20.44994499999984
 21
177.5
 31
0.0
  0
ARC
  8
OUTLINE
  6
CONTINUOUS
 62
     3
 10
20.450039999999721
 20
172.0
 30
0.0
 40
5.5
 50
0.0
 51
90.0
  0
LINE
  8
OUTLINE
  6
CONTINUOUS
 62
     3
 10
25.950039999999721
 20
172.0
 30
0.0
 11
25.950039999999721
 21
149.5
 31
0.0
  0
ARC
  8
OUTLINE
  6
CONTINUOUS
 62
     3
 10
-31.44996000000037
 20
172.0
 30
0.0
 40
5.5
 50
90.0
 51
180.0
  0
LINE
  8
OUTLINE
  6
CONTINUOUS
 62
     3
 10
-36.949960000000367
 20
172.0
 30
0.0
 11
-36.949960000000367
 21
160.653637
 31
0.0
  0
TEXT
  8
ETC
  6
CONTINUOUS
 62
    61
 10
510.78709750028202
 20
585.11400929765352
 30
0.0
 40
64.0
  1
VD-13ZC13_5
 41
0.9
  0
TEXT
  8
ETC
  6
CONTINUOUS
 62
    61
 10
506.60110350028162
 20
467.15869928282223
 30
0.0
 40
64.0
  1
換気扇
 41
0.9
  0
TEXT
  8
ETC
  6
CONTINUOUS
 62
    61
 10
557.30250174883759
 20
359.00992639659688
 30
0.0
 40
40.0
  1
VD-13ZC13
 41
0.9
  0
TEXT
  8
ETC
  6
CONTINUOUS
 62
    61
 10
557.30250174883759
 20
293.00992639659688
 30
0.0
 40
40.0
  1
VD-13ZC13-BL
 41
0.9
  0
TEXT
  8
ETC
  6
CONTINUOUS
 62
    61
 10
557.30250174883759
 20
227.00992639659691
 30
0.0
 40
40.0
  1
VD-13ZLC13
 41
0.9
  0
TEXT
  8
NOTE
  6
CONTINUOUS
 62
     4
 10
-741.75409867904864
 20
296.98864923507949
 30
0.0
 40
63.999999999999993
  1
8-φ5×11
 50
359.85073780173718
 41
0.9
  0
LINE
  8
NOTE
  6
CONTINUOUS
 62
     4
 10
-341.28356798458663
 20
264.8116364789787
 30
0.0
 11
-770.17981169735776
 21
265.68968745674511
 31
0.0
  0
ENDSEC
  0
EOF
