  0
SECTION
  2
HEADER
  9
$ACADVER
  1
AC1009
  9
$INSBASE
 10
0.0
 20
0.0
 30
0.0
  9
$EXTMIN
 10
-707.39640899999995
 20
-493.17716699999988
 30
0.0
  9
$EXTMAX
 10
1386.5410851939041
 20
861.18863999999985
 30
50.0
  9
$LIMMIN
 10
-2970.0
 20
-2100.0
  9
$LIMMAX
 10
2970.0
 20
2100.0
  9
$ORTHOMODE
 70
     1
  9
$REGENMODE
 70
     0
  9
$FILLMODE
 70
     1
  9
$QTEXTMODE
 70
     0
  9
$MIRRTEXT
 70
     0
  9
$DRAGMODE
 70
     2
  9
$LTSCALE
 40
20.0
  9
$OSMODE
 70
   167
  9
$ATTMODE
 70
     1
  9
$TEXTSIZE
 40
64.0
  9
$TRACEWID
 40
0.05
  9
$TEXTSTYLE
  7
STANDARD
  9
$CLAYER
  8
SIZE
  9
$CELTYPE
  6
CONTINUOUS
  9
$CECOLOR
 62
    30
  9
$DIMSCALE
 40
1.0
  9
$DIMASZ
 40
12.0
  9
$DIMEXO
 40
20.0
  9
$DIMDLI
 40
200.0
  9
$DIMRND
 40
0.0
  9
$DIMDLE
 40
0.0
  9
$DIMEXE
 40
20.0
  9
$DIMTP
 40
0.0
  9
$DIMTM
 40
0.0
  9
$DIMTXT
 40
64.0
  9
$DIMCEN
 40
0.09
  9
$DIMTSZ
 40
0.0
  9
$DIMTOL
 70
     0
  9
$DIMLIM
 70
     0
  9
$DIMTIH
 70
     0
  9
$DIMTOH
 70
     0
  9
$DIMSE1
 70
     0
  9
$DIMSE2
 70
     0
  9
$DIMTAD
 70
     1
  9
$DIMZIN
 70
     8
  9
$DIMBLK
  1
DOT1
  9
$DIMASO
 70
     1
  9
$DIMSHO
 70
     0
  9
$DIMPOST
  1

  9
$DIMAPOST
  1

  9
$DIMALT
 70
     0
  9
$DIMALTD
 70
     2
  9
$DIMALTF
 40
25.399999999999999
  9
$DIMLFAC
 40
1.0
  9
$DIMTOFL
 70
     1
  9
$DIMTVP
 40
0.0
  9
$DIMTIX
 70
     1
  9
$DIMSOXD
 70
     0
  9
$DIMSAH
 70
     1
  9
$DIMBLK1
  1
ORIGIN
  9
$DIMBLK2
  1
ORIGIN
  9
$DIMSTYLE
  2
STANDARD
  9
$DIMCLRD
 70
     7
  9
$DIMCLRE
 70
     7
  9
$DIMCLRT
 70
     7
  9
$DIMTFAC
 40
1.0
  9
$DIMGAP
 40
25.0
  9
$LUNITS
 70
     2
  9
$LUPREC
 70
     4
  9
$SKETCHINC
 40
0.1
  9
$FILLETRAD
 40
4.0
  9
$AUNITS
 70
     1
  9
$AUPREC
 70
     3
  9
$MENU
  1
ACAD
  9
$ELEVATION
 40
0.0
  9
$PELEVATION
 40
0.0
  9
$THICKNESS
 40
50.0
  9
$LIMCHECK
 70
     0
  9
$BLIPMODE
 70
     0
  9
$CHAMFERA
 40
0.0
  9
$CHAMFERB
 40
0.0
  9
$SKPOLY
 70
     0
  9
$TDCREATE
 40
2453105.4392293049
  9
$TDUPDATE
 40
2454147.470637477
  9
$TDINDWG
 40
0.0475281019
  9
$TDUSRTIMER
 40
0.0475279282
  9
$USRTIMER
 70
     1
  9
$ANGBASE
 50
0.0
  9
$ANGDIR
 70
     0
  9
$PDMODE
 70
     3
  9
$PDSIZE
 40
-2.0
  9
$PLINEWID
 40
0.0
  9
$COORDS
 70
     1
  9
$SPLFRAME
 70
     0
  9
$SPLINETYPE
 70
     6
  9
$SPLINESEGS
 70
     8
  9
$ATTDIA
 70
     0
  9
$ATTREQ
 70
     1
  9
$HANDLING
 70
 22529
  9
$HANDSEED
  5
802
  9
$SURFTAB1
 70
     6
  9
$SURFTAB2
 70
     6
  9
$SURFTYPE
 70
     6
  9
$SURFU
 70
     6
  9
$SURFV
 70
     6
  9
$UCSNAME
  2

  9
$UCSORG
 10
0.0
 20
0.0
 30
0.0
  9
$UCSXDIR
 10
1.0
 20
0.0
 30
0.0
  9
$UCSYDIR
 10
0.0
 20
1.0
 30
0.0
  9
$PUCSNAME
  2

  9
$PUCSORG
 10
0.0
 20
0.0
 30
0.0
  9
$PUCSXDIR
 10
1.0
 20
0.0
 30
0.0
  9
$PUCSYDIR
 10
0.0
 20
1.0
 30
0.0
  9
$USERI1
 70
     0
  9
$USERI2
 70
     0
  9
$USERI3
 70
     0
  9
$USERI4
 70
     0
  9
$USERI5
 70
     0
  9
$USERR1
 40
20.0
  9
$USERR2
 40
0.0
  9
$USERR3
 40
0.0
  9
$USERR4
 40
0.0
  9
$USERR5
 40
0.0
  9
$WORLDVIEW
 70
     1
  9
$SHADEDGE
 70
     3
  9
$SHADEDIF
 70
    70
  9
$TILEMODE
 70
     1
  9
$MAXACTVP
 70
    48
  9
$PLIMCHECK
 70
     0
  9
$PEXTMIN
 10
-1.0000000000000000E+020
 20
-1.0000000000000000E+020
 30
-1.0000000000000000E+020
  9
$PEXTMAX
 10
1.0000000000000000E+020
 20
1.0000000000000000E+020
 30
1.0000000000000000E+020
  9
$PLIMMIN
 10
0.0
 20
0.0
  9
$PLIMMAX
 10
12.0
 20
9.0
  9
$UNITMODE
 70
     0
  9
$VISRETAIN
 70
     0
  9
$PLINEGEN
 70
     0
  9
$PSLTSCALE
 70
     0
  0
ENDSEC
  0
SECTION
  2
TABLES
  0
TABLE
  2
VPORT
 70
     3
  0
VPORT
  2
*ACTIVE
 70
     0
 10
0.0
 20
0.0
 11
1.0
 21
1.0
 12
326.97917871775911
 22
174.9143486042081
 13
0.0
 23
0.0
 14
1.0
 24
1.0
 15
0.0
 25
0.0
 16
0.0
 26
0.0
 36
1.0
 17
0.0
 27
0.0
 37
0.0
 40
1543.6072103581751
 41
1.710526315789473
 42
50.0
 43
0.0
 44
0.0
 50
0.0
 51
0.0
 71
     0
 72
  1000
 73
     1
 74
     0
 75
     0
 76
     0
 77
     0
 78
     0
  0
ENDTAB
  0
TABLE
  2
LTYPE
 70
     3
  0
LTYPE
  2
CONTINUOUS
 70
     0
  3
Ä└É³
 72
    65
 73
     0
 40
0.0
  0
LTYPE
  2
DASHDOT
 70
     0
  3
____ _ ____ _ ____ _ ____ _ ____ _ ____ _ ____
 72
    65
 73
     4
 40
5.5
 49
4.0
 49
-0.6
 49
0.3
 49
-0.6
  0
LTYPE
  2
DASHED
 70
     0
  3
-- -- -- -- -- -- -- -- -- -- -- -- -- -- --
 72
    65
 73
     2
 40
0.75
 49
0.5
 49
-0.25
  0
ENDTAB
  0
TABLE
  2
LAYER
 70
    12
  0
LAYER
  2
0
 70
     0
 62
     7
  6
CONTINUOUS
  0
LAYER
  2
SIZE
 70
     0
 62
    30
  6
CONTINUOUS
  0
LAYER
  2
BASIS
 70
     0
 62
     6
  6
DASHDOT
  0
LAYER
  2
OUTLINE
 70
     0
 62
     3
  6
CONTINUOUS
  0
LAYER
  2
DETAIL
 70
     0
 62
     5
  6
CONTINUOUS
  0
LAYER
  2
ARRANGE
 70
     0
 62
     1
  6
CONTINUOUS
  0
LAYER
  2
DEFPOINTS
 70
     0
 62
     7
  6
CONTINUOUS
  0
LAYER
  2
ETC
 70
     0
 62
    61
  6
CONTINUOUS
  0
LAYER
  2
FIX
 70
     0
 62
    11
  6
CONTINUOUS
  0
LAYER
  2
NOTE
 70
     0
 62
     4
  6
CONTINUOUS
  0
LAYER
  2
SERVICESPACE
 70
     0
 62
     2
  6
DASHDOT
  0
LAYER
  2
SYMBOLLINE
 70
     0
 62
    15
  6
CONTINUOUS
  0
ENDTAB
  0
TABLE
  2
STYLE
 70
     1
  0
STYLE
  2
STANDARD
 70
     0
 40
64.0
 41
0.9
 50
0.0
 71
     0
 42
64.0
  3
SIMPLEX.shx
  4
BIGFONT.shx
  0
ENDTAB
  0
TABLE
  2
VIEW
 70
     1
  0
VIEW
  2
ALL
 70
     0
 40
4282.6198079999967
 10
0.0
 20
41.309903999999989
 41
5940.0
 11
0.0
 21
0.0
 31
1.0
 12
0.0
 22
0.0
 32
0.0
 42
50.0
 43
0.0
 44
0.0
 50
0.0
 71
     0
  0
ENDTAB
  0
TABLE
  2
UCS
 70
     0
  0
ENDTAB
  0
TABLE
  2
APPID
 70
     2
  0
APPID
  2
ACAD
 70
     0
  0
APPID
  2
AUTOCAD_POSTSCRIPT_FIGURE
 70
     0
  0
ENDTAB
  0
TABLE
  2
DIMSTYLE
 70
     1
  0
DIMSTYLE
  2
STANDARD
 70
     0
  3

  4

  5

  6

  7

 40
1.0
 41
0.18
 42
0.0625
 43
0.38
 44
0.18
 45
0.0
 46
0.0
 47
0.0
 48
0.0
140
0.18
141
0.09
142
0.0
143
25.399999999999999
144
1.0
145
0.0
146
1.0
147
0.09
 71
     0
 72
     0
 73
     1
 74
     1
 75
     0
 76
     0
 77
     0
 78
     0
170
     0
171
     2
172
     0
173
     0
174
     0
175
     0
176
     7
177
     7
178
     7
  0
ENDTAB
  0
ENDSEC
  0
SECTION
  2
BLOCKS
  0
BLOCK
  8
0
  2
$MODEL_SPACE
 70
     0
 10
0.0
 20
0.0
 30
0.0
  3
$MODEL_SPACE
  1

  0
ENDBLK
  5
602
  8
0
  0
BLOCK
 67
     1
  8
0
  2
$PAPER_SPACE
 70
     0
 10
0.0
 20
0.0
 30
0.0
  3
$PAPER_SPACE
  1

  0
ENDBLK
  5
5FE
 67
     1
  8
0
  0
BLOCK
  8
0
  2
DOT1
 70
     0
 10
0.0
 20
0.0
 30
0.0
  3
DOT1
  1

  0
CIRCLE
  5
61F
  8
SIZE
  6
CONTINUOUS
 62
     7
 10
0.0
 20
0.0
 30
0.0
 40
3.0
  0
ENDBLK
  5
620
  8
0
  0
BLOCK
  8
0
  2
_ORIGIN
 70
     0
 10
0.0
 20
0.0
 30
0.0
  3
_ORIGIN
  1

  0
CIRCLE
  5
623
  8
0
  6
CONTINUOUS
 62
     7
 10
0.0
 20
0.0
 30
0.0
 40
0.5
  0
LINE
  5
624
  8
0
  6
CONTINUOUS
 62
     7
 10
0.0
 20
0.0
 30
0.0
 11
-1.0
 21
0.0
 31
0.0
  0
ENDBLK
  5
625
  8
0
  0
ENDSEC
  0
SECTION
  2
ENTITIES
  0
ARC
  5
626
  8
DETAIL
  6
CONTINUOUS
 62
     5
 10
22.0
 20
186.0
 30
0.0
 40
3.0
 50
0.0
 51
90.0
  0
ARC
  5
627
  8
DETAIL
  6
CONTINUOUS
 62
     5
 10
-33.0
 20
186.0
 30
0.0
 40
3.0
 50
90.0
 51
180.0
  0
LINE
  5
628
  8
BASIS
  6
DASHDOT
 62
     6
 10
164.790829
 20
127.0
 30
0.0
 11
128.420737
 21
127.0
 31
0.0
  0
LINE
  5
629
  8
DETAIL
  6
CONTINUOUS
 62
     5
 10
217.1916089999998
 20
113.545405
 30
0.0
 11
217.1916089999998
 21
114.357747
 31
0.0
  0
ARC
  5
62A
  8
DETAIL
  6
DASHED
 62
     5
 10
141.06106
 20
122.39055500000001
 30
0.0
 40
0.6
 50
90.0
 51
179.59406799999999
  0
LINE
  5
62B
  8
DETAIL
  6
DASHED
 62
     5
 10
140.46107499999991
 20
122.394806
 30
0.0
 11
140.4567939999996
 21
121.790555
 31
0.0
  0
LINE
  5
62C
  8
DETAIL
  6
DASHED
 62
     5
 10
140.49985699999991
 20
127.868736
 30
0.0
 11
140.46107499999991
 21
122.394806
 31
0.0
  0
LINE
  5
62D
  8
DETAIL
  6
DASHED
 62
     5
 10
217.1916089999998
 20
113.545405
 30
0.0
 11
209.49382800000001
 21
114.902732
 31
0.0
  0
LINE
  5
62E
  8
DETAIL
  6
DASHED
 62
     5
 10
217.1916089999998
 20
114.357747
 30
0.0
 11
209.49382800000001
 21
115.715073
 31
0.0
  0
LINE
  5
62F
  8
DETAIL
  6
DASHED
 62
     5
 10
209.49382800000001
 20
115.715073
 30
0.0
 11
175.038061
 21
121.790555
 31
0.0
  0
LINE
  5
630
  8
DETAIL
  6
DASHED
 62
     5
 10
209.49382800000001
 20
114.902732
 30
0.0
 11
174.9680699999999
 21
120.9905549999999
 31
0.0
  0
ARC
  5
631
  8
DETAIL
  6
DASHED
 62
     5
 10
145.47875400000001
 20
126.9506259999999
 30
0.0
 40
72.955010999999999
 50
270.01183900000001
 51
349.411946
  0
LINE
  5
632
  8
DETAIL
  6
DASHED
 62
     5
 10
145.49382800000001
 20
53.995617000000003
 30
0.0
 11
145.49382800000001
 21
138.57933299999999
 31
0.0
  0
LINE
  5
633
  8
DETAIL
  6
DASHED
 62
     5
 10
175.038061
 20
121.790555
 30
0.0
 11
144.8569039999999
 21
121.790555
 31
0.0
  0
LINE
  5
634
  8
DETAIL
  6
DASHED
 62
     5
 10
144.8569039999999
 20
121.790555
 30
0.0
 11
141.6568239999998
 21
121.790555
 31
0.0
  0
LINE
  5
635
  8
DETAIL
  6
DASHED
 62
     5
 10
144.86118499999981
 20
122.394806
 30
0.0
 11
144.8569039999999
 21
121.790555
 31
0.0
  0
LINE
  5
636
  8
DETAIL
  6
DASHED
 62
     5
 10
146.06115500000001
 20
122.386304
 30
0.0
 11
146.05693400000001
 21
121.790555
 31
0.0
  0
LINE
  5
637
  8
DETAIL
  6
DASHED
 62
     5
 10
149.2612959999999
 20
122.394806
 30
0.0
 11
149.25707499999979
 21
121.79905599999999
 31
0.0
  0
LINE
  5
638
  8
DETAIL
  6
DASHED
 62
     5
 10
150.46126599999999
 20
122.386304
 30
0.0
 11
150.45704499999991
 21
121.790555
 31
0.0
  0
LINE
  5
639
  8
DETAIL
  6
DASHED
 62
     5
 10
140.49985699999991
 20
127.868736
 30
0.0
 11
140.77570600000001
 21
128.6550899999996
 31
0.0
  0
ARC
  5
63A
  8
DETAIL
  6
DASHDOT
 62
     5
 10
145.49382800000001
 20
127.0
 30
0.0
 40
5.0
 50
18.518713000000002
 51
160.66942399999991
  0
LINE
  5
63B
  8
DETAIL
  6
DASHED
 62
     5
 10
149.2866479999999
 20
125.9731029999999
 30
0.0
 11
149.2612959999999
 21
122.394806
 31
0.0
  0
ARC
  5
63C
  8
DETAIL
  6
DASHED
 62
     5
 10
149.86128099999999
 20
122.39055500000001
 30
0.0
 40
0.6
 50
90.0
 51
179.59406799999999
  0
ARC
  5
63D
  8
DETAIL
  6
DASHED
 62
     5
 10
149.86128099999999
 20
122.39055500000001
 30
0.0
 40
0.6
 50
359.59406799999999
 51
90.0
  0
LINE
  5
63E
  8
DETAIL
  6
DASHED
 62
     5
 10
149.2866479999999
 20
125.9731029999999
 30
0.0
 11
150.48661799999999
 21
125.9646009999999
 31
0.0
  0
LINE
  5
63F
  8
DETAIL
  6
DASHED
 62
     5
 10
150.499606
 20
127.7978879999996
 30
0.0
 11
150.46126599999999
 21
122.386304
 31
0.0
  0
LINE
  5
640
  8
DETAIL
  6
DASHED
 62
     5
 10
150.499606
 20
127.7978879999996
 30
0.0
 11
150.23492799999991
 21
128.58807200000001
 31
0.0
  0
CIRCLE
  5
641
  8
DETAIL
  6
DASHED
 62
     5
 10
145.49382800000001
 20
127.0
 30
0.0
 40
2.1000000000000001
  0
ARC
  5
642
  8
DETAIL
  6
DASHED
 62
     5
 10
145.46116999999981
 20
122.39055500000001
 30
0.0
 40
0.6
 50
359.59406799999999
 51
90.0
  0
ARC
  5
643
  8
DETAIL
  6
DASHED
 62
     5
 10
145.46116999999981
 20
122.39055500000001
 30
0.0
 40
0.6
 50
90.0
 51
179.59406799999999
  0
ARC
  5
644
  8
DETAIL
  6
DASHED
 62
     5
 10
141.06106
 20
122.39055500000001
 30
0.0
 40
0.6
 50
359.59406799999999
 51
90.0
  0
LINE
  5
645
  8
DETAIL
  6
DASHED
 62
     5
 10
141.661045
 20
122.386304
 30
0.0
 11
141.65676399999981
 21
121.782053
 31
0.0
  0
LINE
  5
646
  8
DETAIL
  6
DASHED
 62
     5
 10
140.48686899999959
 20
126.035449
 30
0.0
 11
141.68683899999991
 21
126.02694699999969
 31
0.0
  0
LINE
  5
647
  8
DETAIL
  6
DASHED
 62
     5
 10
141.68683899999991
 20
126.02694699999969
 30
0.0
 11
141.661045
 21
122.386304
 31
0.0
  0
LINE
  5
648
  8
DETAIL
  6
DASHED
 62
     5
 10
174.9680699999999
 20
120.9905549999999
 30
0.0
 11
121.22045
 21
120.9905549999999
 31
0.0
  0
LINE
  5
649
  8
DETAIL
  6
DASHED
 62
     5
 10
140.4567939999996
 20
121.790555
 30
0.0
 11
121.22045
 21
121.790555
 31
0.0
  0
LINE
  5
64A
  8
DETAIL
  6
DASHED
 62
     5
 10
121.22045
 20
121.790555
 30
0.0
 11
121.22045
 21
120.9905549999999
 31
0.0
  0
LINE
  5
64B
  8
DETAIL
  6
DASHED
 62
     5
 10
175.038061
 20
121.790555
 30
0.0
 11
159.49382800000001
 21
121.790555
 31
0.0
  0
LINE
  5
64C
  8
DETAIL
  6
DASHED
 62
     5
 10
174.9680699999999
 20
120.9905549999999
 30
0.0
 11
159.49382800000001
 21
120.9905549999999
 31
0.0
  0
LINE
  5
64D
  8
DETAIL
  6
CONTINUOUS
 62
     5
 10
176.11888999999999
 20
49.5
 30
0.0
 11
176.11888999999999
 21
154.4999999999998
 31
0.0
  0
LINE
  5
64E
  8
DETAIL
  6
CONTINUOUS
 62
     5
 10
98.307742000000005
 20
49.801735000000001
 30
0.0
 11
100.502742
 21
0.0
 31
0.0
  0
LINE
  5
64F
  8
DETAIL
  6
CONTINUOUS
 62
     5
 10
96.398452000000006
 20
159.184912
 30
0.0
 11
96.485082000000006
 21
154.2218729999999
 31
0.0
  0
LINE
  5
650
  8
DETAIL
  6
CONTINUOUS
 62
     5
 10
97.603405000000024
 20
152.461455
 30
0.0
 11
134.191609
 21
135.13945599999991
 31
0.0
  0
LINE
  5
651
  8
DETAIL
  6
CONTINUOUS
 62
     5
 10
134.191609
 20
70.289154000000011
 30
0.0
 11
99.333611000000005
 21
51.583539999999999
 31
0.0
  0
LINE
  5
652
  8
DETAIL
  6
CONTINUOUS
 62
     5
 10
134.191609
 20
47.068634999999993
 30
0.0
 11
134.191609
 21
155.0025429999998
 31
0.0
  0
LINE
  5
653
  8
DETAIL
  6
CONTINUOUS
 62
     5
 10
65.168120999999999
 20
173.0
 30
0.0
 11
94.191913999999997
 21
173.0
 31
0.0
  0
LINE
  5
654
  8
DETAIL
  6
CONTINUOUS
 62
     5
 10
65.168120999999999
 20
171.0
 30
0.0
 11
77.725071999999983
 21
171.0
 31
0.0
  0
ARC
  5
655
  8
DETAIL
  6
CONTINUOUS
 62
     5
 10
77.725071999999983
 20
169.0
 30
0.0
 40
2.0
 50
1.0
 51
90.0
  0
LINE
  5
656
  8
DETAIL
  6
CONTINUOUS
 62
     5
 10
66.168120999999999
 20
178.0
 30
0.0
 11
89.168120999999985
 21
178.0
 31
0.0
  0
LINE
  5
657
  8
DETAIL
  6
CONTINUOUS
 62
     5
 10
90.168120999999999
 20
177.0
 30
0.0
 11
90.168120999999999
 21
173.0
 31
0.0
  0
ARC
  5
658
  8
DETAIL
  6
CONTINUOUS
 62
     5
 10
89.168120999999985
 20
177.0
 30
0.0
 40
1.0
 50
0.0
 51
90.0
  0
LINE
  5
659
  8
DETAIL
  6
CONTINUOUS
 62
     5
 10
65.168120999999999
 20
177.0
 30
0.0
 11
65.168120999999999
 21
171.0
 31
0.0
  0
ARC
  5
65A
  8
DETAIL
  6
CONTINUOUS
 62
     5
 10
66.168120999999999
 20
177.0
 30
0.0
 40
1.0
 50
90.0
 51
180.0
  0
LINE
  5
65B
  8
DETAIL
  6
CONTINUOUS
 62
     5
 10
79.724768000000026
 20
169.03490500000001
 30
0.0
 11
84.000990000000002
 21
0.0
 31
0.0
  0
LINE
  5
65C
  8
DETAIL
  6
CONTINUOUS
 62
     5
 10
96.191609
 20
171.03490500000001
 30
0.0
 11
96.401679000000016
 21
159.0
 31
0.0
  0
ARC
  5
65D
  8
DETAIL
  6
CONTINUOUS
 62
     5
 10
94.191913999999997
 20
171.0
 30
0.0
 40
2.0
 50
1.0
 51
90.0
  0
ARC
  5
65E
  8
DETAIL
  6
CONTINUOUS
 62
     5
 10
97.448755000000006
 20
156.311756
 30
0.0
 40
1.0
 50
181.0
 51
269.5
  0
ARC
  5
65F
  8
DETAIL
  6
CONTINUOUS
 62
     5
 10
100.307438
 20
49.836638999999991
 30
0.0
 40
2.0
 50
119.1378949999999
 51
181.0
  0
ARC
  5
660
  8
DETAIL
  6
CONTINUOUS
 62
     5
 10
98.484776999999994
 20
154.25677799999991
 30
0.0
 40
2.0
 50
181.0
 51
243.85232500000001
  0
LINE
  5
661
  8
BASIS
  6
DASHDOT
 62
     6
 10
239.31825599999999
 20
102.0
 30
0.0
 11
61.989881000000011
 21
102.0
 31
0.0
  0
LINE
  5
662
  8
DETAIL
  6
CONTINUOUS
 62
     5
 10
20.0
 20
60.5
 30
0.0
 11
74.416205000000005
 21
60.5
 31
0.0
  0
LINE
  5
663
  8
DETAIL
  6
CONTINUOUS
 62
     5
 10
-84.928734999999989
 20
60.632486
 30
0.0
 11
-84.493725999999981
 21
65.5
 31
0.0
  0
LINE
  5
664
  8
DETAIL
  6
CONTINUOUS
 62
     5
 10
-82.99943399999998
 20
60.5
 30
0.0
 11
-82.99943399999998
 21
65.5
 31
0.0
  0
ARC
  5
665
  8
DETAIL
  6
CONTINUOUS
 62
     5
 10
71.413526000000019
 20
129.0
 30
0.0
 40
2.0
 50
90.0
 51
179.0
  0
ARC
  5
666
  8
DETAIL
  6
CONTINUOUS
 62
     5
 10
71.182535000000001
 20
133.0
 30
0.0
 40
2.0
 50
270.0
 51
359.0
  0
ARC
  5
667
  8
DETAIL
  6
CONTINUOUS
 62
     5
 10
75.732979
 20
164.5
 30
0.0
 40
2.0
 50
90.0
 51
179.0
  0
LINE
  5
668
  8
DETAIL
  6
CONTINUOUS
 62
     5
 10
73.182231000000002
 20
132.96509499999991
 30
0.0
 11
73.733283999999998
 21
164.53490500000001
 31
0.0
  0
LINE
  5
669
  8
DETAIL
  6
CONTINUOUS
 62
     5
 10
74.416205000000005
 20
60.5
 30
0.0
 11
76.265681000000001
 21
166.456369
 31
0.0
  0
LINE
  5
66A
  8
DETAIL
  6
CONTINUOUS
 62
     5
 10
69.413831000000002
 20
129.03490500000001
 30
0.0
 11
68.217550000000003
 21
60.5
 31
0.0
  0
LINE
  5
66B
  8
DETAIL
  6
CONTINUOUS
 62
     5
 10
-94.308391
 20
129.03490500000001
 30
0.0
 11
-95.504671999999985
 21
60.5
 31
0.0
  0
LINE
  5
66C
  8
DETAIL
  6
CONTINUOUS
 62
     5
 10
-88.321871000000002
 20
65.5
 30
0.0
 11
-93.321871000000002
 21
60.5
 31
0.0
  0
LINE
  5
66D
  8
DETAIL
  6
CONTINUOUS
 62
     5
 10
-73.321871000000002
 20
60.5
 30
0.0
 11
-78.321871000000002
 21
65.5
 31
0.0
  0
LINE
  5
66E
  8
DETAIL
  6
CONTINUOUS
 62
     5
 10
-82.99943399999998
 20
65.5
 30
0.0
 11
-84.493725999999981
 21
65.5
 31
0.0
  0
LINE
  5
66F
  8
DETAIL
  6
CONTINUOUS
 62
     5
 10
-88.321871000000002
 20
60.5
 30
0.0
 11
-88.321871000000002
 21
69.0
 31
0.0
  0
LINE
  5
670
  8
DETAIL
  6
CONTINUOUS
 62
     5
 10
-78.321871000000002
 20
60.5
 30
0.0
 11
-78.321871000000002
 21
69.0
 31
0.0
  0
LINE
  5
671
  8
DETAIL
  6
CONTINUOUS
 62
     5
 10
-81.321871000000016
 20
72.0
 30
0.0
 11
-85.321870999999987
 21
72.0
 31
0.0
  0
LINE
  5
672
  8
BASIS
  6
DASHDOT
 62
     6
 10
-5.5
 20
132.043553
 30
0.0
 11
-5.5
 21
198.4738659999999
 31
0.0
  0
LINE
  5
673
  8
DETAIL
  6
CONTINUOUS
 62
     5
 10
-97.978268999999997
 20
58.534905000000002
 30
0.0
 11
-99.0
 21
0.0
 31
0.0
  0
ARC
  5
674
  8
DETAIL
  6
CONTINUOUS
 62
     5
 10
-95.978573999999995
 20
58.5
 30
0.0
 40
2.0
 50
90.0
 51
179.0
  0
LINE
  5
675
  8
DETAIL
  6
CONTINUOUS
 62
     5
 10
71.182535000000001
 20
131.0
 30
0.0
 11
20.0
 21
131.0
 31
0.0
  0
LINE
  5
676
  8
DETAIL
  6
CONTINUOUS
 62
     5
 10
-95.978573999999995
 20
60.5
 30
0.0
 11
-20.0
 21
60.5
 31
0.0
  0
LINE
  5
677
  8
DETAIL
  6
CONTINUOUS
 62
     5
 10
82.997275000000016
 20
0.0
 30
0.0
 11
78.765299999999982
 21
166.5
 31
0.0
  0
LINE
  5
678
  8
DETAIL
  6
CONTINUOUS
 62
     5
 10
73.358428000000004
 20
171.0
 30
0.0
 11
72.015523999999999
 21
162.0
 31
0.0
  0
LINE
  5
679
  8
DETAIL
  6
CONTINUOUS
 62
     5
 10
79.769014999999982
 20
166.5
 30
0.0
 11
75.732979
 21
166.5
 31
0.0
  0
ARC
  5
67A
  8
DETAIL
  6
CONTINUOUS
 62
     5
 10
-92.308695
 20
129.0
 30
0.0
 40
2.0
 50
90.0
 51
179.0
  0
ARC
  5
67B
  8
DETAIL
  6
CONTINUOUS
 62
     5
 10
-55.462788000000003
 20
132.0
 30
0.0
 40
1.0
 50
270.0
 51
359.0
  0
LINE
  5
67C
  8
DETAIL
  6
CONTINUOUS
 62
     5
 10
85.709217000000024
 20
195.0
 30
0.0
 11
75.709217000000024
 21
195.0
 31
0.0
  0
LINE
  5
67D
  8
DETAIL
  6
CONTINUOUS
 62
     5
 10
-53.320574999999998
 20
194.52275299999999
 30
0.0
 11
-78.991348999999985
 21
131.0
 31
0.0
  0
LINE
  5
67E
  8
DETAIL
  6
CONTINUOUS
 62
     5
 10
-47.502231999999992
 20
162.0
 30
0.0
 11
-51.978689000000003
 21
194.14746599999989
 31
0.0
  0
LINE
  5
67F
  8
DETAIL
  6
CONTINUOUS
 62
     5
 10
-45.337169000000003
 20
162.0
 30
0.0
 11
-50.496777000000002
 21
194.3687289999998
 31
0.0
  0
LINE
  5
680
  8
DETAIL
  6
CONTINUOUS
 62
     5
 10
73.689036999999999
 20
162.0
 30
0.0
 11
-47.502231999999992
 21
162.0
 31
0.0
  0
ARC
  5
681
  8
DETAIL
  6
CONTINUOUS
 62
     5
 10
-51.236643000000001
 20
194.2507939999999
 30
0.0
 40
0.7492060000000002
 50
9.0568119999999972
 51
187.92732499999991
  0
ARC
  5
682
  8
DETAIL
  6
CONTINUOUS
 62
     5
 10
-52.612966
 20
194.236794
 30
0.0
 40
0.7632060000000001
 50
90.0
 51
179.0
  0
LINE
  5
683
  8
DETAIL
  6
CONTINUOUS
 62
     5
 10
-54.462940000000003
 20
131.98254800000001
 30
0.0
 11
-53.376055999999991
 21
194.250114
 31
0.0
  0
ARC
  5
684
  8
DETAIL
  6
CONTINUOUS
 62
     5
 10
-81.321871000000016
 20
69.0
 30
0.0
 40
3.0
 50
0.0
 51
90.0
  0
ARC
  5
685
  8
DETAIL
  6
CONTINUOUS
 62
     5
 10
-85.321870999999987
 20
69.0
 30
0.0
 40
3.0
 50
90.0
 51
180.0
  0
LINE
  5
686
  8
DETAIL
  6
CONTINUOUS
 62
     5
 10
73.504289
 20
178.0
 30
0.0
 11
75.709217000000024
 21
195.0
 31
0.0
  0
LINE
  5
687
  8
DETAIL
  6
CONTINUOUS
 62
     5
 10
85.709217000000024
 20
195.0
 30
0.0
 11
87.959216999999995
 21
178.0
 31
0.0
  0
LINE
  5
688
  8
DETAIL
  6
CONTINUOUS
 62
     5
 10
-51.236643000000001
 20
195.0
 30
0.0
 11
-52.612966
 21
195.0
 31
0.0
  0
LINE
  5
689
  8
DETAIL
  6
CONTINUOUS
 62
     5
 10
53.076241000000003
 20
131.0
 30
0.0
 11
73.327316999999979
 21
141.27707100000001
 31
0.0
  0
LINE
  5
68A
  8
BASIS
  6
DASHDOT
 62
     6
 10
0.0
 20
216.66316399999991
 30
0.0
 11
0.0
 21
-47.226675999999998
 31
0.0
  0
LINE
  5
68B
  8
DETAIL
  6
CONTINUOUS
 62
     5
 10
25.0
 20
186.0
 30
0.0
 11
25.0
 21
162.0
 31
0.0
  0
LINE
  5
68C
  8
DETAIL
  6
CONTINUOUS
 62
     5
 10
-36.0
 20
186.0
 30
0.0
 11
-36.0
 21
162.0
 31
0.0
  0
LINE
  5
68D
  8
DETAIL
  6
CONTINUOUS
 62
     5
 10
-5.5
 20
189.0
 30
0.0
 11
-33.0
 21
189.0
 31
0.0
  0
LINE
  5
68E
  8
DETAIL
  6
CONTINUOUS
 62
     5
 10
-5.5
 20
189.0
 30
0.0
 11
22.0
 21
189.0
 31
0.0
  0
LINE
  5
68F
  8
SIZE
  6
CONTINUOUS
 62
    30
 10
143.0
 20
-26.266200999999999
 30
0.0
 11
143.0
 21
-493.17716699999988
 31
0.0
  0
LINE
  5
690
  8
SIZE
  6
CONTINUOUS
 62
    30
 10
-143.0
 20
-26.266200999999999
 30
0.0
 11
-143.0
 21
-493.17716699999988
 31
0.0
  0
LINE
  5
691
  8
SIZE
  6
CONTINUOUS
 62
    30
 10
131.0
 20
-473.17716699999988
 30
0.0
 11
-131.0
 21
-473.17716699999988
 31
0.0
  0
CIRCLE
  5
692
  8
SIZE
  6
CONTINUOUS
 62
    30
 10
143.0
 20
-473.17716699999988
 30
0.0
 40
6.0
  0
LINE
  5
693
  8
SIZE
  6
CONTINUOUS
 62
    30
 10
143.0
 20
-473.17716699999988
 30
0.0
 11
131.0
 21
-473.17716699999988
 31
0.0
  0
CIRCLE
  5
694
  8
SIZE
  6
CONTINUOUS
 62
    30
 10
-143.0
 20
-473.17716699999988
 30
0.0
 40
6.0
  0
LINE
  5
695
  8
SIZE
  6
CONTINUOUS
 62
    30
 10
-143.0
 20
-473.17716699999988
 30
0.0
 11
-131.0
 21
-473.17716699999988
 31
0.0
  0
TEXT
  5
696
  8
SIZE
  6
CONTINUOUS
 62
    30
 10
-109.1657142857143
 20
-448.17716699999988
 30
0.0
 40
64.0
  1
üá286
 41
0.9
 72
     1
 11
0.0
 21
-448.17716699999988
 31
0.0
  0
LINE
  5
698
  8
SIZE
  6
CONTINUOUS
 62
    30
 10
-162.0
 20
0.0
 30
0.0
 11
-395.43980199999987
 21
0.0
 31
0.0
  0
LINE
  5
699
  8
SIZE
  6
CONTINUOUS
 62
    30
 10
-112.308695
 20
131.0
 30
0.0
 11
-395.43980199999987
 21
131.0
 31
0.0
  0
LINE
  5
69A
  8
SIZE
  6
CONTINUOUS
 62
    30
 10
-375.43980199999999
 20
12.0
 30
0.0
 11
-375.43980199999999
 21
119.0
 31
0.0
  0
LINE
  5
69B
  8
SIZE
  6
CONTINUOUS
 62
    30
 10
-375.43980199999999
 20
-200.39617699999999
 30
0.0
 11
-375.43980199999999
 21
0.0
 31
0.0
  0
TEXT
  5
69C
  8
SIZE
  6
CONTINUOUS
 62
    30
 10
-400.43980199999999
 20
-175.39617642857129
 30
0.0
 40
64.0
  1
131
 50
90.0
 41
0.9
 72
     1
 11
-400.43980199999999
 21
-119.1676049999999
 31
0.0
  0
CIRCLE
  5
69D
  8
SIZE
  6
CONTINUOUS
 62
    30
 10
-375.43980199999999
 20
0.0
 30
0.0
 40
6.0
  0
LINE
  5
69E
  8
SIZE
  6
CONTINUOUS
 62
    30
 10
-375.43980199999999
 20
0.0
 30
0.0
 11
-375.43980199999999
 21
12.0
 31
0.0
  0
CIRCLE
  5
69F
  8
SIZE
  6
CONTINUOUS
 62
    30
 10
-375.43980199999999
 20
131.0
 30
0.0
 40
6.0
  0
LINE
  5
6A0
  8
SIZE
  6
CONTINUOUS
 62
    30
 10
-375.43980199999999
 20
131.0
 30
0.0
 11
-375.43980199999999
 21
119.0
 31
0.0
  0
LINE
  5
6A2
  8
SIZE
  6
CONTINUOUS
 62
    30
 10
-162.0
 20
0.0
 30
0.0
 11
-506.56972699999989
 21
0.0
 31
0.0
  0
LINE
  5
6A3
  8
SIZE
  6
CONTINUOUS
 62
    30
 10
-53.0
 20
189.0
 30
0.0
 11
-506.56972699999989
 21
189.0
 31
0.0
  0
LINE
  5
6A4
  8
SIZE
  6
CONTINUOUS
 62
    30
 10
-486.56972699999989
 20
12.0
 30
0.0
 11
-486.56972699999989
 21
177.0
 31
0.0
  0
LINE
  5
6A5
  8
SIZE
  6
CONTINUOUS
 62
    30
 10
-486.56972699999989
 20
-214.34947700000001
 30
0.0
 11
-486.56972699999989
 21
0.0
 31
0.0
  0
TEXT
  5
6A6
  8
SIZE
  6
CONTINUOUS
 62
    30
 10
-511.56972699999989
 20
-189.34947699999989
 30
0.0
 40
64.0
  1
189
 50
90.0
 41
0.9
 72
     1
 11
-511.56972699999989
 21
-122.149477
 31
0.0
  0
CIRCLE
  5
6A7
  8
SIZE
  6
CONTINUOUS
 62
    30
 10
-486.56972699999989
 20
0.0
 30
0.0
 40
6.0
  0
LINE
  5
6A8
  8
SIZE
  6
CONTINUOUS
 62
    30
 10
-486.56972699999989
 20
0.0
 30
0.0
 11
-486.56972699999989
 21
12.0
 31
0.0
  0
CIRCLE
  5
6A9
  8
SIZE
  6
CONTINUOUS
 62
    30
 10
-486.56972699999989
 20
189.0
 30
0.0
 40
6.0
  0
LINE
  5
6AA
  8
SIZE
  6
CONTINUOUS
 62
    30
 10
-486.56972699999989
 20
189.0
 30
0.0
 11
-486.56972699999989
 21
177.0
 31
0.0
  0
LINE
  5
6AC
  8
SIZE
  6
CONTINUOUS
 62
    30
 10
-163.0
 20
0.0
 30
0.0
 11
-638.39640899999995
 21
0.0
 31
0.0
  0
LINE
  5
6AD
  8
SIZE
  6
CONTINUOUS
 62
    30
 10
-72.612966
 20
195.0
 30
0.0
 11
-638.39640899999995
 21
195.0
 31
0.0
  0
LINE
  5
6AE
  8
SIZE
  6
CONTINUOUS
 62
    30
 10
-618.39640899999995
 20
12.0
 30
0.0
 11
-618.39640899999995
 21
183.0
 31
0.0
  0
CIRCLE
  5
6AF
  8
SIZE
  6
CONTINUOUS
 62
    30
 10
-618.39640899999995
 20
0.0
 30
0.0
 40
6.0
  0
LINE
  5
6B0
  8
SIZE
  6
CONTINUOUS
 62
    30
 10
-618.39640899999995
 20
0.0
 30
0.0
 11
-618.39640899999995
 21
12.0
 31
0.0
  0
CIRCLE
  5
6B1
  8
SIZE
  6
CONTINUOUS
 62
    30
 10
-618.39640899999995
 20
195.0
 30
0.0
 40
6.0
  0
LINE
  5
6B2
  8
SIZE
  6
CONTINUOUS
 62
    30
 10
-618.39640899999995
 20
195.0
 30
0.0
 11
-618.39640899999995
 21
183.0
 31
0.0
  0
TEXT
  5
6B3
  8
SIZE
  6
CONTINUOUS
 62
    30
 10
-643.39640899999995
 20
28.928571428571431
 30
0.0
 40
64.0
  1
195
 50
90.0
 41
0.9
 72
     1
 11
-643.39640899999995
 21
97.5
 31
0.0
  0
LINE
  5
6B5
  8
SIZE
  6
CONTINUOUS
 62
    30
 10
-163.0
 20
0.0
 30
0.0
 11
-638.39640899999995
 21
0.0
 31
0.0
  0
LINE
  5
6B6
  8
SIZE
  6
CONTINUOUS
 62
    30
 10
-120.3350219999999
 20
-15.0
 30
0.0
 11
-638.39640899999995
 21
-15.0
 31
0.0
  0
LINE
  5
6B7
  8
SIZE
  6
CONTINUOUS
 62
    30
 10
-618.39640899999995
 20
12.0
 30
0.0
 11
-618.39640899999995
 21
24.0
 31
0.0
  0
LINE
  5
6B8
  8
SIZE
  6
CONTINUOUS
 62
    30
 10
-618.39640899999995
 20
-27.0
 30
0.0
 11
-618.39640899999995
 21
-39.0
 31
0.0
  0
LINE
  5
6B9
  8
SIZE
  6
CONTINUOUS
 62
    30
 10
-618.39640899999995
 20
-172.637765
 30
0.0
 11
-618.39640899999995
 21
-15.0
 31
0.0
  0
TEXT
  5
6BA
  8
SIZE
  6
CONTINUOUS
 62
    30
 10
-643.39640899999995
 20
-147.63776514285709
 30
0.0
 40
64.0
  1
15
 50
90.0
 41
0.9
 72
     1
 11
-643.39640899999995
 21
-106.494908
 31
0.0
  0
LINE
  5
6BB
  8
SIZE
  6
CONTINUOUS
 62
    30
 10
-618.39640899999995
 20
0.0
 30
0.0
 11
-618.39640899999995
 21
-15.0
 31
0.0
  0
LINE
  5
6BC
  8
SIZE
  6
CONTINUOUS
 62
    30
 10
-618.39640899999995
 20
0.0
 30
0.0
 11
-618.39640899999995
 21
-15.0
 31
0.0
  0
CIRCLE
  5
6BD
  8
SIZE
  6
CONTINUOUS
 62
    30
 10
-618.39640899999995
 20
0.0
 30
0.0
 40
6.0
  0
LINE
  5
6BE
  8
SIZE
  6
CONTINUOUS
 62
    30
 10
-618.39640899999995
 20
0.0
 30
0.0
 11
-618.39640899999995
 21
12.0
 31
0.0
  0
CIRCLE
  5
6BF
  8
SIZE
  6
CONTINUOUS
 62
    30
 10
-618.39640899999995
 20
-15.0
 30
0.0
 40
6.0
  0
LINE
  5
6C0
  8
SIZE
  6
CONTINUOUS
 62
    30
 10
-618.39640899999995
 20
-15.0
 30
0.0
 11
-618.39640899999995
 21
-27.0
 31
0.0
  0
LINE
  5
6C2
  8
SIZE
  6
CONTINUOUS
 62
    30
 10
0.0
 20
236.66316399999999
 30
0.0
 11
0.0
 21
412.49153799999999
 31
0.0
  0
LINE
  5
6C3
  8
SIZE
  6
CONTINUOUS
 62
    30
 10
-5.5
 20
218.4738659999999
 30
0.0
 11
-5.5
 21
412.49153799999999
 31
0.0
  0
LINE
  5
6C4
  8
SIZE
  6
CONTINUOUS
 62
    30
 10
12.0
 20
392.49153799999988
 30
0.0
 11
24.0
 21
392.49153799999988
 31
0.0
  0
LINE
  5
6C5
  8
SIZE
  6
CONTINUOUS
 62
    30
 10
-17.5
 20
392.49153799999988
 30
0.0
 11
-29.5
 21
392.49153799999988
 31
0.0
  0
LINE
  5
6C6
  8
SIZE
  6
CONTINUOUS
 62
    30
 10
-291.01306599999992
 20
392.49153799999988
 30
0.0
 11
-5.5
 21
392.49153799999988
 31
0.0
  0
TEXT
  5
6C7
  8
SIZE
  6
CONTINUOUS
 62
    30
 10
-266.01306614285699
 20
417.49153799999988
 30
0.0
 40
64.0
  1
5.5
 41
0.9
 72
     1
 11
-205.67020899999989
 21
417.49153799999988
 31
0.0
  0
LINE
  5
6C8
  8
SIZE
  6
CONTINUOUS
 62
    30
 10
0.0
 20
392.49153799999988
 30
0.0
 11
-5.5
 21
392.49153799999988
 31
0.0
  0
LINE
  5
6C9
  8
SIZE
  6
CONTINUOUS
 62
    30
 10
0.0
 20
392.49153799999988
 30
0.0
 11
-5.5
 21
392.49153799999988
 31
0.0
  0
CIRCLE
  5
6CA
  8
SIZE
  6
CONTINUOUS
 62
    30
 10
0.0
 20
392.49153799999988
 30
0.0
 40
6.0
  0
LINE
  5
6CB
  8
SIZE
  6
CONTINUOUS
 62
    30
 10
0.0
 20
392.49153799999988
 30
0.0
 11
12.0
 21
392.49153799999988
 31
0.0
  0
CIRCLE
  5
6CC
  8
SIZE
  6
CONTINUOUS
 62
    30
 10
-5.5
 20
392.49153799999988
 30
0.0
 40
6.0
  0
LINE
  5
6CD
  8
SIZE
  6
CONTINUOUS
 62
    30
 10
-5.5
 20
392.49153799999988
 30
0.0
 11
-17.5
 21
392.49153799999988
 31
0.0
  0
LINE
  5
6CF
  8
SIZE
  6
CONTINUOUS
 62
    30
 10
25.0
 20
206.0
 30
0.0
 11
25.0
 21
518.90531599999986
 31
0.0
  0
LINE
  5
6D0
  8
SIZE
  6
CONTINUOUS
 62
    30
 10
-36.0
 20
206.0
 30
0.0
 11
-36.0
 21
518.90531599999986
 31
0.0
  0
LINE
  5
6D1
  8
SIZE
  6
CONTINUOUS
 62
    30
 10
37.0
 20
498.90531600000003
 30
0.0
 11
49.0
 21
498.90531600000003
 31
0.0
  0
LINE
  5
6D2
  8
SIZE
  6
CONTINUOUS
 62
    30
 10
-48.0
 20
498.90531600000003
 30
0.0
 11
-60.0
 21
498.90531600000003
 31
0.0
  0
LINE
  5
6D3
  8
SIZE
  6
CONTINUOUS
 62
    30
 10
25.0
 20
498.90531600000003
 30
0.0
 11
-36.0
 21
498.90531600000003
 31
0.0
  0
CIRCLE
  5
6D4
  8
SIZE
  6
CONTINUOUS
 62
    30
 10
25.0
 20
498.90531600000003
 30
0.0
 40
6.0
  0
LINE
  5
6D5
  8
SIZE
  6
CONTINUOUS
 62
    30
 10
25.0
 20
498.90531600000003
 30
0.0
 11
37.0
 21
498.90531600000003
 31
0.0
  0
CIRCLE
  5
6D6
  8
SIZE
  6
CONTINUOUS
 62
    30
 10
-36.0
 20
498.90531600000003
 30
0.0
 40
6.0
  0
LINE
  5
6D7
  8
SIZE
  6
CONTINUOUS
 62
    30
 10
-36.0
 20
498.90531600000003
 30
0.0
 11
-48.0
 21
498.90531600000003
 31
0.0
  0
TEXT
  5
6D8
  8
SIZE
  6
CONTINUOUS
 62
    30
 10
-80.105714285714285
 20
523.90531599999997
 30
0.0
 40
64.0
  1
âË61
 41
0.9
 72
     1
 11
-5.5
 21
523.90531599999997
 31
0.0
  0
LINE
  5
6DA
  8
SIZE
  6
CONTINUOUS
 62
    30
 10
96.191609
 20
191.03490500000001
 30
0.0
 11
96.191609
 21
629.21584700000017
 31
0.0
  0
LINE
  5
6DB
  8
SIZE
  6
CONTINUOUS
 62
    30
 10
-94.308391
 20
149.03490500000001
 30
0.0
 11
-94.308391
 21
629.21584700000017
 31
0.0
  0
LINE
  5
6DC
  8
SIZE
  6
CONTINUOUS
 62
    30
 10
108.191609
 20
609.21584700000005
 30
0.0
 11
120.191609
 21
609.21584700000005
 31
0.0
  0
LINE
  5
6DD
  8
SIZE
  6
CONTINUOUS
 62
    30
 10
-106.3083909999999
 20
609.21584700000005
 30
0.0
 11
-118.3083909999999
 21
609.21584700000005
 31
0.0
  0
LINE
  5
6DE
  8
SIZE
  6
CONTINUOUS
 62
    30
 10
96.191609
 20
609.21584700000005
 30
0.0
 11
-94.308391
 21
609.21584700000005
 31
0.0
  0
CIRCLE
  5
6DF
  8
SIZE
  6
CONTINUOUS
 62
    30
 10
96.191609
 20
609.21584700000005
 30
0.0
 40
6.0
  0
LINE
  5
6E0
  8
SIZE
  6
CONTINUOUS
 62
    30
 10
96.191609
 20
609.21584700000005
 30
0.0
 11
108.191609
 21
609.21584700000005
 31
0.0
  0
CIRCLE
  5
6E1
  8
SIZE
  6
CONTINUOUS
 62
    30
 10
-94.308391
 20
609.21584700000005
 30
0.0
 40
6.0
  0
LINE
  5
6E2
  8
SIZE
  6
CONTINUOUS
 62
    30
 10
-94.308391
 20
609.21584700000005
 30
0.0
 11
-106.3083909999999
 21
609.21584700000005
 31
0.0
  0
TEXT
  5
6E3
  8
SIZE
  6
CONTINUOUS
 62
    30
 10
-108.77267671428569
 20
634.21584700000005
 30
0.0
 40
64.0
  1
190.5
 41
0.9
 72
     1
 11
0.941609
 21
634.21584700000005
 31
0.0
  0
LINE
  5
6E5
  8
DETAIL
  6
CONTINUOUS
 62
     5
 10
209.191609
 20
151.0
 30
0.0
 11
209.191609
 21
53.0
 31
0.0
  0
LINE
  5
6E6
  8
DETAIL
  6
CONTINUOUS
 62
     5
 10
179.1916089999998
 20
151.0
 30
0.0
 11
179.1916089999998
 21
53.0
 31
0.0
  0
LINE
  5
6E7
  8
DETAIL
  6
CONTINUOUS
 62
     5
 10
209.191609
 20
151.0
 30
0.0
 11
179.1916089999998
 21
151.0
 31
0.0
  0
LINE
  5
6E8
  8
DETAIL
  6
CONTINUOUS
 62
     5
 10
209.191609
 20
53.0
 30
0.0
 11
179.1916089999998
 21
53.0
 31
0.0
  0
LINE
  5
6E9
  8
DETAIL
  6
CONTINUOUS
 62
     5
 10
97.440028999999996
 20
155.31179399999991
 30
0.0
 11
176.11888999999999
 21
154.4999999999998
 31
0.0
  0
LINE
  5
6EA
  8
DETAIL
  6
CONTINUOUS
 62
     5
 10
176.11888999999999
 20
154.4999999999998
 30
0.0
 11
179.1916089999998
 21
151.0
 31
0.0
  0
LINE
  5
6EB
  8
DETAIL
  6
CONTINUOUS
 62
     5
 10
98.519378000000003
 20
45.0
 30
0.0
 11
176.11888999999999
 21
49.5
 31
0.0
  0
LINE
  5
6EC
  8
DETAIL
  6
CONTINUOUS
 62
     5
 10
176.11888999999999
 20
49.5
 30
0.0
 11
179.1916089999998
 21
53.0
 31
0.0
  0
LINE
  5
6ED
  8
SIZE
  6
CONTINUOUS
 62
    30
 10
96.191609
 20
191.03490500000001
 30
0.0
 11
96.191609
 21
629.21584700000017
 31
0.0
  0
LINE
  5
6EE
  8
SIZE
  6
CONTINUOUS
 62
    30
 10
209.191609
 20
171.0
 30
0.0
 11
209.191609
 21
629.21584700000017
 31
0.0
  0
LINE
  5
6EF
  8
SIZE
  6
CONTINUOUS
 62
    30
 10
108.191609
 20
609.21584700000005
 30
0.0
 11
197.191609
 21
609.21584700000005
 31
0.0
  0
LINE
  5
6F0
  8
SIZE
  6
CONTINUOUS
 62
    30
 10
413.39604599999979
 20
609.21584700000005
 30
0.0
 11
209.191609
 21
609.21584700000005
 31
0.0
  0
TEXT
  5
6F1
  8
SIZE
  6
CONTINUOUS
 62
    30
 10
262.22461771428561
 20
634.21584700000005
 30
0.0
 40
64.0
  1
113
 41
0.9
 72
     1
 11
325.3103319999999
 21
634.21584700000005
 31
0.0
  0
CIRCLE
  5
6F2
  8
SIZE
  6
CONTINUOUS
 62
    30
 10
96.191609
 20
609.21584700000005
 30
0.0
 40
6.0
  0
LINE
  5
6F3
  8
SIZE
  6
CONTINUOUS
 62
    30
 10
96.191609
 20
609.21584700000005
 30
0.0
 11
108.191609
 21
609.21584700000005
 31
0.0
  0
CIRCLE
  5
6F4
  8
SIZE
  6
CONTINUOUS
 62
    30
 10
209.191609
 20
609.21584700000005
 30
0.0
 40
6.0
  0
LINE
  5
6F5
  8
SIZE
  6
CONTINUOUS
 62
    30
 10
209.191609
 20
609.21584700000005
 30
0.0
 11
197.191609
 21
609.21584700000005
 31
0.0
  0
LINE
  5
6F7
  8
SIZE
  6
CONTINUOUS
 62
    30
 10
209.191609
 20
171.0
 30
0.0
 11
209.191609
 21
518.59486200000003
 31
0.0
  0
LINE
  5
6F8
  8
SIZE
  6
CONTINUOUS
 62
    30
 10
134.191609
 20
175.0025429999998
 30
0.0
 11
134.191609
 21
518.59486200000003
 31
0.0
  0
LINE
  5
6F9
  8
SIZE
  6
CONTINUOUS
 62
    30
 10
197.191609
 20
498.59486199999998
 30
0.0
 11
146.191609
 21
498.59486199999998
 31
0.0
  0
LINE
  5
6FA
  8
SIZE
  6
CONTINUOUS
 62
    30
 10
384.44282999999967
 20
498.59486199999998
 30
0.0
 11
209.191609
 21
498.59486199999998
 31
0.0
  0
TEXT
  5
6FB
  8
SIZE
  6
CONTINUOUS
 62
    30
 10
266.18568757142839
 20
523.59486200000003
 30
0.0
 40
64.0
  1
75
 41
0.9
 72
     1
 11
312.81425899999988
 21
523.59486200000003
 31
0.0
  0
CIRCLE
  5
6FC
  8
SIZE
  6
CONTINUOUS
 62
    30
 10
209.191609
 20
498.59486199999998
 30
0.0
 40
6.0
  0
LINE
  5
6FD
  8
SIZE
  6
CONTINUOUS
 62
    30
 10
209.191609
 20
498.59486199999998
 30
0.0
 11
197.191609
 21
498.59486199999998
 31
0.0
  0
CIRCLE
  5
6FE
  8
SIZE
  6
CONTINUOUS
 62
    30
 10
134.191609
 20
498.59486199999998
 30
0.0
 40
6.0
  0
LINE
  5
6FF
  8
SIZE
  6
CONTINUOUS
 62
    30
 10
134.191609
 20
498.59486199999998
 30
0.0
 11
146.191609
 21
498.59486199999998
 31
0.0
  0
LINE
  5
701
  8
SIZE
  6
CONTINUOUS
 62
    30
 10
209.191609
 20
171.0
 30
0.0
 11
209.191609
 21
412.616198
 31
0.0
  0
LINE
  5
702
  8
SIZE
  6
CONTINUOUS
 62
    30
 10
179.1916089999998
 20
171.0
 30
0.0
 11
179.1916089999998
 21
412.616198
 31
0.0
  0
LINE
  5
703
  8
SIZE
  6
CONTINUOUS
 62
    30
 10
221.19160899999989
 20
392.616198
 30
0.0
 11
233.19160899999989
 21
392.616198
 31
0.0
  0
LINE
  5
704
  8
SIZE
  6
CONTINUOUS
 62
    30
 10
167.191609
 20
392.616198
 30
0.0
 11
155.1916089999996
 21
392.616198
 31
0.0
  0
LINE
  5
705
  8
SIZE
  6
CONTINUOUS
 62
    30
 10
383.40150099999988
 20
392.616198
 30
0.0
 11
209.191609
 21
392.616198
 31
0.0
  0
TEXT
  5
706
  8
SIZE
  6
CONTINUOUS
 62
    30
 10
265.14435757142849
 20
417.61619799999988
 30
0.0
 40
64.0
  1
30
 41
0.9
 72
     1
 11
311.77292899999992
 21
417.61619799999988
 31
0.0
  0
LINE
  5
707
  8
SIZE
  6
CONTINUOUS
 62
    30
 10
209.191609
 20
392.616198
 30
0.0
 11
179.1916089999998
 21
392.616198
 31
0.0
  0
LINE
  5
708
  8
SIZE
  6
CONTINUOUS
 62
    30
 10
209.191609
 20
392.616198
 30
0.0
 11
179.1916089999998
 21
392.616198
 31
0.0
  0
CIRCLE
  5
709
  8
SIZE
  6
CONTINUOUS
 62
    30
 10
209.191609
 20
392.616198
 30
0.0
 40
6.0
  0
LINE
  5
70A
  8
SIZE
  6
CONTINUOUS
 62
    30
 10
209.191609
 20
392.616198
 30
0.0
 11
221.19160899999989
 21
392.616198
 31
0.0
  0
CIRCLE
  5
70B
  8
SIZE
  6
CONTINUOUS
 62
    30
 10
179.1916089999998
 20
392.616198
 30
0.0
 40
6.0
  0
LINE
  5
70C
  8
SIZE
  6
CONTINUOUS
 62
    30
 10
179.1916089999998
 20
392.616198
 30
0.0
 11
167.191609
 21
392.616198
 31
0.0
  0
LINE
  5
70E
  8
DETAIL
  6
CONTINUOUS
 62
     5
 39
50.0
 10
20.0
 20
114.0593999999999
 30
0.0
 11
-20.0
 21
114.0593999999999
 31
0.0
  0
LINE
  5
70F
  8
DETAIL
  6
CONTINUOUS
 62
     5
 39
50.0
 10
20.0
 20
127.237751
 30
0.0
 11
-20.0
 21
127.237751
 31
0.0
  0
LINE
  5
710
  8
DETAIL
  6
CONTINUOUS
 62
     5
 39
50.0
 10
20.0
 20
133.9908979999999
 30
0.0
 11
-20.0
 21
133.9908979999999
 31
0.0
  0
LINE
  5
711
  8
DETAIL
  6
CONTINUOUS
 62
     5
 39
50.0
 10
20.0
 20
129.4451709999999
 30
0.0
 11
-20.0
 21
129.4451709999999
 31
0.0
  0
LINE
  5
712
  8
DETAIL
  6
CONTINUOUS
 62
     5
 10
143.0
 20
0.0
 30
0.0
 11
-143.0
 21
0.0
 31
0.0
  0
LINE
  5
713
  8
DETAIL
  6
CONTINUOUS
 62
     5
 10
-95.5
 20
-15.0
 30
0.0
 11
95.5
 21
-15.0
 31
0.0
  0
ARC
  5
714
  8
DETAIL
  6
CONTINUOUS
 62
     5
 10
-97.0
 20
285.0
 30
0.0
 40
300.0
 50
262.18040400000001
 51
270.0
  0
ARC
  5
715
  8
DETAIL
  6
CONTINUOUS
 62
     5
 10
-137.0
 20
-6.266200999999997
 30
0.0
 40
6.0
 50
180.0
 51
262.18040400000001
  0
LINE
  5
716
  8
DETAIL
  6
CONTINUOUS
 62
     5
 10
-143.0
 20
0.0
 30
0.0
 11
-143.0
 21
-6.266200999999997
 31
0.0
  0
LINE
  5
717
  8
DETAIL
  6
CONTINUOUS
 62
     5
 10
-95.5
 20
-15.0
 30
0.0
 11
-95.5
 21
0.0
 31
0.0
  0
LINE
  5
718
  8
DETAIL
  6
CONTINUOUS
 62
     5
 10
-97.0
 20
-15.0
 30
0.0
 11
-97.0
 21
0.0
 31
0.0
  0
LINE
  5
719
  8
DETAIL
  6
CONTINUOUS
 62
     5
 10
-97.0
 20
-14.0
 30
0.0
 11
-95.5
 21
-14.0
 31
0.0
  0
LINE
  5
71A
  8
DETAIL
  6
CONTINUOUS
 62
     5
 10
-97.0
 20
-15.0
 30
0.0
 11
-100.3350219999999
 21
-15.0
 31
0.0
  0
ARC
  5
71B
  8
DETAIL
  6
CONTINUOUS
 62
     5
 10
97.0
 20
285.0
 30
0.0
 40
300.0
 50
270.0
 51
277.81959599999999
  0
LINE
  5
71C
  8
DETAIL
  6
CONTINUOUS
 62
     5
 10
97.0
 20
-15.0
 30
0.0
 11
100.3350219999999
 21
-15.0
 31
0.0
  0
LINE
  5
71D
  8
DETAIL
  6
CONTINUOUS
 62
     5
 10
97.0
 20
-14.0
 30
0.0
 11
95.5
 21
-14.0
 31
0.0
  0
LINE
  5
71E
  8
DETAIL
  6
CONTINUOUS
 62
     5
 10
97.0
 20
-15.0
 30
0.0
 11
97.0
 21
0.0
 31
0.0
  0
LINE
  5
71F
  8
DETAIL
  6
CONTINUOUS
 62
     5
 10
95.5
 20
-15.0
 30
0.0
 11
95.5
 21
0.0
 31
0.0
  0
LINE
  5
720
  8
DETAIL
  6
CONTINUOUS
 62
     5
 10
143.0
 20
0.0
 30
0.0
 11
143.0
 21
-6.266200999999997
 31
0.0
  0
ARC
  5
721
  8
DETAIL
  6
CONTINUOUS
 62
     5
 10
137.0
 20
-6.266200999999997
 30
0.0
 40
6.0
 50
277.81959599999999
 51
0.0
  0
LINE
  5
722
  8
DETAIL
  6
CONTINUOUS
 62
     5
 39
50.0
 10
20.0
 20
122.0
 30
0.0
 11
-20.0
 21
122.0
 31
0.0
  0
LINE
  5
723
  8
DETAIL
  6
CONTINUOUS
 62
     5
 39
50.0
 10
-20.0
 20
122.0
 30
0.0
 11
-20.0
 21
114.0593999999999
 31
0.0
  0
LINE
  5
724
  8
DETAIL
  6
CONTINUOUS
 62
     5
 39
50.0
 10
20.0
 20
122.0
 30
0.0
 11
20.0
 21
114.0593999999999
 31
0.0
  0
LINE
  5
725
  8
DETAIL
  6
CONTINUOUS
 62
     5
 39
50.0
 10
-20.0
 20
114.0593999999999
 30
0.0
 11
-20.0
 21
0.0
 31
0.0
  0
LINE
  5
726
  8
DETAIL
  6
CONTINUOUS
 62
     5
 39
50.0
 10
20.0
 20
114.0593999999999
 30
0.0
 11
20.0
 21
0.0
 31
0.0
  0
LINE
  5
727
  8
DETAIL
  6
CONTINUOUS
 62
     5
 39
50.0
 10
-20.0
 20
133.9908979999999
 30
0.0
 11
-20.0
 21
122.0
 31
0.0
  0
LINE
  5
728
  8
DETAIL
  6
CONTINUOUS
 62
     5
 39
50.0
 10
20.0
 20
133.9908979999999
 30
0.0
 11
20.0
 21
122.0
 31
0.0
  0
TEXT
  5
729
  8
NOTE
  6
CONTINUOUS
 62
     4
 10
141.8282879999999
 20
168.207967
 30
0.0
 40
64.0
  1
EA
 41
0.9
  0
LINE
  5
72A
  8
DETAIL
  6
CONTINUOUS
 62
     5
 10
-20.0
 20
131.0
 30
0.0
 11
-92.308695
 21
131.0
 31
0.0
  0
LINE
  5
72B
  8
NOTE
  6
CONTINUOUS
 62
     4
 10
0.0
 20
102.0
 30
0.0
 11
0.0
 21
142.0
 31
0.0
  0
LINE
  5
72C
  8
NOTE
  6
CONTINUOUS
 62
     4
 10
20.0
 20
122.0
 30
0.0
 11
-20.0
 21
122.0
 31
0.0
  0
CIRCLE
  5
72D
  8
FIX
  6
CONTINUOUS
 62
    11
 39
50.0
 10
0.0
 20
122.0
 30
0.0
 40
7.5
  0
CIRCLE
  5
72E
  8
FIX
  6
CONTINUOUS
 62
    11
 39
50.0
 10
-75.0
 20
0.0
 30
0.0
 40
2.5
  0
CIRCLE
  5
72F
  8
FIX
  6
CONTINUOUS
 62
    11
 39
50.0
 10
75.0
 20
0.0
 30
0.0
 40
2.5
  0
CIRCLE
  5
730
  8
FIX
  6
CONTINUOUS
 62
    11
 39
50.0
 10
106.0
 20
0.0
 30
0.0
 40
2.5
  0
CIRCLE
  5
731
  8
FIX
  6
CONTINUOUS
 62
    11
 39
50.0
 10
-106.0
 20
0.0
 30
0.0
 40
2.5
  0
LINE
  5
732
  8
NOTE
  6
CONTINUOUS
 62
     4
 10
-106.0
 20
-20.0
 30
0.0
 11
-106.0
 21
20.0
 31
0.0
  0
LINE
  5
733
  8
NOTE
  6
CONTINUOUS
 62
     4
 10
-126.0
 20
0.0
 30
0.0
 11
-86.0
 21
0.0
 31
0.0
  0
LINE
  5
734
  8
NOTE
  6
CONTINUOUS
 62
     4
 10
-75.0
 20
-20.0
 30
0.0
 11
-75.0
 21
20.0
 31
0.0
  0
LINE
  5
735
  8
NOTE
  6
CONTINUOUS
 62
     4
 10
-95.0
 20
0.0
 30
0.0
 11
-55.0
 21
0.0
 31
0.0
  0
LINE
  5
736
  8
NOTE
  6
CONTINUOUS
 62
     4
 10
75.0
 20
-20.0
 30
0.0
 11
75.0
 21
20.0
 31
0.0
  0
LINE
  5
737
  8
NOTE
  6
CONTINUOUS
 62
     4
 10
95.0
 20
0.0
 30
0.0
 11
55.0
 21
0.0
 31
0.0
  0
LINE
  5
738
  8
NOTE
  6
CONTINUOUS
 62
     4
 10
106.0
 20
-20.0
 30
0.0
 11
106.0
 21
20.0
 31
0.0
  0
LINE
  5
739
  8
NOTE
  6
CONTINUOUS
 62
     4
 10
126.0
 20
0.0
 30
0.0
 11
86.0
 21
0.0
 31
0.0
  0
LINE
  5
73A
  8
SIZE
  6
CONTINUOUS
 62
    30
 10
-75.0
 20
-40.0
 30
0.0
 11
-75.0
 21
-231.02037799999991
 31
0.0
  0
LINE
  5
73B
  8
SIZE
  6
CONTINUOUS
 62
    30
 10
75.0
 20
-40.0
 30
0.0
 11
75.0
 21
-231.02037799999991
 31
0.0
  0
LINE
  5
73C
  8
SIZE
  6
CONTINUOUS
 62
    30
 10
-87.0
 20
-211.02037799999991
 30
0.0
 11
-99.0
 21
-211.02037799999991
 31
0.0
  0
LINE
  5
73D
  8
SIZE
  6
CONTINUOUS
 62
    30
 10
87.0
 20
-211.02037799999991
 30
0.0
 11
99.0
 21
-211.02037799999991
 31
0.0
  0
LINE
  5
73E
  8
SIZE
  6
CONTINUOUS
 62
    30
 10
-75.0
 20
-211.02037799999991
 30
0.0
 11
75.0
 21
-211.02037799999991
 31
0.0
  0
CIRCLE
  5
73F
  8
SIZE
  6
CONTINUOUS
 62
    30
 10
-75.0
 20
-211.02037799999991
 30
0.0
 40
6.0
  0
LINE
  5
740
  8
SIZE
  6
CONTINUOUS
 62
    30
 10
-75.0
 20
-211.02037799999991
 30
0.0
 11
-87.0
 21
-211.02037799999991
 31
0.0
  0
CIRCLE
  5
741
  8
SIZE
  6
CONTINUOUS
 62
    30
 10
75.0
 20
-211.02037799999991
 30
0.0
 40
6.0
  0
LINE
  5
742
  8
SIZE
  6
CONTINUOUS
 62
    30
 10
75.0
 20
-211.02037799999991
 30
0.0
 11
87.0
 21
-211.02037799999991
 31
0.0
  0
TEXT
  5
743
  8
SIZE
  6
CONTINUOUS
 62
    30
 10
-68.571428571428569
 20
-186.02037799999991
 30
0.0
 40
64.0
  1
150
 41
0.9
 72
     1
 11
0.0
 21
-186.02037799999991
 31
0.0
  0
LINE
  5
745
  8
SIZE
  6
CONTINUOUS
 62
    30
 10
-106.0
 20
-40.0
 30
0.0
 11
-106.0
 21
-361.49605899999989
 31
0.0
  0
LINE
  5
746
  8
SIZE
  6
CONTINUOUS
 62
    30
 10
106.0
 20
-40.0
 30
0.0
 11
106.0
 21
-361.49605899999989
 31
0.0
  0
LINE
  5
747
  8
SIZE
  6
CONTINUOUS
 62
    30
 10
-94.0
 20
-341.496059
 30
0.0
 11
94.0
 21
-341.496059
 31
0.0
  0
CIRCLE
  5
748
  8
SIZE
  6
CONTINUOUS
 62
    30
 10
-106.0
 20
-341.496059
 30
0.0
 40
6.0
  0
LINE
  5
749
  8
SIZE
  6
CONTINUOUS
 62
    30
 10
-106.0
 20
-341.496059
 30
0.0
 11
-94.0
 21
-341.496059
 31
0.0
  0
CIRCLE
  5
74A
  8
SIZE
  6
CONTINUOUS
 62
    30
 10
106.0
 20
-341.496059
 30
0.0
 40
6.0
  0
LINE
  5
74B
  8
SIZE
  6
CONTINUOUS
 62
    30
 10
106.0
 20
-341.496059
 30
0.0
 11
94.0
 21
-341.496059
 31
0.0
  0
TEXT
  5
74C
  8
SIZE
  6
CONTINUOUS
 62
    30
 10
-68.571428571428569
 20
-316.496059
 30
0.0
 40
64.0
  1
212
 41
0.9
 72
     1
 11
0.0
 21
-316.496059
 31
0.0
  0
CIRCLE
  5
74E
  8
ARRANGE
  6
CONTINUOUS
 62
     1
 39
50.0
 10
0.0
 20
0.0
 30
0.0
 40
40.0
  0
POINT
  5
74F
  8
ARRANGE
  6
CONTINUOUS
 62
     1
 10
0.0
 20
0.0
 30
0.0
 39
50.0
  0
LINE
  5
750
  8
SIZE
  6
CONTINUOUS
 62
    30
 10
209.191609
 20
171.0
 30
0.0
 11
209.191609
 21
303.16918299999992
 31
0.0
  0
LINE
  5
751
  8
SIZE
  6
CONTINUOUS
 62
    30
 10
217.1916089999998
 20
133.5454049999997
 30
0.0
 11
217.1916089999998
 21
303.16918299999992
 31
0.0
  0
LINE
  5
752
  8
SIZE
  6
CONTINUOUS
 62
    30
 10
197.191609
 20
283.16918299999998
 30
0.0
 11
185.1916089999996
 21
283.16918299999998
 31
0.0
  0
LINE
  5
753
  8
SIZE
  6
CONTINUOUS
 62
    30
 10
229.19160899999989
 20
283.16918299999998
 30
0.0
 11
241.1916089999996
 21
283.16918299999998
 31
0.0
  0
LINE
  5
754
  8
SIZE
  6
CONTINUOUS
 62
    30
 10
331.925004
 20
283.16918299999998
 30
0.0
 11
217.1916089999998
 21
283.16918299999998
 31
0.0
  0
TEXT
  5
755
  8
SIZE
  6
CONTINUOUS
 62
    30
 10
268.52500400000002
 20
308.16918299999998
 30
0.0
 40
64.0
  1
8
 41
0.9
 72
     1
 11
287.72500400000001
 21
308.16918299999998
 31
0.0
  0
LINE
  5
756
  8
SIZE
  6
CONTINUOUS
 62
    30
 10
209.191609
 20
283.16918299999998
 30
0.0
 11
217.1916089999998
 21
283.16918299999998
 31
0.0
  0
LINE
  5
757
  8
SIZE
  6
CONTINUOUS
 62
    30
 10
209.191609
 20
283.16918299999998
 30
0.0
 11
217.1916089999998
 21
283.16918299999998
 31
0.0
  0
CIRCLE
  5
758
  8
SIZE
  6
CONTINUOUS
 62
    30
 10
209.191609
 20
283.16918299999998
 30
0.0
 40
6.0
  0
LINE
  5
759
  8
SIZE
  6
CONTINUOUS
 62
    30
 10
209.191609
 20
283.16918299999998
 30
0.0
 11
197.191609
 21
283.16918299999998
 31
0.0
  0
CIRCLE
  5
75A
  8
SIZE
  6
CONTINUOUS
 62
    30
 10
217.1916089999998
 20
283.16918299999998
 30
0.0
 40
6.0
  0
LINE
  5
75B
  8
SIZE
  6
CONTINUOUS
 62
    30
 10
217.1916089999998
 20
283.16918299999998
 30
0.0
 11
229.19160899999989
 21
283.16918299999998
 31
0.0
  0
LINE
  5
75D
  8
SIZE
  6
CONTINUOUS
 62
    30
 10
163.0
 20
0.0
 30
0.0
 11
544.98579199999995
 21
0.0
 31
0.0
  0
LINE
  5
75E
  8
SIZE
  6
CONTINUOUS
 62
    30
 10
259.31825600000002
 20
102.0
 30
0.0
 11
544.98579199999995
 21
102.0
 31
0.0
  0
LINE
  5
75F
  8
SIZE
  6
CONTINUOUS
 62
    30
 10
524.98579199999995
 20
12.0
 30
0.0
 11
524.98579199999995
 21
90.0
 31
0.0
  0
LINE
  5
760
  8
SIZE
  6
CONTINUOUS
 62
    30
 10
524.98579199999995
 20
-210.5008149999999
 30
0.0
 11
524.98579199999995
 21
0.0
 31
0.0
  0
TEXT
  5
761
  8
SIZE
  6
CONTINUOUS
 62
    30
 10
499.985792
 20
-185.50081457142849
 30
0.0
 40
64.0
  1
102
 50
90.0
 41
0.9
 72
     1
 11
499.985792
 21
-116.92938599999999
 31
0.0
  0
CIRCLE
  5
762
  8
SIZE
  6
CONTINUOUS
 62
    30
 10
524.98579199999995
 20
0.0
 30
0.0
 40
6.0
  0
LINE
  5
763
  8
SIZE
  6
CONTINUOUS
 62
    30
 10
524.98579199999995
 20
0.0
 30
0.0
 11
524.98579199999995
 21
12.0
 31
0.0
  0
CIRCLE
  5
764
  8
SIZE
  6
CONTINUOUS
 62
    30
 10
524.98579199999995
 20
102.0
 30
0.0
 40
6.0
  0
LINE
  5
765
  8
SIZE
  6
CONTINUOUS
 62
    30
 10
524.98579199999995
 20
102.0
 30
0.0
 11
524.98579199999995
 21
90.0
 31
0.0
  0
LINE
  5
767
  8
SIZE
  6
CONTINUOUS
 62
    30
 10
163.0
 20
0.0
 30
0.0
 11
430.86202500000002
 21
0.0
 31
0.0
  0
LINE
  5
768
  8
SIZE
  6
CONTINUOUS
 62
    30
 10
118.519378
 20
45.0
 30
0.0
 11
430.86202500000002
 21
45.0
 31
0.0
  0
LINE
  5
769
  8
SIZE
  6
CONTINUOUS
 62
    30
 10
410.86202500000002
 20
-12.0
 30
0.0
 11
410.86202500000002
 21
-24.0
 31
0.0
  0
LINE
  5
76A
  8
SIZE
  6
CONTINUOUS
 62
    30
 10
410.86202500000002
 20
57.0
 30
0.0
 11
410.86202500000002
 21
69.0
 31
0.0
  0
LINE
  5
76B
  8
SIZE
  6
CONTINUOUS
 62
    30
 10
410.86202500000002
 20
-178.0410039999999
 30
0.0
 11
410.86202500000002
 21
0.0
 31
0.0
  0
TEXT
  5
76C
  8
SIZE
  6
CONTINUOUS
 62
    30
 10
385.86202500000002
 20
-153.0410034285714
 30
0.0
 40
64.0
  1
45
 50
90.0
 41
0.9
 72
     1
 11
385.86202500000002
 21
-106.412432
 31
0.0
  0
LINE
  5
76D
  8
SIZE
  6
CONTINUOUS
 62
    30
 10
410.86202500000002
 20
0.0
 30
0.0
 11
410.86202500000002
 21
45.0
 31
0.0
  0
LINE
  5
76E
  8
SIZE
  6
CONTINUOUS
 62
    30
 10
410.86202500000002
 20
0.0
 30
0.0
 11
410.86202500000002
 21
45.0
 31
0.0
  0
CIRCLE
  5
76F
  8
SIZE
  6
CONTINUOUS
 62
    30
 10
410.86202500000002
 20
0.0
 30
0.0
 40
6.0
  0
LINE
  5
770
  8
SIZE
  6
CONTINUOUS
 62
    30
 10
410.86202500000002
 20
0.0
 30
0.0
 11
410.86202500000002
 21
-12.0
 31
0.0
  0
CIRCLE
  5
771
  8
SIZE
  6
CONTINUOUS
 62
    30
 10
410.86202500000002
 20
45.0
 30
0.0
 40
6.0
  0
LINE
  5
772
  8
SIZE
  6
CONTINUOUS
 62
    30
 10
410.86202500000002
 20
45.0
 30
0.0
 11
410.86202500000002
 21
57.0
 31
0.0
  0
LINE
  5
774
  8
SIZE
  6
CONTINUOUS
 62
    30
 10
229.19160899999989
 20
53.0
 30
0.0
 11
657.73370699999975
 21
53.0
 31
0.0
  0
LINE
  5
775
  8
SIZE
  6
CONTINUOUS
 62
    30
 10
229.19160899999989
 20
151.0
 30
0.0
 11
657.73370699999975
 21
151.0
 31
0.0
  0
LINE
  5
776
  8
SIZE
  6
CONTINUOUS
 62
    30
 10
637.73370699999998
 20
65.0
 30
0.0
 11
637.73370699999998
 21
139.0
 31
0.0
  0
LINE
  5
777
  8
SIZE
  6
CONTINUOUS
 62
    30
 10
637.73370699999998
 20
373.23684700000001
 30
0.0
 11
637.73370699999998
 21
151.0
 31
0.0
  0
TEXT
  5
778
  8
SIZE
  6
CONTINUOUS
 62
    30
 10
612.73370699999998
 20
188.60256057142851
 30
0.0
 40
64.0
  1
âË98
 50
90.0
 41
0.9
 72
     1
 11
612.73370699999998
 21
275.551132
 31
0.0
  0
CIRCLE
  5
779
  8
SIZE
  6
CONTINUOUS
 62
    30
 10
637.73370699999998
 20
53.0
 30
0.0
 40
6.0
  0
LINE
  5
77A
  8
SIZE
  6
CONTINUOUS
 62
    30
 10
637.73370699999998
 20
53.0
 30
0.0
 11
637.73370699999998
 21
65.0
 31
0.0
  0
CIRCLE
  5
77B
  8
SIZE
  6
CONTINUOUS
 62
    30
 10
637.73370699999998
 20
151.0
 30
0.0
 40
6.0
  0
LINE
  5
77C
  8
SIZE
  6
CONTINUOUS
 62
    30
 10
637.73370699999998
 20
151.0
 30
0.0
 11
637.73370699999998
 21
139.0
 31
0.0
  0
LINE
  5
77E
  8
SIZE
  6
CONTINUOUS
 62
    30
 10
196.11888999999991
 20
154.4999999999998
 30
0.0
 11
771.84938799999975
 21
154.4999999999998
 31
0.0
  0
LINE
  5
77F
  8
SIZE
  6
CONTINUOUS
 62
    30
 10
196.11888999999991
 20
49.5
 30
0.0
 11
771.84938799999975
 21
49.5
 31
0.0
  0
LINE
  5
780
  8
SIZE
  6
CONTINUOUS
 62
    30
 10
751.84938799999998
 20
142.5
 30
0.0
 11
751.84938799999998
 21
61.5
 31
0.0
  0
LINE
  5
781
  8
SIZE
  6
CONTINUOUS
 62
    30
 10
751.84938799999998
 20
413.92415699999998
 30
0.0
 11
751.84938799999998
 21
154.4999999999998
 31
0.0
  0
TEXT
  5
782
  8
SIZE
  6
CONTINUOUS
 62
    30
 10
726.84938799999998
 20
185.40415642857141
 30
0.0
 40
64.0
  1
âË105
 50
90.0
 41
0.9
 72
     1
 11
726.84938799999998
 21
294.29558500000002
 31
0.0
  0
CIRCLE
  5
783
  8
SIZE
  6
CONTINUOUS
 62
    30
 10
751.84938799999998
 20
154.4999999999998
 30
0.0
 40
6.0
  0
LINE
  5
784
  8
SIZE
  6
CONTINUOUS
 62
    30
 10
751.84938799999998
 20
154.4999999999998
 30
0.0
 11
751.84938799999998
 21
142.5
 31
0.0
  0
CIRCLE
  5
785
  8
SIZE
  6
CONTINUOUS
 62
    30
 10
751.84938799999998
 20
49.5
 30
0.0
 40
6.0
  0
LINE
  5
786
  8
SIZE
  6
CONTINUOUS
 62
    30
 10
751.84938799999998
 20
49.5
 30
0.0
 11
751.84938799999998
 21
61.5
 31
0.0
  0
LINE
  5
788
  8
SIZE
  6
CONTINUOUS
 62
    30
 10
-163.0
 20
0.0
 30
0.0
 11
-274.969266
 21
0.0
 31
0.0
  0
LINE
  5
789
  8
SIZE
  6
CONTINUOUS
 62
    30
 10
-40.0
 20
122.0
 30
0.0
 11
-274.969266
 21
122.0
 31
0.0
  0
LINE
  5
78A
  8
SIZE
  6
CONTINUOUS
 62
    30
 10
-254.969266
 20
12.0
 30
0.0
 11
-254.969266
 21
110.0
 31
0.0
  0
LINE
  5
78B
  8
SIZE
  6
CONTINUOUS
 62
    30
 10
-254.969266
 20
-206.536731
 30
0.0
 11
-254.969266
 21
0.0
 31
0.0
  0
TEXT
  5
78C
  8
SIZE
  6
CONTINUOUS
 62
    30
 10
-279.969266
 20
-181.53673057142831
 30
0.0
 40
64.0
  1
122
 50
90.0
 41
0.9
 72
     1
 11
-279.969266
 21
-112.9653019999997
 31
0.0
  0
CIRCLE
  5
78D
  8
SIZE
  6
CONTINUOUS
 62
    30
 10
-254.969266
 20
0.0
 30
0.0
 40
6.0
  0
LINE
  5
78E
  8
SIZE
  6
CONTINUOUS
 62
    30
 10
-254.969266
 20
0.0
 30
0.0
 11
-254.969266
 21
12.0
 31
0.0
  0
CIRCLE
  5
78F
  8
SIZE
  6
CONTINUOUS
 62
    30
 10
-254.969266
 20
122.0
 30
0.0
 40
6.0
  0
LINE
  5
790
  8
SIZE
  6
CONTINUOUS
 62
    30
 10
-254.969266
 20
122.0
 30
0.0
 11
-254.969266
 21
110.0
 31
0.0
  0
TEXT
  5
792
  8
NOTE
  6
CONTINUOUS
 62
     4
 10
376.58718299999998
 20
-296.12360200000001
 30
0.0
 40
64.0
  1
8-âË5ü~11
 41
0.9
  0
LINE
  5
793
  8
NOTE
  6
CONTINUOUS
 62
     4
 10
757.37794299999985
 20
-321.02621499999992
 30
0.0
 11
375.25585699999999
 21
-321.02621499999992
 31
0.0
  0
LINE
  5
794
  8
NOTE
  6
CONTINUOUS
 62
     4
 10
-147.3678449999999
 20
251.14051799999999
 30
0.0
 11
-393.10789799999992
 21
251.14051799999999
 31
0.0
  0
TEXT
  5
795
  8
NOTE
  6
CONTINUOUS
 62
     4
 10
-384.90036700000002
 20
276.3693379999998
 30
0.0
 40
64.0
  1
2-AH
 41
0.9
  0
LINE
  5
796
  8
NOTE
  6
CONTINUOUS
 62
     4
 39
50.0
 10
0.0
 20
122.0
 30
0.0
 11
-147.3678449999999
 21
251.14051799999999
 31
0.0
  0
LINE
  5
797
  8
NOTE
  6
CONTINUOUS
 62
     4
 10
-35.831091000000001
 20
139.78012699999991
 30
0.0
 11
0.0
 21
122.0
 31
0.0
  0
LINE
  5
798
  8
NOTE
  6
CONTINUOUS
 62
     4
 10
0.0
 20
122.0
 30
0.0
 11
-22.140571999999999
 21
155.31358700000001
 31
0.0
  0
LINE
  5
799
  8
NOTE
  6
CONTINUOUS
 62
     4
 39
50.0
 10
375.25585699999999
 20
-321.02621499999992
 30
0.0
 11
106.0
 21
0.0
 31
0.0
  0
LINE
  5
79A
  8
NOTE
  6
CONTINUOUS
 62
     4
 10
138.85356299999961
 20
-22.817610999999999
 30
0.0
 11
106.0
 21
0.0
 31
0.0
  0
LINE
  5
79B
  8
NOTE
  6
CONTINUOUS
 62
     4
 10
106.0
 20
0.0
 30
0.0
 11
123.04321400000001
 21
-36.187412999999992
 31
0.0
  0
LINE
  5
79C
  8
OUTLINE
  6
CONTINUOUS
 62
     3
 10
-97.978268999999997
 20
58.534905000000002
 30
0.0
 11
-99.0
 21
0.0
 31
0.0
  0
LINE
  5
79D
  8
OUTLINE
  6
CONTINUOUS
 62
     3
 10
79.724768000000026
 20
169.03490500000001
 30
0.0
 11
84.000990000000002
 21
0.0
 31
0.0
  0
LINE
  5
79E
  8
OUTLINE
  6
CONTINUOUS
 62
     3
 10
143.0
 20
0.0
 30
0.0
 11
-143.0
 21
0.0
 31
0.0
  0
LINE
  5
79F
  8
OUTLINE
  6
CONTINUOUS
 62
     3
 10
72.015523999999999
 20
162.0
 30
0.0
 11
-45.337169000000003
 21
162.0
 31
0.0
  0
LINE
  5
7A0
  8
OUTLINE
  6
CONTINUOUS
 62
     3
 10
-45.337169000000003
 20
162.0
 30
0.0
 11
-50.496777000000002
 21
194.3687289999998
 31
0.0
  0
LINE
  5
7A1
  8
OUTLINE
  6
CONTINUOUS
 62
     3
 10
-53.320574999999998
 20
194.52275299999999
 30
0.0
 11
-78.991348999999985
 21
131.0
 31
0.0
  0
LINE
  5
7A2
  8
OUTLINE
  6
CONTINUOUS
 62
     3
 10
-78.991348999999985
 20
131.0
 30
0.0
 11
-92.308695
 21
131.0
 31
0.0
  0
LINE
  5
7A3
  8
OUTLINE
  6
CONTINUOUS
 62
     3
 10
-94.308391
 20
129.03490500000001
 30
0.0
 11
-95.504671999999985
 21
60.5
 31
0.0
  0
ARC
  5
7A4
  8
OUTLINE
  6
CONTINUOUS
 62
     3
 10
-95.978573999999995
 20
58.5
 30
0.0
 40
2.0
 50
90.0
 51
179.0
  0
ARC
  5
7A5
  8
OUTLINE
  6
CONTINUOUS
 62
     3
 10
-92.308695
 20
129.0
 30
0.0
 40
2.0
 50
90.0
 51
179.0
  0
LINE
  5
7A6
  8
OUTLINE
  6
CONTINUOUS
 62
     3
 10
-51.236643000000001
 20
195.0
 30
0.0
 11
-52.612966
 21
195.0
 31
0.0
  0
ARC
  5
7A7
  8
OUTLINE
  6
CONTINUOUS
 62
     3
 10
-52.612966
 20
194.236794
 30
0.0
 40
0.7632060000000001
 50
90.0
 51
157.9954129999999
  0
ARC
  5
7A8
  8
OUTLINE
  6
CONTINUOUS
 62
     3
 10
-51.236643000000001
 20
194.2507939999999
 30
0.0
 40
0.7492060000000002
 50
9.0568119999999972
 51
90.0
  0
LINE
  5
7A9
  8
OUTLINE
  6
CONTINUOUS
 62
     3
 10
73.358428000000004
 20
171.0
 30
0.0
 11
72.015523999999999
 21
162.0
 31
0.0
  0
ARC
  5
7AA
  8
OUTLINE
  6
CONTINUOUS
 62
     3
 10
77.725071999999983
 20
169.0
 30
0.0
 40
2.0
 50
1.0
 51
90.0
  0
LINE
  5
7AB
  8
OUTLINE
  6
CONTINUOUS
 62
     3
 10
73.358428000000004
 20
171.0
 30
0.0
 11
77.725071999999983
 21
171.0
 31
0.0
  0
TEXT
  5
7BC
  8
ETC
  6
CONTINUOUS
 62
    61
 10
912.96965662247533
 20
386.85610135860992
 30
0.0
 40
50.0
  1
VD-13ZLC7-S
 41
0.9
  0
TEXT
  5
7BD
  8
ETC
  6
CONTINUOUS
 62
    61
 10
904.67527263063459
 20
474.3846476353711
 30
0.0
 40
50.0
  1
VD-13ZC7-BL
 41
0.9
  0
TEXT
  5
7BE
  8
ETC
  6
CONTINUOUS
 62
    61
 10
904.67526383407267
 20
555.0796157496145
 30
0.0
 40
50.0
  1
VD-13ZC7
 41
0.9
  0
TEXT
  5
7BF
  8
ETC
  6
CONTINUOUS
 62
    61
 10
797.32758426950807
 20
639.84283288289794
 30
0.0
 40
64.0
  1
èÀïCÉ¯
 41
0.9
  0
TEXT
  5
7C0
  8
ETC
  6
CONTINUOUS
 62
    61
 10
791.7045162695083
 20
737.18936388289808
 30
0.0
 40
64.0
  1
VD-13ZC7_5
 41
0.9
  0
ENDSEC
  0
EOF
