  0
SECTION
  2
HEADER
  9
$ACADVER
  1
AC1009
  9
$DWGCODEPAGE
  3
dos932
  9
$INSBASE
 10
0.0
 20
0.0
 30
0.0
  9
$EXTMIN
 10
-732.80180241307608
 20
-425.53709764678212
 30
-0.0015258207003583
  9
$EXTMAX
 10
1462.8845335599999
 20
766.47950041396507
 30
0.0000000349246037
  9
$LIMMIN
 10
-2970.0
 20
-2100.0
  9
$LIMMAX
 10
2970.0
 20
2100.0
  9
$ORTHOMODE
 70
     1
  9
$REGENMODE
 70
     1
  9
$FILLMODE
 70
     1
  9
$QTEXTMODE
 70
     0
  9
$MIRRTEXT
 70
     0
  9
$LTSCALE
 40
20.0
  9
$ATTMODE
 70
     1
  9
$TEXTSIZE
 40
64.0
  9
$TRACEWID
 40
0.05
  9
$TEXTSTYLE
  7
STANDARD
  9
$CLAYER
  8
SIZE
  9
$CELTYPE
  6
CONTINUOUS
  9
$CECOLOR
 62
     7
  9
$DIMSCALE
 40
1.0
  9
$DIMASZ
 40
12.0
  9
$DIMEXO
 40
20.0
  9
$DIMDLI
 40
200.0
  9
$DIMRND
 40
0.0
  9
$DIMDLE
 40
0.0
  9
$DIMEXE
 40
20.0
  9
$DIMTP
 40
0.0
  9
$DIMTM
 40
0.0
  9
$DIMTXT
 40
64.0
  9
$DIMCEN
 40
0.09
  9
$DIMTSZ
 40
0.0
  9
$DIMTOL
 70
     0
  9
$DIMLIM
 70
     0
  9
$DIMTIH
 70
     0
  9
$DIMTOH
 70
     0
  9
$DIMSE1
 70
     0
  9
$DIMSE2
 70
     0
  9
$DIMTAD
 70
     1
  9
$DIMZIN
 70
     8
  9
$DIMBLK
  1

  9
$DIMASO
 70
     1
  9
$DIMSHO
 70
     0
  9
$DIMPOST
  1

  9
$DIMAPOST
  1

  9
$DIMALT
 70
     0
  9
$DIMALTD
 70
     2
  9
$DIMALTF
 40
25.399999999999999
  9
$DIMLFAC
 40
1.0
  9
$DIMTOFL
 70
     1
  9
$DIMTVP
 40
0.0
  9
$DIMTIX
 70
     1
  9
$DIMSOXD
 70
     0
  9
$DIMSAH
 70
     0
  9
$DIMBLK1
  1

  9
$DIMBLK2
  1

  9
$DIMSTYLE
  2
STANDARD
  9
$DIMCLRD
 70
     7
  9
$DIMCLRE
 70
     7
  9
$DIMCLRT
 70
     7
  9
$DIMTFAC
 40
1.0
  9
$DIMGAP
 40
25.0
  9
$LUNITS
 70
     2
  9
$LUPREC
 70
     4
  9
$SKETCHINC
 40
0.1
  9
$FILLETRAD
 40
3.0
  9
$AUNITS
 70
     1
  9
$AUPREC
 70
     3
  9
$MENU
  1
ACAD
  9
$ELEVATION
 40
0.0
  9
$PELEVATION
 40
0.0
  9
$THICKNESS
 40
0.0
  9
$LIMCHECK
 70
     0
  9
$CHAMFERA
 40
0.0
  9
$CHAMFERB
 40
0.0
  9
$SKPOLY
 70
     0
  9
$TDCREATE
 40
2453019.62301037
  9
$TDUPDATE
 40
2459025.494084514
  9
$TDINDWG
 40
1.7137196875
  9
$TDUSRTIMER
 40
1.7137196875
  9
$USRTIMER
 70
     1
  9
$ANGBASE
 50
0.0
  9
$ANGDIR
 70
     0
  9
$PDMODE
 70
     3
  9
$PDSIZE
 40
-2.0
  9
$PLINEWID
 40
0.0
  9
$SPLFRAME
 70
     0
  9
$SPLINETYPE
 70
     6
  9
$SPLINESEGS
 70
     8
  9
$SURFTAB1
 70
     6
  9
$SURFTAB2
 70
     6
  9
$SURFTYPE
 70
     6
  9
$SURFU
 70
     6
  9
$SURFV
 70
     6
  9
$UCSNAME
  2

  9
$UCSORG
 10
0.0
 20
0.0
 30
0.0
  9
$UCSXDIR
 10
1.0
 20
0.0
 30
0.0
  9
$UCSYDIR
 10
0.0
 20
1.0
 30
0.0
  9
$PUCSNAME
  2

  9
$PUCSORG
 10
0.0
 20
0.0
 30
0.0
  9
$PUCSXDIR
 10
1.0
 20
0.0
 30
0.0
  9
$PUCSYDIR
 10
0.0
 20
1.0
 30
0.0
  9
$USERI1
 70
     0
  9
$USERI2
 70
     0
  9
$USERI3
 70
     0
  9
$USERI4
 70
     0
  9
$USERI5
 70
     0
  9
$USERR1
 40
20.0
  9
$USERR2
 40
0.0
  9
$USERR3
 40
0.0
  9
$USERR4
 40
0.0
  9
$USERR5
 40
0.0
  9
$WORLDVIEW
 70
     1
  9
$SHADEDGE
 70
     3
  9
$SHADEDIF
 70
    70
  9
$TILEMODE
 70
     1
  9
$MAXACTVP
 70
    48
  9
$PINSBASE
 10
0.0
 20
0.0
 30
0.0
  9
$PLIMCHECK
 70
     0
  9
$PEXTMIN
 10
-100000000000000000000.0
 20
-100000000000000000000.0
 30
-100000000000000000000.0
  9
$PEXTMAX
 10
100000000000000000000.0
 20
100000000000000000000.0
 30
100000000000000000000.0
  9
$PLIMMIN
 10
0.0
 20
0.0
  9
$PLIMMAX
 10
12.0
 20
9.0
  9
$UNITMODE
 70
     0
  9
$VISRETAIN
 70
     0
  9
$PLINEGEN
 70
     0
  9
$PSLTSCALE
 70
     0
  9
$TREEDEPTH
 70
  3020
  9
$ATTDIA
 70
     0
  9
$ATTREQ
 70
     1
  9
$BLIPMODE
 70
     1
  9
$COORDS
 70
     1
  9
$DRAGMODE
 70
     2
  9
$OSMODE
 70
     0
  9
$HANDLING
 70
     0
  9
$HANDSEED
  5
107CA
  0
ENDSEC
  0
SECTION
  2
TABLES
  0
TABLE
  2
LTYPE
 70
     3
  0
LTYPE
  2
CONTINUOUS
 70
     0
  3
実線
 72
    65
 73
     0
 40
0.0
  0
LTYPE
  2
DASHDOT
 70
     0
  3
____ _ ____ _ ____ _ ____ _ ____ _ ____ _ ____
 72
    65
 73
     4
 40
5.5
 49
4.0
 49
-0.6
 49
0.3
 49
-0.6
  0
LTYPE
  2
DASHED
 70
     0
  3
-- -- -- -- -- -- -- -- -- -- -- -- -- -- --
 72
    65
 73
     2
 40
0.75
 49
0.5
 49
-0.25
  0
ENDTAB
  0
TABLE
  2
LAYER
 70
    12
  0
LAYER
  2
0
 70
     0
 62
     7
  6
CONTINUOUS
  0
LAYER
  2
BASIS
 70
     0
 62
     6
  6
DASHDOT
  0
LAYER
  2
OUTLINE
 70
     0
 62
     3
  6
CONTINUOUS
  0
LAYER
  2
DETAIL
 70
     0
 62
     5
  6
CONTINUOUS
  0
LAYER
  2
SIZE
 70
     0
 62
    30
  6
CONTINUOUS
  0
LAYER
  2
ARRANGE
 70
     0
 62
     1
  6
CONTINUOUS
  0
LAYER
  2
DEFPOINTS
 70
     0
 62
     7
  6
CONTINUOUS
  0
LAYER
  2
ETC
 70
     0
 62
    61
  6
CONTINUOUS
  0
LAYER
  2
FIX
 70
     0
 62
    11
  6
CONTINUOUS
  0
LAYER
  2
NOTE
 70
     0
 62
     4
  6
CONTINUOUS
  0
LAYER
  2
SERVICESPACE
 70
    64
 62
     2
  6
DASHDOT
  0
LAYER
  2
SYMBOLLINE
 70
    64
 62
    15
  6
CONTINUOUS
  0
ENDTAB
  0
TABLE
  2
STYLE
 70
     1
  0
STYLE
  2
STANDARD
 70
     0
 40
64.0
 41
0.9
 50
0.0
 71
     0
 42
64.0
  3
SIMPLEX.shx
  4
BIGFONT.shx
  0
ENDTAB
  0
TABLE
  2
APPID
 70
    19
  0
APPID
  2
ACAD
 70
     0
  0
APPID
  2
AUTOCAD_POSTSCRIPT_FIGURE
 70
     0
  0
APPID
  2
ACAD_EXEMPT_FROM_CAD_STANDARDS
 70
     0
  0
APPID
  2
ACAD_PSEXT
 70
     0
  0
APPID
  2
ACAUTHENVIRON
 70
     0
  0
APPID
  2
GENIUS_GENOENT_13
 70
     0
  0
APPID
  2
GENIUS_GENCFG_13
 70
     0
  0
APPID
  2
GENIUS_GENCFG0_13
 70
     0
  0
APPID
  2
GENIUS_GENCFG1_13
 70
     0
  0
APPID
  2
GENIUS_GENCFG2_13
 70
     0
  0
APPID
  2
GENIUS_GENCFG3_13
 70
     0
  0
APPID
  2
GENIUS_GENCFG4_13
 70
     0
  0
APPID
  2
GENIUS_GEVCFG0_13
 70
     0
  0
APPID
  2
CONTENTBLOCKICON
 70
     0
  0
APPID
  2
CONTENTBLOCKDESCRIPTION
 70
     0
  0
APPID
  2
ACAD_NAV_VCDISPLAY
 70
     0
  0
APPID
  2
ACAD_MLEADERVER
 70
     0
  0
APPID
  2
ACDBDYNAMICBLOCKTRUENAME
 70
     0
  0
APPID
  2
ACDBDYNAMICBLOCKGUID
 70
     0
  0
ENDTAB
  0
TABLE
  2
DIMSTYLE
 70
     1
  0
DIMSTYLE
  2
STANDARD
 70
     0
  3

  4

  5
_ORIGIN
  6

  7

 40
1.0
 41
12.0
 42
20.0
 43
200.0
 44
20.0
 45
0.0
 46
0.0
 47
0.0
 48
0.0
140
64.0
141
0.09
142
0.0
143
25.399999999999999
144
1.0
145
0.0
146
1.0
147
25.0
 71
     0
 72
     0
 73
     0
 74
     0
 75
     0
 76
     0
 77
     1
 78
     8
170
     0
171
     2
172
     1
173
     0
174
     1
175
     0
176
     7
177
     7
178
     7
  0
ENDTAB
  0
TABLE
  2
VIEW
 70
     1
  0
VIEW
  2
ALL
 70
     0
 40
4282.6198079999986
 10
0.0
 20
41.309904000000003
 41
5940.0
 11
0.0
 21
0.0
 31
1.0
 12
0.0
 22
0.0
 32
0.0
 42
50.0
 43
0.0
 44
0.0
 50
0.0
 71
     0
  0
ENDTAB
  0
TABLE
  2
UCS
 70
     0
  0
ENDTAB
  0
TABLE
  2
VPORT
 70
     1
  0
VPORT
  2
*ACTIVE
 70
     0
 10
0.0
 20
0.0
 11
1.0
 21
1.0
 12
365.0413655734618
 22
170.47120138359159
 13
0.0
 23
0.0
 14
1.0
 24
1.0
 15
0.0
 25
0.0
 16
0.0
 26
0.0
 36
1.0
 17
0.0
 27
0.0
 37
0.0
 40
1261.031465519309
 41
1.747787610619469
 42
50.0
 43
0.0
 44
0.0
 50
0.0
 51
0.0
 71
     0
 72
  1000
 73
     1
 74
     3
 75
     0
 76
     0
 77
     0
 78
     0
  0
ENDTAB
  0
ENDSEC
  0
SECTION
  2
BLOCKS
  0
BLOCK
  8
0
  2
_ORIGIN
 70
     0
 10
0.0
 20
0.0
 30
0.0
  3
_ORIGIN
  1
_ORIGIN
  0
CIRCLE
  8
0
  6
CONTINUOUS
 62
     7
 10
0.0
 20
0.0
 30
0.0
 40
0.5
  0
LINE
  8
0
  6
CONTINUOUS
 62
     7
 10
0.0
 20
0.0
 30
0.0
 11
-1.0
 21
0.0
 31
0.0
  0
ENDBLK
  8
0
  0
ENDSEC
  0
SECTION
  2
ENTITIES
  0
TEXT
  8
ETC
  6
CONTINUOUS
 62
    61
 10
721.94058399999994
 20
702.28646200000003
 30
0.0
 40
64.0
  1
VD-13ZCC7-C_5
 41
0.9
  0
TEXT
  8
ETC
  6
CONTINUOUS
 62
    61
 10
825.54448600000001
 20
567.71626200000003
 30
0.0
 40
64.0
  1
換気扇
 41
0.9
  0
TEXT
  8
ETC
  6
CONTINUOUS
 62
    61
 10
876.15198899999996
 20
460.79532599999987
 30
0.0
 40
40.0
  1
VD-13ZCC7-C
 41
0.9
  0
CIRCLE
  8
ARRANGE
  6
CONTINUOUS
 62
     1
 10
0.0
 20
0.0
 30
0.0
 40
40.0
  0
POINT
  8
ARRANGE
  6
CONTINUOUS
 62
     1
 10
0.0
 20
0.0
 30
0.0
  0
LINE
  8
BASIS
  6
DASHDOT
 62
     6
 10
0.0
 20
-37.115789000000007
 30
0.0
 11
0.0
 21
225.95018999999999
 31
0.0
  0
TEXT
  8
NOTE
  6
CONTINUOUS
 62
     4
 10
244.60989900000001
 20
116.832819
 30
0.0
 40
64.0
  1
EA
 41
0.9
  0
LINE
  8
SIZE
  6
CONTINUOUS
 62
    30
 10
-144.97851700000001
 20
-26.928241000000011
 30
0.0
 11
-144.97851700000001
 21
-425.39939299999992
 31
0.0
  0
LINE
  8
SIZE
  6
CONTINUOUS
 62
    30
 10
145.0
 20
-26.489056000000009
 30
0.0
 11
145.0
 21
-425.39939299999992
 31
0.0
  0
LINE
  8
SIZE
  6
CONTINUOUS
 62
    30
 10
-132.97851700000001
 20
-405.39939299999992
 30
0.0
 11
133.0
 21
-405.39939299999992
 31
0.0
  0
CIRCLE
  8
SIZE
  6
CONTINUOUS
 62
    30
 10
-144.97851700000001
 20
-405.39939299999992
 30
0.0
 40
6.0
  0
LINE
  8
SIZE
  6
CONTINUOUS
 62
    30
 10
-144.97851700000001
 20
-405.39939299999992
 30
0.0
 11
-132.97851700000001
 21
-405.39939299999992
 31
0.0
  0
CIRCLE
  8
SIZE
  6
CONTINUOUS
 62
    30
 10
145.0
 20
-405.39939299999992
 30
0.0
 40
6.0
  0
LINE
  8
SIZE
  6
CONTINUOUS
 62
    30
 10
145.0
 20
-405.39939299999992
 30
0.0
 11
133.0
 21
-405.39939299999992
 31
0.0
  0
TEXT
  8
SIZE
  6
CONTINUOUS
 62
    30
 10
-110.5264018571428
 20
-380.39939299999992
 30
0.0
 40
64.0
  1
□290
 41
0.9
 72
     1
 11
0.0107410000000527
 21
-380.39939299999992
 31
0.0
  0
POINT
  8
DEFPOINTS
  6
CONTINUOUS
 62
    30
 10
-144.97851700000001
 20
-6.9282410000000141
 30
0.0
  0
POINT
  8
DEFPOINTS
  6
CONTINUOUS
 62
    30
 10
145.0
 20
-6.489056000000005
 30
0.0
  0
POINT
  8
DEFPOINTS
  6
CONTINUOUS
 62
    30
 10
145.0
 20
-405.39939299999992
 30
0.0
  0
LINE
  8
SIZE
  6
CONTINUOUS
 62
    30
 10
-44.450000000000053
 20
214.0
 30
0.0
 11
-44.450000000000053
 21
367.02187500000002
 31
0.0
  0
LINE
  8
SIZE
  6
CONTINUOUS
 62
    30
 10
18.450000000000049
 20
214.0
 30
0.0
 11
18.450000000000049
 21
367.02187500000002
 31
0.0
  0
LINE
  8
SIZE
  6
CONTINUOUS
 62
    30
 10
-56.450000000000053
 20
347.02187500000002
 30
0.0
 11
-68.450000000000045
 21
347.02187500000002
 31
0.0
  0
LINE
  8
SIZE
  6
CONTINUOUS
 62
    30
 10
30.450000000000049
 20
347.02187500000002
 30
0.0
 11
42.450000000000053
 21
347.02187500000002
 31
0.0
  0
LINE
  8
SIZE
  6
CONTINUOUS
 62
    30
 10
-44.450000000000053
 20
347.02187500000002
 30
0.0
 11
18.450000000000049
 21
347.02187500000002
 31
0.0
  0
CIRCLE
  8
SIZE
  6
CONTINUOUS
 62
    30
 10
-44.450000000000053
 20
347.02187500000002
 30
0.0
 40
6.0
  0
LINE
  8
SIZE
  6
CONTINUOUS
 62
    30
 10
-44.450000000000053
 20
347.02187500000002
 30
0.0
 11
-56.450000000000053
 21
347.02187500000002
 31
0.0
  0
CIRCLE
  8
SIZE
  6
CONTINUOUS
 62
    30
 10
18.450000000000049
 20
347.02187500000002
 30
0.0
 40
6.0
  0
LINE
  8
SIZE
  6
CONTINUOUS
 62
    30
 10
18.450000000000049
 20
347.02187500000002
 30
0.0
 11
30.450000000000049
 21
347.02187500000002
 31
0.0
  0
TEXT
  8
SIZE
  6
CONTINUOUS
 62
    30
 10
-99.948571428571441
 20
372.02187500000002
 30
0.0
 40
64.0
  1
φ63
 41
0.9
 72
     1
 11
-13.0
 21
372.02187500000002
 31
0.0
  0
POINT
  8
DEFPOINTS
  6
CONTINUOUS
 62
    30
 10
-44.450000000000053
 20
194.0
 30
0.0
  0
POINT
  8
DEFPOINTS
  6
CONTINUOUS
 62
    30
 10
18.450000000000049
 20
194.0
 30
0.0
  0
POINT
  8
DEFPOINTS
  6
CONTINUOUS
 62
    30
 10
18.450000000000049
 20
347.02187500000002
 30
0.0
  0
LINE
  8
NOTE
  6
CONTINUOUS
 62
     4
 10
0.0
 20
8.2011190000000056
 30
0.0
 11
0.0
 21
-8.2011190000000056
 31
0.0
  0
LINE
  8
NOTE
  6
CONTINUOUS
 62
     4
 10
132.0
 20
8.2011190000000056
 30
0.0
 11
132.0
 21
-8.2011190000000056
 31
0.0
  0
CIRCLE
  8
FIX
  6
CONTINUOUS
 62
    11
 10
0.0
 20
0.0
 30
0.0
 40
2.5
  0
CIRCLE
  8
FIX
  6
CONTINUOUS
 62
    11
 10
132.0
 20
0.0
 30
0.0
 40
2.5
  0
LINE
  8
NOTE
  6
CONTINUOUS
 62
     4
 10
-132.0
 20
8.2011190000000056
 30
0.0
 11
-132.0
 21
-8.2011190000000056
 31
0.0
  0
CIRCLE
  8
FIX
  6
CONTINUOUS
 62
    11
 10
-132.0
 20
0.0
 30
0.0
 40
2.5
  0
LINE
  8
SIZE
  6
CONTINUOUS
 62
    30
 10
-102.555683
 20
160.03490500000001
 30
0.0
 11
-102.555683
 21
676.97699599999987
 31
0.0
  0
LINE
  8
SIZE
  6
CONTINUOUS
 62
    30
 10
102.3491320000001
 20
200.53490400000001
 30
0.0
 11
102.3491320000001
 21
676.97699599999987
 31
0.0
  0
LINE
  8
SIZE
  6
CONTINUOUS
 62
    30
 10
-90.555683000000045
 20
656.97699599999987
 30
0.0
 11
90.349132000000054
 21
656.97699599999987
 31
0.0
  0
CIRCLE
  8
SIZE
  6
CONTINUOUS
 62
    30
 10
-102.555683
 20
656.97699599999987
 30
0.0
 40
6.0
  0
LINE
  8
SIZE
  6
CONTINUOUS
 62
    30
 10
-102.555683
 20
656.97699599999987
 30
0.0
 11
-90.555683000000045
 21
656.97699599999987
 31
0.0
  0
CIRCLE
  8
SIZE
  6
CONTINUOUS
 62
    30
 10
102.3491320000001
 20
656.97699599999987
 30
0.0
 40
6.0
  0
LINE
  8
SIZE
  6
CONTINUOUS
 62
    30
 10
102.3491320000001
 20
656.97699599999987
 30
0.0
 11
90.349132000000054
 21
656.97699599999987
 31
0.0
  0
TEXT
  8
SIZE
  6
CONTINUOUS
 62
    30
 10
-74.160418857142787
 20
681.97699599999987
 30
0.0
 40
64.0
  1
205
 41
0.9
 72
     1
 11
-0.1032759999999371
 21
681.97699599999987
 31
0.0
  0
POINT
  8
DEFPOINTS
  6
CONTINUOUS
 62
    30
 10
-102.555683
 20
140.03490500000001
 30
0.0
  0
POINT
  8
DEFPOINTS
  6
CONTINUOUS
 62
    30
 10
102.3491320000001
 20
180.53490400000001
 30
0.0
  0
POINT
  8
DEFPOINTS
  6
CONTINUOUS
 62
    30
 10
102.3491320000001
 20
656.97699599999987
 30
0.0
  0
LINE
  8
SIZE
  6
CONTINUOUS
 62
    30
 10
-132.0
 20
-28.201119000000009
 30
0.0
 11
-132.0
 21
-305.39939299999992
 31
0.0
  0
LINE
  8
SIZE
  6
CONTINUOUS
 62
    30
 10
132.0
 20
-28.201119000000009
 30
0.0
 11
132.0
 21
-305.39939299999992
 31
0.0
  0
LINE
  8
SIZE
  6
CONTINUOUS
 62
    30
 10
-120.0
 20
-285.39939299999992
 30
0.0
 11
120.0
 21
-285.39939299999992
 31
0.0
  0
CIRCLE
  8
SIZE
  6
CONTINUOUS
 62
    30
 10
-132.0
 20
-285.39939299999992
 30
0.0
 40
6.0
  0
LINE
  8
SIZE
  6
CONTINUOUS
 62
    30
 10
-132.0
 20
-285.39939299999992
 30
0.0
 11
-120.0
 21
-285.39939299999992
 31
0.0
  0
CIRCLE
  8
SIZE
  6
CONTINUOUS
 62
    30
 10
132.0
 20
-285.39939299999992
 30
0.0
 40
6.0
  0
LINE
  8
SIZE
  6
CONTINUOUS
 62
    30
 10
132.0
 20
-285.39939299999992
 30
0.0
 11
120.0
 21
-285.39939299999992
 31
0.0
  0
TEXT
  8
SIZE
  6
CONTINUOUS
 62
    30
 10
-75.417830428571364
 20
-260.39939299999992
 30
0.0
 40
64.0
  1
264
 41
0.9
 72
     1
 11
0.0107410000000527
 21
-260.39939299999992
 31
0.0
  0
POINT
  8
DEFPOINTS
  6
CONTINUOUS
 62
    30
 10
-132.0
 20
-8.2011190000000056
 30
0.0
  0
POINT
  8
DEFPOINTS
  6
CONTINUOUS
 62
    30
 10
132.0
 20
-8.2011190000000056
 30
0.0
  0
POINT
  8
DEFPOINTS
  6
CONTINUOUS
 62
    30
 10
132.0
 20
-285.39939299999992
 30
0.0
  0
LINE
  8
SIZE
  6
CONTINUOUS
 62
    30
 10
282.75650000000002
 20
110.00026800000001
 30
0.0
 11
457.00553600000012
 21
110.00026800000001
 31
0.0
  0
LINE
  8
SIZE
  6
CONTINUOUS
 62
    30
 10
165.0
 20
0.0
 30
0.0
 11
457.00553600000012
 21
0.0
 31
0.0
  0
LINE
  8
SIZE
  6
CONTINUOUS
 62
    30
 10
437.00553600000012
 20
98.000268000000005
 30
0.0
 11
437.00553600000012
 21
12.0
 31
0.0
  0
LINE
  8
SIZE
  6
CONTINUOUS
 62
    30
 10
437.00553600000012
 20
0.0
 30
0.0
 11
437.00553600000012
 21
-214.995215
 31
0.0
  0
CIRCLE
  8
SIZE
  6
CONTINUOUS
 62
    30
 10
437.00553600000012
 20
110.00026800000001
 30
0.0
 40
6.0
  0
LINE
  8
SIZE
  6
CONTINUOUS
 62
    30
 10
437.00553600000012
 20
110.00026800000001
 30
0.0
 11
437.00553600000012
 21
98.000268000000005
 31
0.0
  0
CIRCLE
  8
SIZE
  6
CONTINUOUS
 62
    30
 10
437.00553600000012
 20
0.0
 30
0.0
 40
6.0
  0
LINE
  8
SIZE
  6
CONTINUOUS
 62
    30
 10
437.00553600000012
 20
0.0
 30
0.0
 11
437.00553600000012
 21
12.0
 31
0.0
  0
TEXT
  8
SIZE
  6
CONTINUOUS
 62
    30
 10
412.00553600000012
 20
-189.99521528571429
 30
0.0
 40
64.0
  1
110
 50
90.0
 41
0.9
 72
     1
 11
412.00553600000012
 21
-126.90950100000001
 31
0.0
  0
POINT
  8
DEFPOINTS
  6
CONTINUOUS
 62
    30
 10
262.75650000000002
 20
110.00026800000001
 30
0.0
  0
POINT
  8
DEFPOINTS
  6
CONTINUOUS
 62
    30
 10
145.0
 20
0.0
 30
0.0
  0
POINT
  8
DEFPOINTS
  6
CONTINUOUS
 62
    30
 10
437.00553600000012
 20
0.0
 30
0.0
  0
TEXT
  8
NOTE
  6
CONTINUOUS
 62
     4
 10
-500.48824400000001
 20
-110.00001899999999
 30
0.0
 40
64.0
  1
4-φ5
 41
0.9
  0
LINE
  8
NOTE
  6
CONTINUOUS
 62
     4
 10
-523.71171300000003
 20
-121.348609
 30
0.0
 11
-239.12270699999999
 21
-121.348609
 31
0.0
  0
LINE
  8
NOTE
  6
CONTINUOUS
 62
     4
 10
-239.12270699999999
 20
-121.348609
 30
0.0
 11
-132.0
 21
0.0
 31
0.0
  0
LINE
  8
NOTE
  6
CONTINUOUS
 62
     4
 10
-132.0
 20
0.0
 30
0.0
 11
-137.02490700000001
 21
-11.355763000000019
 31
0.0
  0
LINE
  8
NOTE
  6
CONTINUOUS
 62
     4
 10
-132.0
 20
0.0
 30
0.0
 11
-142.64470900000001
 21
-6.3947800000000257
 31
0.0
  0
LINE
  8
SIZE
  6
CONTINUOUS
 62
    30
 10
165.0
 20
0.0
 30
0.0
 11
838.662959
 21
0.0
 31
0.0
  0
LINE
  8
SIZE
  6
CONTINUOUS
 62
    30
 10
158.48905199999999
 20
-17.199999999999989
 30
0.0
 11
838.662959
 21
-17.199999999999989
 31
0.0
  0
LINE
  8
SIZE
  6
CONTINUOUS
 62
    30
 10
818.662959
 20
12.0
 30
0.0
 11
818.662959
 21
24.0
 31
0.0
  0
LINE
  8
SIZE
  6
CONTINUOUS
 62
    30
 10
818.662959
 20
-29.199999999999989
 30
0.0
 11
818.662959
 21
-173.485714
 31
0.0
  0
LINE
  8
SIZE
  6
CONTINUOUS
 62
    30
 10
818.662959
 20
0.0
 30
0.0
 11
818.662959
 21
-17.199999999999989
 31
0.0
  0
CIRCLE
  8
SIZE
  6
CONTINUOUS
 62
    30
 10
818.662959
 20
0.0
 30
0.0
 40
6.0
  0
LINE
  8
SIZE
  6
CONTINUOUS
 62
    30
 10
818.662959
 20
0.0
 30
0.0
 11
818.662959
 21
12.0
 31
0.0
  0
CIRCLE
  8
SIZE
  6
CONTINUOUS
 62
    30
 10
818.662959
 20
-17.199999999999989
 30
0.0
 40
6.0
  0
LINE
  8
SIZE
  6
CONTINUOUS
 62
    30
 10
818.662959
 20
-17.199999999999989
 30
0.0
 11
818.662959
 21
-29.199999999999989
 31
0.0
  0
TEXT
  8
SIZE
  6
CONTINUOUS
 62
    30
 10
793.662959
 20
-148.48571414285709
 30
0.0
 40
64.0
  1
17
 50
90.0
 41
0.9
 72
     1
 11
793.662959
 21
-107.342857
 31
0.0
  0
POINT
  8
DEFPOINTS
  6
CONTINUOUS
 62
    30
 10
145.0
 20
0.0
 30
0.0
  0
POINT
  8
DEFPOINTS
  6
CONTINUOUS
 62
    30
 10
138.48905199999999
 20
-17.199999999999989
 30
0.0
  0
POINT
  8
DEFPOINTS
  6
CONTINUOUS
 62
    30
 10
818.662959
 20
-17.199999999999989
 30
0.0
  0
LINE
  8
SIZE
  6
CONTINUOUS
 62
    30
 10
165.0
 20
0.0
 30
0.0
 11
838.662959
 21
0.0
 31
0.0
  0
LINE
  8
SIZE
  6
CONTINUOUS
 62
    30
 10
89.034660000000031
 20
202.40000000000001
 30
0.0
 11
838.662959
 21
202.40000000000001
 31
0.0
  0
LINE
  8
SIZE
  6
CONTINUOUS
 62
    30
 10
818.662959
 20
12.0
 30
0.0
 11
818.662959
 21
190.40000000000001
 31
0.0
  0
CIRCLE
  8
SIZE
  6
CONTINUOUS
 62
    30
 10
818.662959
 20
0.0
 30
0.0
 40
6.0
  0
LINE
  8
SIZE
  6
CONTINUOUS
 62
    30
 10
818.662959
 20
0.0
 30
0.0
 11
818.662959
 21
12.0
 31
0.0
  0
CIRCLE
  8
SIZE
  6
CONTINUOUS
 62
    30
 10
818.662959
 20
202.40000000000001
 30
0.0
 40
6.0
  0
LINE
  8
SIZE
  6
CONTINUOUS
 62
    30
 10
818.662959
 20
202.40000000000001
 30
0.0
 11
818.662959
 21
190.40000000000001
 31
0.0
  0
TEXT
  8
SIZE
  6
CONTINUOUS
 62
    30
 10
793.662959
 20
26.692857142857161
 30
0.0
 40
64.0
  1
202
 50
90.0
 41
0.9
 72
     1
 11
793.662959
 21
100.75
 31
0.0
  0
POINT
  8
DEFPOINTS
  6
CONTINUOUS
 62
    30
 10
145.0
 20
0.0
 30
0.0
  0
POINT
  8
DEFPOINTS
  6
CONTINUOUS
 62
    30
 10
69.034660000000031
 20
202.40000000000001
 30
0.0
  0
POINT
  8
DEFPOINTS
  6
CONTINUOUS
 62
    30
 10
818.662959
 20
202.40000000000001
 30
0.0
  0
LINE
  8
SIZE
  6
CONTINUOUS
 62
    30
 10
165.0
 20
0.0
 30
0.0
 11
320.23306400000001
 21
0.0
 31
0.0
  0
LINE
  8
SIZE
  6
CONTINUOUS
 62
    30
 10
163.000304
 20
38.0
 30
0.0
 11
320.23306400000001
 21
38.0
 31
0.0
  0
LINE
  8
SIZE
  6
CONTINUOUS
 62
    30
 10
300.23306400000001
 20
50.0
 30
0.0
 11
300.23306400000001
 21
62.0
 31
0.0
  0
LINE
  8
SIZE
  6
CONTINUOUS
 62
    30
 10
300.23306400000001
 20
-12.0
 30
0.0
 11
300.23306400000001
 21
-167.25714300000001
 31
0.0
  0
LINE
  8
SIZE
  6
CONTINUOUS
 62
    30
 10
300.23306400000001
 20
38.0
 30
0.0
 11
300.23306400000001
 21
0.0
 31
0.0
  0
CIRCLE
  8
SIZE
  6
CONTINUOUS
 62
    30
 10
300.23306400000001
 20
38.0
 30
0.0
 40
6.0
  0
LINE
  8
SIZE
  6
CONTINUOUS
 62
    30
 10
300.23306400000001
 20
38.0
 30
0.0
 11
300.23306400000001
 21
50.0
 31
0.0
  0
CIRCLE
  8
SIZE
  6
CONTINUOUS
 62
    30
 10
300.23306400000001
 20
0.0
 30
0.0
 40
6.0
  0
LINE
  8
SIZE
  6
CONTINUOUS
 62
    30
 10
300.23306400000001
 20
0.0
 30
0.0
 11
300.23306400000001
 21
-12.0
 31
0.0
  0
TEXT
  8
SIZE
  6
CONTINUOUS
 62
    30
 10
275.23306400000001
 20
-142.2571424285714
 30
0.0
 40
64.0
  1
38
 50
90.0
 41
0.9
 72
     1
 11
275.23306400000001
 21
-95.628570999999965
 31
0.0
  0
POINT
  8
DEFPOINTS
  6
CONTINUOUS
 62
    30
 10
145.0
 20
0.0
 30
0.0
  0
POINT
  8
DEFPOINTS
  6
CONTINUOUS
 62
    30
 10
143.000304
 20
38.0
 30
0.0
  0
POINT
  8
DEFPOINTS
  6
CONTINUOUS
 62
    30
 10
300.23306400000001
 20
38.0
 30
0.0
  0
LINE
  8
OUTLINE
  6
CONTINUOUS
 62
     3
 10
-100.555988
 20
142.0
 30
0.0
 11
-62.96271200000001
 21
142.0
 31
0.0
  0
LINE
  8
OUTLINE
  6
CONTINUOUS
 62
     3
 10
138.48905199999999
 20
-13.0
 30
0.0
 11
-144.36128800000009
 21
-13.0
 31
0.0
  0
ARC
  8
OUTLINE
  6
CONTINUOUS
 62
     3
 10
-70.982844
 20
-16.699999999999989
 30
0.0
 40
0.5
 50
270.0
 51
357.99999999999619
  0
LINE
  8
OUTLINE
  6
CONTINUOUS
 62
     3
 10
145.0
 20
0.0
 30
0.0
 11
105.0
 21
0.0
 31
0.0
  0
LINE
  8
OUTLINE
  6
CONTINUOUS
 62
     3
 10
-105.0
 20
0.0
 30
0.0
 11
-102.555684
 21
140.03490400000001
 31
0.0
  0
ARC
  8
OUTLINE
  6
CONTINUOUS
 62
     3
 10
-128.580592
 20
-0.7805920000000128
 30
0.0
 40
20.0
 50
219.7363409999993
 51
230.2636590000007
  0
LINE
  8
OUTLINE
  6
CONTINUOUS
 62
     3
 10
-145.0
 20
0.0
 30
0.0
 11
-145.0
 21
-10.867652000000019
 31
0.0
  0
ARC
  8
OUTLINE
  6
CONTINUOUS
 62
     3
 10
-146.0
 20
-7.0
 30
0.0
 40
1.0
 50
270.0
 51
0.0
  0
ARC
  8
OUTLINE
  6
CONTINUOUS
 62
     3
 10
-145.99120400000001
 20
-11.0
 30
0.0
 40
1.0
 50
3.240998999999702
 51
90.0
  0
ARC
  8
OUTLINE
  6
CONTINUOUS
 62
     3
 10
-147.0
 20
-9.0
 30
0.0
 40
1.0
 50
90.0
 51
180.0
  0
ARC
  8
OUTLINE
  6
CONTINUOUS
 62
     3
 10
-147.0
 20
-9.0
 30
0.0
 40
1.0
 50
180.0
 51
270.0
  0
LINE
  8
OUTLINE
  6
CONTINUOUS
 62
     3
 10
-147.0
 20
-8.0
 30
0.0
 11
-146.0
 21
-8.0
 31
0.0
  0
LINE
  8
OUTLINE
  6
CONTINUOUS
 62
     3
 10
-147.0
 20
-10.0
 30
0.0
 11
-145.99120400000001
 21
-10.0
 31
0.0
  0
ARC
  8
OUTLINE
  6
CONTINUOUS
 62
     3
 10
-140.5
 20
-10.68905599999999
 30
0.0
 40
4.5
 50
183.2409989999997
 51
219.7363409999993
  0
LINE
  8
OUTLINE
  6
CONTINUOUS
 62
     3
 10
-104.982844
 20
-17.199999999999989
 30
0.0
 11
-107.517156
 21
-17.199999999999989
 31
0.0
  0
LINE
  8
OUTLINE
  6
CONTINUOUS
 62
     3
 10
-112.8795239999999
 20
-13.75
 30
0.0
 11
-112.983152
 21
-16.71745199999998
 31
0.0
  0
LINE
  8
OUTLINE
  6
CONTINUOUS
 62
     3
 10
-108.12040399999999
 20
-13.752103999999971
 30
0.0
 11
-108.016852
 21
-16.71745199999998
 31
0.0
  0
ARC
  8
OUTLINE
  6
CONTINUOUS
 62
     3
 10
-138.48905199999999
 20
-12.69999999999999
 30
0.0
 40
4.5
 50
230.2636590000007
 51
270.0
  0
LINE
  8
OUTLINE
  6
CONTINUOUS
 62
     3
 10
-113.482844
 20
-17.199999999999989
 30
0.0
 11
-138.48905199999999
 21
-17.199999999999989
 31
0.0
  0
ARC
  8
OUTLINE
  6
CONTINUOUS
 62
     3
 10
-113.482844
 20
-16.699999999999989
 30
0.0
 40
0.5
 50
270.0
 51
357.99999999999619
  0
ARC
  8
OUTLINE
  6
CONTINUOUS
 62
     3
 10
-107.517156
 20
-16.699999999999989
 30
0.0
 40
0.5
 50
182.00000000000369
 51
270.0
  0
LINE
  8
OUTLINE
  6
CONTINUOUS
 62
     3
 10
-122.5
 20
0.0
 30
0.0
 11
-112.5
 21
0.0
 31
0.0
  0
LINE
  8
OUTLINE
  6
CONTINUOUS
 62
     3
 10
-117.5
 20
0.0
 30
0.0
 11
-118.22685199999999
 21
0.0
 31
0.0
  0
LINE
  8
OUTLINE
  6
CONTINUOUS
 62
     3
 10
-108.1204760000001
 20
-13.75
 30
0.0
 11
-112.8795239999999
 21
-13.75
 31
0.0
  0
LINE
  8
OUTLINE
  6
CONTINUOUS
 62
     3
 10
-104.37959600000001
 20
-13.752103999999971
 30
0.0
 11
-104.483152
 21
-16.71745199999998
 31
0.0
  0
LINE
  8
OUTLINE
  6
CONTINUOUS
 62
     3
 10
-74.120404000000008
 20
-13.752103999999971
 30
0.0
 11
-74.016851999999972
 21
-16.71745199999998
 31
0.0
  0
LINE
  8
OUTLINE
  6
CONTINUOUS
 62
     3
 10
-82.620404000000008
 20
-13.752103999999971
 30
0.0
 11
-82.516851999999972
 21
-16.71745199999998
 31
0.0
  0
LINE
  8
OUTLINE
  6
CONTINUOUS
 62
     3
 10
-78.879595999999992
 20
-13.752103999999971
 30
0.0
 11
-78.983152000000018
 21
-16.71745199999998
 31
0.0
  0
LINE
  8
OUTLINE
  6
CONTINUOUS
 62
     3
 10
-91.120404000000008
 20
-13.752103999999971
 30
0.0
 11
-91.016851999999972
 21
-16.71745199999998
 31
0.0
  0
LINE
  8
OUTLINE
  6
CONTINUOUS
 62
     3
 10
-87.379595999999992
 20
-13.752103999999971
 30
0.0
 11
-87.483152000000018
 21
-16.71745199999998
 31
0.0
  0
LINE
  8
OUTLINE
  6
CONTINUOUS
 62
     3
 10
-95.879595999999992
 20
-13.752103999999971
 30
0.0
 11
-95.983152000000018
 21
-16.71745199999998
 31
0.0
  0
LINE
  8
OUTLINE
  6
CONTINUOUS
 62
     3
 10
-99.620404000000008
 20
-13.752103999999971
 30
0.0
 11
-99.516851999999972
 21
-16.71745199999998
 31
0.0
  0
LINE
  8
OUTLINE
  6
CONTINUOUS
 62
     3
 10
-87.982844
 20
-17.199999999999989
 30
0.0
 11
-90.517156
 21
-17.199999999999989
 31
0.0
  0
LINE
  8
OUTLINE
  6
CONTINUOUS
 62
     3
 10
-96.482844
 20
-17.199999999999989
 30
0.0
 11
-99.017156
 21
-17.199999999999989
 31
0.0
  0
ARC
  8
OUTLINE
  6
CONTINUOUS
 62
     3
 10
-104.982844
 20
-16.699999999999989
 30
0.0
 40
0.5
 50
270.0
 51
357.99999999999619
  0
ARC
  8
OUTLINE
  6
CONTINUOUS
 62
     3
 10
-99.017156
 20
-16.699999999999989
 30
0.0
 40
0.5
 50
182.00000000000369
 51
270.0
  0
ARC
  8
OUTLINE
  6
CONTINUOUS
 62
     3
 10
-90.517156
 20
-16.699999999999989
 30
0.0
 40
0.5
 50
182.00000000000369
 51
270.0
  0
ARC
  8
OUTLINE
  6
CONTINUOUS
 62
     3
 10
-96.482844
 20
-16.699999999999989
 30
0.0
 40
0.5
 50
270.0
 51
357.99999999999619
  0
LINE
  8
OUTLINE
  6
CONTINUOUS
 62
     3
 10
-79.482844
 20
-17.199999999999989
 30
0.0
 11
-82.017156
 21
-17.199999999999989
 31
0.0
  0
ARC
  8
OUTLINE
  6
CONTINUOUS
 62
     3
 10
-82.017156
 20
-16.699999999999989
 30
0.0
 40
0.5
 50
182.00000000000369
 51
270.0
  0
ARC
  8
OUTLINE
  6
CONTINUOUS
 62
     3
 10
-87.982844
 20
-16.699999999999989
 30
0.0
 40
0.5
 50
270.0
 51
357.99999999999619
  0
ARC
  8
OUTLINE
  6
CONTINUOUS
 62
     3
 10
-73.517156
 20
-16.699999999999989
 30
0.0
 40
0.5
 50
182.00000000000369
 51
270.0
  0
LINE
  8
OUTLINE
  6
CONTINUOUS
 62
     3
 10
-70.982844
 20
-17.199999999999989
 30
0.0
 11
-73.517156
 21
-17.199999999999989
 31
0.0
  0
ARC
  8
OUTLINE
  6
CONTINUOUS
 62
     3
 10
-79.482844
 20
-16.699999999999989
 30
0.0
 40
0.5
 50
270.0
 51
357.99999999999619
  0
LINE
  8
OUTLINE
  6
CONTINUOUS
 62
     3
 10
-99.620476000000053
 20
-13.75
 30
0.0
 11
-104.3795239999999
 21
-13.75
 31
0.0
  0
LINE
  8
OUTLINE
  6
CONTINUOUS
 62
     3
 10
-91.120476000000053
 20
-13.75
 30
0.0
 11
-95.879523999999947
 21
-13.75
 31
0.0
  0
LINE
  8
OUTLINE
  6
CONTINUOUS
 62
     3
 10
-82.62047599999994
 20
-13.75
 30
0.0
 11
-87.379523999999947
 21
-13.75
 31
0.0
  0
LINE
  8
OUTLINE
  6
CONTINUOUS
 62
     3
 10
-74.12047599999994
 20
-13.75
 30
0.0
 11
-78.879523999999947
 21
-13.75
 31
0.0
  0
ARC
  8
OUTLINE
  6
CONTINUOUS
 62
     3
 10
-100.555988
 20
140.0
 30
0.0
 40
2.0
 50
90.0
 51
178.99999999999821
  0
LINE
  8
OUTLINE
  6
CONTINUOUS
 62
     3
 10
-61.508119999999963
 20
169.03490400000001
 30
0.0
 11
-61.962863999999968
 21
142.98254399999999
 31
0.0
  0
LINE
  8
OUTLINE
  6
CONTINUOUS
 62
     3
 10
35.508115999999973
 20
169.03490400000001
 30
0.0
 11
35.962863999999968
 21
142.98254399999999
 31
0.0
  0
LINE
  8
OUTLINE
  6
CONTINUOUS
 62
     3
 10
102.50024000000001
 20
171.87780799999999
 30
0.0
 11
105.0
 21
0.0
 31
0.0
  0
LINE
  8
OUTLINE
  6
CONTINUOUS
 62
     3
 10
71.849360000000047
 20
186.5
 30
0.0
 11
71.849360000000047
 21
151.35238000000001
 31
0.0
  0
LINE
  8
OUTLINE
  6
CONTINUOUS
 62
     3
 10
78.879523999999947
 20
-13.75
 30
0.0
 11
74.12047599999994
 21
-13.75
 31
0.0
  0
LINE
  8
OUTLINE
  6
CONTINUOUS
 62
     3
 10
2.3795959999999918
 20
-13.752103999999971
 30
0.0
 11
2.4831480000000279
 21
-16.71745199999998
 31
0.0
  0
ARC
  8
OUTLINE
  6
CONTINUOUS
 62
     3
 10
2.9828440000000001
 20
-16.699999999999989
 30
0.0
 40
0.5
 50
182.00000000000369
 51
270.0
  0
LINE
  8
OUTLINE
  6
CONTINUOUS
 62
     3
 10
-31.62047600000005
 20
-13.75
 30
0.0
 11
-36.379523999999947
 21
-13.75
 31
0.0
  0
LINE
  8
OUTLINE
  6
CONTINUOUS
 62
     3
 10
-40.120404000000008
 20
-13.752103999999971
 30
0.0
 11
-40.016851999999972
 21
-16.71745199999998
 31
0.0
  0
LINE
  8
OUTLINE
  6
CONTINUOUS
 62
     3
 10
-36.379595999999992
 20
-13.752103999999971
 30
0.0
 11
-36.483152000000018
 21
-16.71745199999998
 31
0.0
  0
LINE
  8
OUTLINE
  6
CONTINUOUS
 62
     3
 10
-48.620404000000008
 20
-13.752103999999971
 30
0.0
 11
-48.516851999999972
 21
-16.71745199999998
 31
0.0
  0
LINE
  8
OUTLINE
  6
CONTINUOUS
 62
     3
 10
-44.879595999999992
 20
-13.752103999999971
 30
0.0
 11
-44.983152000000018
 21
-16.71745199999998
 31
0.0
  0
LINE
  8
OUTLINE
  6
CONTINUOUS
 62
     3
 10
-57.120404000000008
 20
-13.752103999999971
 30
0.0
 11
-57.016851999999972
 21
-16.71745199999998
 31
0.0
  0
LINE
  8
OUTLINE
  6
CONTINUOUS
 62
     3
 10
-53.379595999999992
 20
-13.752103999999971
 30
0.0
 11
-53.483152000000018
 21
-16.71745199999998
 31
0.0
  0
LINE
  8
OUTLINE
  6
CONTINUOUS
 62
     3
 10
-65.620404000000008
 20
-13.752103999999971
 30
0.0
 11
-65.516851999999972
 21
-16.71745199999998
 31
0.0
  0
LINE
  8
OUTLINE
  6
CONTINUOUS
 62
     3
 10
-61.879595999999992
 20
-13.752103999999971
 30
0.0
 11
-61.983152000000018
 21
-16.71745199999998
 31
0.0
  0
LINE
  8
OUTLINE
  6
CONTINUOUS
 62
     3
 10
-70.379595999999992
 20
-13.752103999999971
 30
0.0
 11
-70.483152000000018
 21
-16.71745199999998
 31
0.0
  0
ARC
  8
OUTLINE
  6
CONTINUOUS
 62
     3
 10
-65.017156
 20
-16.699999999999989
 30
0.0
 40
0.5
 50
182.00000000000369
 51
270.0
  0
LINE
  8
OUTLINE
  6
CONTINUOUS
 62
     3
 10
-62.482844
 20
-17.199999999999989
 30
0.0
 11
-65.017156
 21
-17.199999999999989
 31
0.0
  0
ARC
  8
OUTLINE
  6
CONTINUOUS
 62
     3
 10
-62.482844
 20
-16.699999999999989
 30
0.0
 40
0.5
 50
270.0
 51
357.99999999999619
  0
ARC
  8
OUTLINE
  6
CONTINUOUS
 62
     3
 10
-56.517156
 20
-16.699999999999989
 30
0.0
 40
0.5
 50
182.00000000000369
 51
270.0
  0
LINE
  8
OUTLINE
  6
CONTINUOUS
 62
     3
 10
-53.982844
 20
-17.199999999999989
 30
0.0
 11
-56.517156
 21
-17.199999999999989
 31
0.0
  0
ARC
  8
OUTLINE
  6
CONTINUOUS
 62
     3
 10
-53.982844
 20
-16.699999999999989
 30
0.0
 40
0.5
 50
270.0
 51
357.99999999999619
  0
ARC
  8
OUTLINE
  6
CONTINUOUS
 62
     3
 10
-48.017156
 20
-16.699999999999989
 30
0.0
 40
0.5
 50
182.00000000000369
 51
270.0
  0
LINE
  8
OUTLINE
  6
CONTINUOUS
 62
     3
 10
-45.482844
 20
-17.199999999999989
 30
0.0
 11
-48.017156
 21
-17.199999999999989
 31
0.0
  0
ARC
  8
OUTLINE
  6
CONTINUOUS
 62
     3
 10
-45.482844
 20
-16.699999999999989
 30
0.0
 40
0.5
 50
270.0
 51
357.99999999999619
  0
ARC
  8
OUTLINE
  6
CONTINUOUS
 62
     3
 10
-39.517156
 20
-16.699999999999989
 30
0.0
 40
0.5
 50
182.00000000000369
 51
270.0
  0
LINE
  8
OUTLINE
  6
CONTINUOUS
 62
     3
 10
-36.982844
 20
-17.199999999999989
 30
0.0
 11
-39.517156
 21
-17.199999999999989
 31
0.0
  0
ARC
  8
OUTLINE
  6
CONTINUOUS
 62
     3
 10
-36.982844
 20
-16.699999999999989
 30
0.0
 40
0.5
 50
270.0
 51
357.99999999999619
  0
LINE
  8
OUTLINE
  6
CONTINUOUS
 62
     3
 10
-48.620476000000053
 20
-13.75
 30
0.0
 11
-53.379523999999947
 21
-13.75
 31
0.0
  0
LINE
  8
OUTLINE
  6
CONTINUOUS
 62
     3
 10
-57.120476000000053
 20
-13.75
 30
0.0
 11
-61.879523999999947
 21
-13.75
 31
0.0
  0
LINE
  8
OUTLINE
  6
CONTINUOUS
 62
     3
 10
-65.620476000000053
 20
-13.75
 30
0.0
 11
-70.379523999999947
 21
-13.75
 31
0.0
  0
LINE
  8
OUTLINE
  6
CONTINUOUS
 62
     3
 10
-40.120476000000053
 20
-13.75
 30
0.0
 11
-44.879523999999947
 21
-13.75
 31
0.0
  0
LINE
  8
OUTLINE
  6
CONTINUOUS
 62
     3
 10
-6.1204040000000077
 20
-13.752103999999971
 30
0.0
 11
-6.0168519999999717
 21
-16.71745199999998
 31
0.0
  0
LINE
  8
OUTLINE
  6
CONTINUOUS
 62
     3
 10
-2.3795959999999918
 20
-13.752103999999971
 30
0.0
 11
-2.4831520000000178
 21
-16.71745199999998
 31
0.0
  0
LINE
  8
OUTLINE
  6
CONTINUOUS
 62
     3
 10
-14.62040400000001
 20
-13.752103999999971
 30
0.0
 11
-14.51685199999997
 21
-16.71745199999998
 31
0.0
  0
LINE
  8
OUTLINE
  6
CONTINUOUS
 62
     3
 10
-10.87959599999999
 20
-13.752103999999971
 30
0.0
 11
-10.98315200000002
 21
-16.71745199999998
 31
0.0
  0
LINE
  8
OUTLINE
  6
CONTINUOUS
 62
     3
 10
-23.120404000000011
 20
-13.752103999999971
 30
0.0
 11
-23.016851999999972
 21
-16.71745199999998
 31
0.0
  0
LINE
  8
OUTLINE
  6
CONTINUOUS
 62
     3
 10
-19.379595999999989
 20
-13.752103999999971
 30
0.0
 11
-19.483152000000018
 21
-16.71745199999998
 31
0.0
  0
LINE
  8
OUTLINE
  6
CONTINUOUS
 62
     3
 10
-31.620404000000011
 20
-13.752103999999971
 30
0.0
 11
-31.516851999999972
 21
-16.71745199999998
 31
0.0
  0
LINE
  8
OUTLINE
  6
CONTINUOUS
 62
     3
 10
-27.879595999999989
 20
-13.752103999999971
 30
0.0
 11
-27.983152000000018
 21
-16.71745199999998
 31
0.0
  0
ARC
  8
OUTLINE
  6
CONTINUOUS
 62
     3
 10
-31.017156
 20
-16.699999999999989
 30
0.0
 40
0.5
 50
182.00000000000369
 51
270.0
  0
LINE
  8
OUTLINE
  6
CONTINUOUS
 62
     3
 10
-28.482844
 20
-17.199999999999989
 30
0.0
 11
-31.017156
 21
-17.199999999999989
 31
0.0
  0
ARC
  8
OUTLINE
  6
CONTINUOUS
 62
     3
 10
-28.482844
 20
-16.699999999999989
 30
0.0
 40
0.5
 50
270.0
 51
357.99999999999619
  0
ARC
  8
OUTLINE
  6
CONTINUOUS
 62
     3
 10
-22.517156
 20
-16.699999999999989
 30
0.0
 40
0.5
 50
182.00000000000369
 51
270.0
  0
LINE
  8
OUTLINE
  6
CONTINUOUS
 62
     3
 10
-19.982844
 20
-17.199999999999989
 30
0.0
 11
-22.517156
 21
-17.199999999999989
 31
0.0
  0
ARC
  8
OUTLINE
  6
CONTINUOUS
 62
     3
 10
-19.982844
 20
-16.699999999999989
 30
0.0
 40
0.5
 50
270.0
 51
357.99999999999619
  0
ARC
  8
OUTLINE
  6
CONTINUOUS
 62
     3
 10
-14.017156
 20
-16.699999999999989
 30
0.0
 40
0.5
 50
182.00000000000369
 51
270.0
  0
LINE
  8
OUTLINE
  6
CONTINUOUS
 62
     3
 10
-11.482844
 20
-17.199999999999989
 30
0.0
 11
-14.017156
 21
-17.199999999999989
 31
0.0
  0
ARC
  8
OUTLINE
  6
CONTINUOUS
 62
     3
 10
-11.482844
 20
-16.699999999999989
 30
0.0
 40
0.5
 50
270.0
 51
357.99999999999619
  0
ARC
  8
OUTLINE
  6
CONTINUOUS
 62
     3
 10
-5.5171559999999999
 20
-16.699999999999989
 30
0.0
 40
0.5
 50
182.00000000000369
 51
270.0
  0
LINE
  8
OUTLINE
  6
CONTINUOUS
 62
     3
 10
-2.9828440000000001
 20
-17.199999999999989
 30
0.0
 11
-5.5171559999999999
 21
-17.199999999999989
 31
0.0
  0
ARC
  8
OUTLINE
  6
CONTINUOUS
 62
     3
 10
-2.9828440000000001
 20
-16.699999999999989
 30
0.0
 40
0.5
 50
270.0
 51
357.99999999999619
  0
LINE
  8
OUTLINE
  6
CONTINUOUS
 62
     3
 10
-14.62047600000005
 20
-13.75
 30
0.0
 11
-19.37952399999995
 21
-13.75
 31
0.0
  0
LINE
  8
OUTLINE
  6
CONTINUOUS
 62
     3
 10
-23.12047600000005
 20
-13.75
 30
0.0
 11
-27.87952399999995
 21
-13.75
 31
0.0
  0
LINE
  8
OUTLINE
  6
CONTINUOUS
 62
     3
 10
-6.1204760000000533
 20
-13.75
 30
0.0
 11
-10.87952399999995
 21
-13.75
 31
0.0
  0
LINE
  8
OUTLINE
  6
CONTINUOUS
 62
     3
 10
2.3795239999999471
 20
-13.75
 30
0.0
 11
-2.3795239999999471
 21
-13.75
 31
0.0
  0
LINE
  8
OUTLINE
  6
CONTINUOUS
 62
     3
 10
39.517156
 20
-17.199999999999989
 30
0.0
 11
36.982844
 21
-17.199999999999989
 31
0.0
  0
LINE
  8
OUTLINE
  6
CONTINUOUS
 62
     3
 10
36.379595999999992
 20
-13.752103999999971
 30
0.0
 11
36.483148000000028
 21
-16.71745199999998
 31
0.0
  0
LINE
  8
OUTLINE
  6
CONTINUOUS
 62
     3
 10
27.879595999999989
 20
-13.752103999999971
 30
0.0
 11
27.983148000000028
 21
-16.71745199999998
 31
0.0
  0
LINE
  8
OUTLINE
  6
CONTINUOUS
 62
     3
 10
31.620404000000011
 20
-13.752103999999971
 30
0.0
 11
31.516847999999982
 21
-16.71745199999998
 31
0.0
  0
LINE
  8
OUTLINE
  6
CONTINUOUS
 62
     3
 10
19.379595999999989
 20
-13.752103999999971
 30
0.0
 11
19.483148000000028
 21
-16.71745199999998
 31
0.0
  0
LINE
  8
OUTLINE
  6
CONTINUOUS
 62
     3
 10
23.120404000000011
 20
-13.752103999999971
 30
0.0
 11
23.016847999999982
 21
-16.71745199999998
 31
0.0
  0
LINE
  8
OUTLINE
  6
CONTINUOUS
 62
     3
 10
10.87959599999999
 20
-13.752103999999971
 30
0.0
 11
10.98314800000003
 21
-16.71745199999998
 31
0.0
  0
LINE
  8
OUTLINE
  6
CONTINUOUS
 62
     3
 10
14.62040400000001
 20
-13.752103999999971
 30
0.0
 11
14.51684799999998
 21
-16.71745199999998
 31
0.0
  0
LINE
  8
OUTLINE
  6
CONTINUOUS
 62
     3
 10
6.1204040000000077
 20
-13.752103999999971
 30
0.0
 11
6.0168479999999818
 21
-16.71745199999998
 31
0.0
  0
LINE
  8
OUTLINE
  6
CONTINUOUS
 62
     3
 10
22.517156
 20
-17.199999999999989
 30
0.0
 11
19.982844
 21
-17.199999999999989
 31
0.0
  0
LINE
  8
OUTLINE
  6
CONTINUOUS
 62
     3
 10
14.017156
 20
-17.199999999999989
 30
0.0
 11
11.482844
 21
-17.199999999999989
 31
0.0
  0
ARC
  8
OUTLINE
  6
CONTINUOUS
 62
     3
 10
11.482844
 20
-16.699999999999989
 30
0.0
 40
0.5
 50
182.00000000000369
 51
270.0
  0
LINE
  8
OUTLINE
  6
CONTINUOUS
 62
     3
 10
5.5171559999999999
 20
-17.199999999999989
 30
0.0
 11
2.9828440000000001
 21
-17.199999999999989
 31
0.0
  0
ARC
  8
OUTLINE
  6
CONTINUOUS
 62
     3
 10
5.5171559999999999
 20
-16.699999999999989
 30
0.0
 40
0.5
 50
270.0
 51
357.99999999999619
  0
ARC
  8
OUTLINE
  6
CONTINUOUS
 62
     3
 10
19.982844
 20
-16.699999999999989
 30
0.0
 40
0.5
 50
182.00000000000369
 51
270.0
  0
ARC
  8
OUTLINE
  6
CONTINUOUS
 62
     3
 10
14.017156
 20
-16.699999999999989
 30
0.0
 40
0.5
 50
270.0
 51
357.99999999999619
  0
LINE
  8
OUTLINE
  6
CONTINUOUS
 62
     3
 10
31.017156
 20
-17.199999999999989
 30
0.0
 11
28.482844
 21
-17.199999999999989
 31
0.0
  0
ARC
  8
OUTLINE
  6
CONTINUOUS
 62
     3
 10
28.482844
 20
-16.699999999999989
 30
0.0
 40
0.5
 50
182.00000000000369
 51
270.0
  0
ARC
  8
OUTLINE
  6
CONTINUOUS
 62
     3
 10
22.517156
 20
-16.699999999999989
 30
0.0
 40
0.5
 50
270.0
 51
357.99999999999619
  0
ARC
  8
OUTLINE
  6
CONTINUOUS
 62
     3
 10
36.982844
 20
-16.699999999999989
 30
0.0
 40
0.5
 50
182.00000000000369
 51
270.0
  0
ARC
  8
OUTLINE
  6
CONTINUOUS
 62
     3
 10
31.017156
 20
-16.699999999999989
 30
0.0
 40
0.5
 50
270.0
 51
357.99999999999619
  0
LINE
  8
OUTLINE
  6
CONTINUOUS
 62
     3
 10
10.87952399999995
 20
-13.75
 30
0.0
 11
6.1204760000000533
 21
-13.75
 31
0.0
  0
LINE
  8
OUTLINE
  6
CONTINUOUS
 62
     3
 10
19.37952399999995
 20
-13.75
 30
0.0
 11
14.62047600000005
 21
-13.75
 31
0.0
  0
LINE
  8
OUTLINE
  6
CONTINUOUS
 62
     3
 10
27.87952399999995
 20
-13.75
 30
0.0
 11
23.12047600000005
 21
-13.75
 31
0.0
  0
LINE
  8
OUTLINE
  6
CONTINUOUS
 62
     3
 10
36.379523999999947
 20
-13.75
 30
0.0
 11
31.62047600000005
 21
-13.75
 31
0.0
  0
LINE
  8
OUTLINE
  6
CONTINUOUS
 62
     3
 10
44.879595999999992
 20
-13.752103999999971
 30
0.0
 11
44.983148000000028
 21
-16.71745199999998
 31
0.0
  0
LINE
  8
OUTLINE
  6
CONTINUOUS
 62
     3
 10
40.120404000000008
 20
-13.752103999999971
 30
0.0
 11
40.016847999999982
 21
-16.71745199999998
 31
0.0
  0
LINE
  8
OUTLINE
  6
CONTINUOUS
 62
     3
 10
70.379595999999992
 20
-13.752103999999971
 30
0.0
 11
70.483148000000028
 21
-16.71745199999998
 31
0.0
  0
LINE
  8
OUTLINE
  6
CONTINUOUS
 62
     3
 10
74.120404000000008
 20
-13.752103999999971
 30
0.0
 11
74.016847999999982
 21
-16.71745199999998
 31
0.0
  0
LINE
  8
OUTLINE
  6
CONTINUOUS
 62
     3
 10
61.879595999999992
 20
-13.752103999999971
 30
0.0
 11
61.983148000000028
 21
-16.71745199999998
 31
0.0
  0
LINE
  8
OUTLINE
  6
CONTINUOUS
 62
     3
 10
65.620404000000008
 20
-13.752103999999971
 30
0.0
 11
65.516847999999982
 21
-16.71745199999998
 31
0.0
  0
LINE
  8
OUTLINE
  6
CONTINUOUS
 62
     3
 10
53.379595999999992
 20
-13.752103999999971
 30
0.0
 11
53.483148000000028
 21
-16.71745199999998
 31
0.0
  0
LINE
  8
OUTLINE
  6
CONTINUOUS
 62
     3
 10
57.120404000000008
 20
-13.752103999999971
 30
0.0
 11
57.016847999999982
 21
-16.71745199999998
 31
0.0
  0
LINE
  8
OUTLINE
  6
CONTINUOUS
 62
     3
 10
48.620404000000008
 20
-13.752103999999971
 30
0.0
 11
48.516847999999982
 21
-16.71745199999998
 31
0.0
  0
ARC
  8
OUTLINE
  6
CONTINUOUS
 62
     3
 10
48.017156
 20
-16.699999999999989
 30
0.0
 40
0.5
 50
270.0
 51
357.99999999999619
  0
ARC
  8
OUTLINE
  6
CONTINUOUS
 62
     3
 10
45.482844
 20
-16.699999999999989
 30
0.0
 40
0.5
 50
182.00000000000369
 51
270.0
  0
ARC
  8
OUTLINE
  6
CONTINUOUS
 62
     3
 10
39.517156
 20
-16.699999999999989
 30
0.0
 40
0.5
 50
270.0
 51
357.99999999999619
  0
LINE
  8
OUTLINE
  6
CONTINUOUS
 62
     3
 10
48.017156
 20
-17.199999999999989
 30
0.0
 11
45.482844
 21
-17.199999999999989
 31
0.0
  0
ARC
  8
OUTLINE
  6
CONTINUOUS
 62
     3
 10
53.982844
 20
-16.699999999999989
 30
0.0
 40
0.5
 50
182.00000000000369
 51
270.0
  0
LINE
  8
OUTLINE
  6
CONTINUOUS
 62
     3
 10
56.517156
 20
-17.199999999999989
 30
0.0
 11
53.982844
 21
-17.199999999999989
 31
0.0
  0
ARC
  8
OUTLINE
  6
CONTINUOUS
 62
     3
 10
56.517156
 20
-16.699999999999989
 30
0.0
 40
0.5
 50
270.0
 51
357.99999999999619
  0
ARC
  8
OUTLINE
  6
CONTINUOUS
 62
     3
 10
62.482844
 20
-16.699999999999989
 30
0.0
 40
0.5
 50
182.00000000000369
 51
270.0
  0
LINE
  8
OUTLINE
  6
CONTINUOUS
 62
     3
 10
65.017156
 20
-17.199999999999989
 30
0.0
 11
62.482844
 21
-17.199999999999989
 31
0.0
  0
ARC
  8
OUTLINE
  6
CONTINUOUS
 62
     3
 10
65.017156
 20
-16.699999999999989
 30
0.0
 40
0.5
 50
270.0
 51
357.99999999999619
  0
ARC
  8
OUTLINE
  6
CONTINUOUS
 62
     3
 10
70.982844
 20
-16.699999999999989
 30
0.0
 40
0.5
 50
182.00000000000369
 51
270.0
  0
LINE
  8
OUTLINE
  6
CONTINUOUS
 62
     3
 10
73.517156
 20
-17.199999999999989
 30
0.0
 11
70.982844
 21
-17.199999999999989
 31
0.0
  0
ARC
  8
OUTLINE
  6
CONTINUOUS
 62
     3
 10
73.517156
 20
-16.699999999999989
 30
0.0
 40
0.5
 50
270.0
 51
357.99999999999619
  0
LINE
  8
OUTLINE
  6
CONTINUOUS
 62
     3
 10
61.879523999999947
 20
-13.75
 30
0.0
 11
57.120476000000053
 21
-13.75
 31
0.0
  0
LINE
  8
OUTLINE
  6
CONTINUOUS
 62
     3
 10
44.879523999999947
 20
-13.75
 30
0.0
 11
40.120476000000053
 21
-13.75
 31
0.0
  0
LINE
  8
OUTLINE
  6
CONTINUOUS
 62
     3
 10
53.379523999999947
 20
-13.75
 30
0.0
 11
48.620476000000053
 21
-13.75
 31
0.0
  0
LINE
  8
OUTLINE
  6
CONTINUOUS
 62
     3
 10
70.379523999999947
 20
-13.75
 30
0.0
 11
65.620476000000053
 21
-13.75
 31
0.0
  0
ARC
  8
OUTLINE
  6
CONTINUOUS
 62
     3
 10
-62.96271200000001
 20
143.0
 30
0.0
 40
1.0
 50
270.0
 51
358.99999999999818
  0
ARC
  8
OUTLINE
  6
CONTINUOUS
 62
     3
 10
36.96271200000001
 20
143.0
 30
0.0
 40
1.0
 50
180.9999999999952
 51
270.0
  0
LINE
  8
OUTLINE
  6
CONTINUOUS
 62
     3
 10
71.849360000000047
 20
151.35238000000001
 30
0.0
 11
56.223615999999993
 21
142.5
 31
0.0
  0
LINE
  8
OUTLINE
  6
CONTINUOUS
 62
     3
 10
56.223615999999993
 20
142.5
 30
0.0
 11
51.021832000000018
 21
142.5
 31
0.0
  0
ARC
  8
OUTLINE
  6
CONTINUOUS
 62
     3
 10
51.021832000000018
 20
139.5
 30
0.0
 40
3.0
 50
90.0
 51
123.5573100000032
  0
LINE
  8
OUTLINE
  6
CONTINUOUS
 62
     3
 10
112.8795239999999
 20
-13.75
 30
0.0
 11
108.1204760000001
 21
-13.75
 31
0.0
  0
LINE
  8
OUTLINE
  6
CONTINUOUS
 62
     3
 10
108.1204760000001
 20
-13.75
 30
0.0
 11
108.016848
 21
-16.71745199999998
 31
0.0
  0
LINE
  8
OUTLINE
  6
CONTINUOUS
 62
     3
 10
104.3795239999999
 20
-13.75
 30
0.0
 11
104.483148
 21
-16.71745199999998
 31
0.0
  0
LINE
  8
OUTLINE
  6
CONTINUOUS
 62
     3
 10
95.879595999999992
 20
-13.752103999999971
 30
0.0
 11
95.983148000000028
 21
-16.71745199999998
 31
0.0
  0
LINE
  8
OUTLINE
  6
CONTINUOUS
 62
     3
 10
99.620404000000008
 20
-13.752103999999971
 30
0.0
 11
99.516847999999982
 21
-16.71745199999998
 31
0.0
  0
LINE
  8
OUTLINE
  6
CONTINUOUS
 62
     3
 10
87.379595999999992
 20
-13.752103999999971
 30
0.0
 11
87.483148000000028
 21
-16.71745199999998
 31
0.0
  0
LINE
  8
OUTLINE
  6
CONTINUOUS
 62
     3
 10
91.120404000000008
 20
-13.752103999999971
 30
0.0
 11
91.016847999999982
 21
-16.71745199999998
 31
0.0
  0
LINE
  8
OUTLINE
  6
CONTINUOUS
 62
     3
 10
78.879595999999992
 20
-13.752103999999971
 30
0.0
 11
78.983148000000028
 21
-16.71745199999998
 31
0.0
  0
LINE
  8
OUTLINE
  6
CONTINUOUS
 62
     3
 10
82.620404000000008
 20
-13.752103999999971
 30
0.0
 11
82.516847999999982
 21
-16.71745199999998
 31
0.0
  0
ARC
  8
OUTLINE
  6
CONTINUOUS
 62
     3
 10
79.482844
 20
-16.699999999999989
 30
0.0
 40
0.5
 50
182.00000000000369
 51
270.0
  0
LINE
  8
OUTLINE
  6
CONTINUOUS
 62
     3
 10
82.017156
 20
-17.199999999999989
 30
0.0
 11
79.482844
 21
-17.199999999999989
 31
0.0
  0
ARC
  8
OUTLINE
  6
CONTINUOUS
 62
     3
 10
82.017156
 20
-16.699999999999989
 30
0.0
 40
0.5
 50
270.0
 51
357.99999999999619
  0
ARC
  8
OUTLINE
  6
CONTINUOUS
 62
     3
 10
87.982844
 20
-16.699999999999989
 30
0.0
 40
0.5
 50
182.00000000000369
 51
270.0
  0
LINE
  8
OUTLINE
  6
CONTINUOUS
 62
     3
 10
90.517156
 20
-17.199999999999989
 30
0.0
 11
87.982844
 21
-17.199999999999989
 31
0.0
  0
ARC
  8
OUTLINE
  6
CONTINUOUS
 62
     3
 10
90.517156
 20
-16.699999999999989
 30
0.0
 40
0.5
 50
270.0
 51
357.99999999999619
  0
ARC
  8
OUTLINE
  6
CONTINUOUS
 62
     3
 10
96.482844
 20
-16.699999999999989
 30
0.0
 40
0.5
 50
182.00000000000369
 51
270.0
  0
LINE
  8
OUTLINE
  6
CONTINUOUS
 62
     3
 10
99.017156
 20
-17.199999999999989
 30
0.0
 11
96.482844
 21
-17.199999999999989
 31
0.0
  0
ARC
  8
OUTLINE
  6
CONTINUOUS
 62
     3
 10
99.017156
 20
-16.699999999999989
 30
0.0
 40
0.5
 50
270.0
 51
357.99999999999619
  0
LINE
  8
OUTLINE
  6
CONTINUOUS
 62
     3
 10
104.982844
 20
-17.199999999999989
 30
0.0
 11
107.517156
 21
-17.199999999999989
 31
0.0
  0
ARC
  8
OUTLINE
  6
CONTINUOUS
 62
     3
 10
107.517156
 20
-16.699999999999989
 30
0.0
 40
0.5
 50
270.0
 51
357.99999999999619
  0
ARC
  8
OUTLINE
  6
CONTINUOUS
 62
     3
 10
104.982844
 20
-16.699999999999989
 30
0.0
 40
0.5
 50
182.00000000000369
 51
270.0
  0
LINE
  8
OUTLINE
  6
CONTINUOUS
 62
     3
 10
95.879523999999947
 20
-13.75
 30
0.0
 11
91.120476000000053
 21
-13.75
 31
0.0
  0
LINE
  8
OUTLINE
  6
CONTINUOUS
 62
     3
 10
87.379523999999947
 20
-13.75
 30
0.0
 11
82.62047599999994
 21
-13.75
 31
0.0
  0
LINE
  8
OUTLINE
  6
CONTINUOUS
 62
     3
 10
104.3795239999999
 20
-13.75
 30
0.0
 11
99.620476000000053
 21
-13.75
 31
0.0
  0
LINE
  8
OUTLINE
  6
CONTINUOUS
 62
     3
 10
112.8795239999999
 20
-13.75
 30
0.0
 11
112.983148
 21
-16.71745199999998
 31
0.0
  0
ARC
  8
OUTLINE
  6
CONTINUOUS
 62
     3
 10
138.48905199999999
 20
-12.69999999999999
 30
0.0
 40
4.5
 50
270.0
 51
309.7363409999993
  0
ARC
  8
OUTLINE
  6
CONTINUOUS
 62
     3
 10
128.58058800000001
 20
-0.7805920000000128
 30
0.0
 40
20.0
 50
309.7363409999993
 51
320.2636590000007
  0
LINE
  8
OUTLINE
  6
CONTINUOUS
 62
     3
 10
138.48905199999999
 20
-17.199999999999989
 30
0.0
 11
113.482844
 21
-17.199999999999989
 31
0.0
  0
ARC
  8
OUTLINE
  6
CONTINUOUS
 62
     3
 10
113.482844
 20
-16.699999999999989
 30
0.0
 40
0.5
 50
182.00000000000369
 51
270.0
  0
LINE
  8
OUTLINE
  6
CONTINUOUS
 62
     3
 10
117.5
 20
0.0
 30
0.0
 11
118.22685199999999
 21
0.0
 31
0.0
  0
ARC
  8
OUTLINE
  6
CONTINUOUS
 62
     3
 10
138.48905199999999
 20
-8.5
 30
0.0
 40
4.5
 50
270.0
 51
309.7363409999993
  0
ARC
  8
OUTLINE
  6
CONTINUOUS
 62
     3
 10
147.0
 20
-9.0
 30
0.0
 40
1.0
 50
0.0
 51
90.0
  0
ARC
  8
OUTLINE
  6
CONTINUOUS
 62
     3
 10
147.0
 20
-9.0
 30
0.0
 40
1.0
 50
270.0
 51
0.0
  0
LINE
  8
OUTLINE
  6
CONTINUOUS
 62
     3
 10
147.0
 20
-8.0
 30
0.0
 11
146.0
 21
-8.0
 31
0.0
  0
ARC
  8
OUTLINE
  6
CONTINUOUS
 62
     3
 10
146.0
 20
-7.0
 30
0.0
 40
1.0
 50
180.0
 51
270.0
  0
LINE
  8
OUTLINE
  6
CONTINUOUS
 62
     3
 10
147.0
 20
-10.0
 30
0.0
 11
146.0
 21
-10.0
 31
0.0
  0
ARC
  8
OUTLINE
  6
CONTINUOUS
 62
     3
 10
146.0
 20
-11.0
 30
0.0
 40
1.0
 50
90.0
 51
180.0
  0
ARC
  8
OUTLINE
  6
CONTINUOUS
 62
     3
 10
128.58058800000001
 20
3.4194079999999758
 30
0.0
 40
20.0
 50
309.7363409999993
 51
320.2636590000007
  0
LINE
  8
OUTLINE
  6
CONTINUOUS
 62
     3
 10
145.0
 20
-10.68905599999999
 30
0.0
 11
145.0
 21
0.0
 31
0.0
  0
ARC
  8
OUTLINE
  6
CONTINUOUS
 62
     3
 10
140.5
 20
-6.489056000000005
 30
0.0
 40
4.5
 50
320.2636590000007
 51
0.0
  0
ARC
  8
OUTLINE
  6
CONTINUOUS
 62
     3
 10
140.5
 20
-10.68905599999999
 30
0.0
 40
4.5
 50
320.2636590000007
 51
0.0
  0
LINE
  8
OUTLINE
  6
CONTINUOUS
 62
     3
 10
72.849360000000047
 20
187.5
 30
0.0
 11
95.849360000000047
 21
187.5
 31
0.0
  0
LINE
  8
OUTLINE
  6
CONTINUOUS
 62
     3
 10
71.849360000000047
 20
182.5
 30
0.0
 11
76.849360000000047
 21
182.5
 31
0.0
  0
LINE
  8
OUTLINE
  6
CONTINUOUS
 62
     3
 10
-38.950000000000053
 20
199.5
 30
0.0
 11
0.0
 21
199.5
 31
0.0
  0
LINE
  8
OUTLINE
  6
CONTINUOUS
 62
     3
 10
-44.450000000000053
 20
194.0
 30
0.0
 11
-44.450000000000053
 21
171.0
 31
0.0
  0
ARC
  8
OUTLINE
  6
CONTINUOUS
 62
     3
 10
-59.508423999999991
 20
169.0
 30
0.0
 40
2.0
 50
90.0
 51
178.99999999999821
  0
ARC
  8
OUTLINE
  6
CONTINUOUS
 62
     3
 10
-38.950000000000053
 20
194.0
 30
0.0
 40
5.5
 50
90.0
 51
180.0
  0
LINE
  8
OUTLINE
  6
CONTINUOUS
 62
     3
 10
17.5
 20
202.40000000000001
 30
0.0
 11
69.034660000000031
 21
202.40000000000001
 31
0.0
  0
LINE
  8
OUTLINE
  6
CONTINUOUS
 62
     3
 10
33.508420000000001
 20
171.0
 30
0.0
 11
69.034660000000031
 21
171.0
 31
0.0
  0
ARC
  8
OUTLINE
  6
CONTINUOUS
 62
     3
 10
33.508420000000001
 20
169.0
 30
0.0
 40
2.0
 50
0.9999999999952606
 51
90.0
  0
LINE
  8
OUTLINE
  6
CONTINUOUS
 62
     3
 10
69.034660000000031
 20
202.40000000000001
 30
0.0
 11
69.034660000000031
 21
171.0
 31
0.0
  0
ARC
  8
OUTLINE
  6
CONTINUOUS
 62
     3
 10
72.849360000000047
 20
186.5
 30
0.0
 40
1.0
 50
90.0
 51
180.0
  0
LINE
  8
OUTLINE
  6
CONTINUOUS
 62
     3
 10
96.849360000000047
 20
186.5
 30
0.0
 11
96.849360000000047
 21
182.5
 31
0.0
  0
LINE
  8
OUTLINE
  6
CONTINUOUS
 62
     3
 10
76.849360000000047
 20
182.5
 30
0.0
 11
96.849360000000047
 21
182.5
 31
0.0
  0
LINE
  8
OUTLINE
  6
CONTINUOUS
 62
     3
 10
96.849360000000047
 20
182.5
 30
0.0
 11
100.349436
 21
182.5
 31
0.0
  0
LINE
  8
OUTLINE
  6
CONTINUOUS
 62
     3
 10
102.3491320000001
 20
180.53490400000001
 30
0.0
 11
102.50024000000001
 21
171.87780799999999
 31
0.0
  0
ARC
  8
OUTLINE
  6
CONTINUOUS
 62
     3
 10
100.349436
 20
180.5
 30
0.0
 40
2.0
 50
0.9999999999952606
 51
90.0
  0
LINE
  8
OUTLINE
  6
CONTINUOUS
 62
     3
 10
92.047452000000021
 20
196.24253200000001
 30
0.0
 11
94.233087999999952
 21
187.5
 31
0.0
  0
LINE
  8
OUTLINE
  6
CONTINUOUS
 62
     3
 10
91.077312000000006
 20
197.0
 30
0.0
 11
82.642667999999958
 21
197.0
 31
0.0
  0
ARC
  8
OUTLINE
  6
CONTINUOUS
 62
     3
 10
82.642667999999958
 20
196.0
 30
0.0
 40
1.0
 50
90.0
 51
166.23413299999919
  0
LINE
  8
OUTLINE
  6
CONTINUOUS
 62
     3
 10
79.530664000000002
 20
187.5
 30
0.0
 11
81.671391999999969
 21
196.23795200000001
 31
0.0
  0
ARC
  8
OUTLINE
  6
CONTINUOUS
 62
     3
 10
91.077312000000006
 20
196.0
 30
0.0
 40
1.0
 50
14.03624299999721
 51
90.0
  0
ARC
  8
OUTLINE
  6
CONTINUOUS
 62
     3
 10
95.849360000000047
 20
186.5
 30
0.0
 40
1.0
 50
0.0
 51
90.0
  0
LINE
  8
BASIS
  6
DASHDOT
 62
     6
 10
135.880269
 20
110.00026800000001
 30
0.0
 11
262.75650000000002
 21
110.00026800000001
 31
0.0
  0
LINE
  8
SIZE
  6
CONTINUOUS
 62
    30
 10
240.00065199999989
 20
159.00026
 30
0.0
 11
574.26549599999998
 21
159.00026
 31
0.0
  0
LINE
  8
SIZE
  6
CONTINUOUS
 62
    30
 10
240.85581999999999
 20
61.007722999999999
 30
0.0
 11
574.26549599999998
 21
61.007722999999999
 31
0.0
  0
LINE
  8
SIZE
  6
CONTINUOUS
 62
    30
 10
554.26549599999998
 20
73.007722999999999
 30
0.0
 11
554.26549599999998
 21
147.00026
 31
0.0
  0
LINE
  8
SIZE
  6
CONTINUOUS
 62
    30
 10
554.26549599999998
 20
159.00026
 30
0.0
 11
554.26549599999998
 21
395.66853099999997
 31
0.0
  0
CIRCLE
  8
SIZE
  6
CONTINUOUS
 62
    30
 10
554.26549599999998
 20
61.007722999999999
 30
0.0
 40
6.0
  0
LINE
  8
SIZE
  6
CONTINUOUS
 62
    30
 10
554.26549599999998
 20
61.007722999999999
 30
0.0
 11
554.26549599999998
 21
73.007722999999999
 31
0.0
  0
CIRCLE
  8
SIZE
  6
CONTINUOUS
 62
    30
 10
554.26549599999998
 20
159.00026
 30
0.0
 40
6.0
  0
LINE
  8
SIZE
  6
CONTINUOUS
 62
    30
 10
554.26549599999998
 20
159.00026
 30
0.0
 11
554.26549599999998
 21
147.00026
 31
0.0
  0
TEXT
  8
SIZE
  6
CONTINUOUS
 62
    30
 10
529.26549599999998
 20
208.2913885714286
 30
0.0
 40
64.0
  1
φ98
 50
90.0
 41
0.9
 72
     1
 11
529.26549599999998
 21
295.23996
 31
0.0
  0
POINT
  8
DEFPOINTS
  6
CONTINUOUS
 62
    30
 10
220.00065199999989
 20
159.00026
 30
0.0
  0
POINT
  8
DEFPOINTS
  6
CONTINUOUS
 62
    30
 10
220.85581999999999
 20
61.007722999999999
 30
0.0
  0
POINT
  8
DEFPOINTS
  6
CONTINUOUS
 62
    30
 10
554.26549599999998
 20
61.007722999999999
 30
0.0
  0
LINE
  8
SIZE
  6
CONTINUOUS
 62
    30
 10
240.85581999999999
 20
61.007722999999999
 30
0.0
 11
693.58405200000016
 21
61.007722999999999
 31
0.0
  0
LINE
  8
SIZE
  6
CONTINUOUS
 62
    30
 10
203.34636
 20
165.91635999999991
 30
0.0
 11
693.58405200000016
 21
165.91635999999991
 31
0.0
  0
LINE
  8
SIZE
  6
CONTINUOUS
 62
    30
 10
673.58405200000016
 20
73.007722999999999
 30
0.0
 11
673.58405200000016
 21
153.91635999999991
 31
0.0
  0
LINE
  8
SIZE
  6
CONTINUOUS
 62
    30
 10
673.58405200000016
 20
165.91635999999991
 30
0.0
 11
673.58405200000016
 21
422.65921700000001
 31
0.0
  0
CIRCLE
  8
SIZE
  6
CONTINUOUS
 62
    30
 10
673.58405200000016
 20
61.007722999999999
 30
0.0
 40
6.0
  0
LINE
  8
SIZE
  6
CONTINUOUS
 62
    30
 10
673.58405200000016
 20
61.007722999999999
 30
0.0
 11
673.58405200000016
 21
73.007722999999999
 31
0.0
  0
CIRCLE
  8
SIZE
  6
CONTINUOUS
 62
    30
 10
673.58405200000016
 20
165.91635999999991
 30
0.0
 40
6.0
  0
LINE
  8
SIZE
  6
CONTINUOUS
 62
    30
 10
673.58405200000016
 20
165.91635999999991
 30
0.0
 11
673.58405200000016
 21
153.91635999999991
 31
0.0
  0
TEXT
  8
SIZE
  6
CONTINUOUS
 62
    30
 10
648.58405200000016
 20
191.3963604285714
 30
0.0
 40
64.0
  1
φ105
 50
90.0
 41
0.9
 72
     1
 11
648.58405200000016
 21
300.28778899999998
 31
0.0
  0
POINT
  8
DEFPOINTS
  6
CONTINUOUS
 62
    30
 10
220.85581999999999
 20
61.007722999999999
 30
0.0
  0
POINT
  8
DEFPOINTS
  6
CONTINUOUS
 62
    30
 10
183.34636
 20
165.91635999999991
 30
0.0
  0
POINT
  8
DEFPOINTS
  6
CONTINUOUS
 62
    30
 10
673.58405200000016
 20
165.91635999999991
 30
0.0
  0
LINE
  8
SIZE
  6
CONTINUOUS
 62
    30
 10
220.00065199999989
 20
175.49196499999991
 30
0.0
 11
220.00065199999989
 21
437.01174200000003
 31
0.0
  0
LINE
  8
SIZE
  6
CONTINUOUS
 62
    30
 10
190.00065199999989
 20
175.49196499999991
 30
0.0
 11
190.00065199999989
 21
437.01174200000003
 31
0.0
  0
LINE
  8
SIZE
  6
CONTINUOUS
 62
    30
 10
178.00065199999989
 20
417.01174200000003
 30
0.0
 11
166.0006519999998
 21
417.01174200000003
 31
0.0
  0
LINE
  8
SIZE
  6
CONTINUOUS
 62
    30
 10
232.00065199999989
 20
417.01174200000003
 30
0.0
 11
387.25779499999999
 21
417.01174200000003
 31
0.0
  0
LINE
  8
SIZE
  6
CONTINUOUS
 62
    30
 10
190.00065199999989
 20
417.01174200000003
 30
0.0
 11
220.00065199999989
 21
417.01174200000003
 31
0.0
  0
CIRCLE
  8
SIZE
  6
CONTINUOUS
 62
    30
 10
190.00065199999989
 20
417.01174200000003
 30
0.0
 40
6.0
  0
LINE
  8
SIZE
  6
CONTINUOUS
 62
    30
 10
190.00065199999989
 20
417.01174200000003
 30
0.0
 11
178.00065199999989
 21
417.01174200000003
 31
0.0
  0
CIRCLE
  8
SIZE
  6
CONTINUOUS
 62
    30
 10
220.00065199999989
 20
417.01174200000003
 30
0.0
 40
6.0
  0
LINE
  8
SIZE
  6
CONTINUOUS
 62
    30
 10
220.00065199999989
 20
417.01174200000003
 30
0.0
 11
232.00065199999989
 21
417.01174200000003
 31
0.0
  0
TEXT
  8
SIZE
  6
CONTINUOUS
 62
    30
 10
269.00065157142848
 20
442.01174200000003
 30
0.0
 40
64.0
  1
30
 41
0.9
 72
     1
 11
315.62922299999991
 21
442.01174200000003
 31
0.0
  0
POINT
  8
DEFPOINTS
  6
CONTINUOUS
 62
    30
 10
220.00065199999989
 20
155.49196499999991
 30
0.0
  0
POINT
  8
DEFPOINTS
  6
CONTINUOUS
 62
    30
 10
190.00065199999989
 20
155.49196499999991
 30
0.0
  0
POINT
  8
DEFPOINTS
  6
CONTINUOUS
 62
    30
 10
190.00065199999989
 20
417.01174200000003
 30
0.0
  0
LINE
  8
SIZE
  6
CONTINUOUS
 62
    30
 10
220.00065199999989
 20
175.49196499999991
 30
0.0
 11
220.00065199999989
 21
558.99407799999994
 31
0.0
  0
LINE
  8
SIZE
  6
CONTINUOUS
 62
    30
 10
162.0006519999998
 20
188.89526000000001
 30
0.0
 11
162.0006519999998
 21
558.99407799999994
 31
0.0
  0
LINE
  8
SIZE
  6
CONTINUOUS
 62
    30
 10
150.0006519999998
 20
538.99407799999994
 30
0.0
 11
138.0006519999998
 21
538.99407799999994
 31
0.0
  0
LINE
  8
SIZE
  6
CONTINUOUS
 62
    30
 10
232.00065199999989
 20
538.99407799999994
 30
0.0
 11
387.25779499999999
 21
538.99407799999994
 31
0.0
  0
LINE
  8
SIZE
  6
CONTINUOUS
 62
    30
 10
162.0006519999998
 20
538.99407799999994
 30
0.0
 11
220.00065199999989
 21
538.99407799999994
 31
0.0
  0
CIRCLE
  8
SIZE
  6
CONTINUOUS
 62
    30
 10
162.0006519999998
 20
538.99407799999994
 30
0.0
 40
6.0
  0
LINE
  8
SIZE
  6
CONTINUOUS
 62
    30
 10
162.0006519999998
 20
538.99407799999994
 30
0.0
 11
150.0006519999998
 21
538.99407799999994
 31
0.0
  0
CIRCLE
  8
SIZE
  6
CONTINUOUS
 62
    30
 10
220.00065199999989
 20
538.99407799999994
 30
0.0
 40
6.0
  0
LINE
  8
SIZE
  6
CONTINUOUS
 62
    30
 10
220.00065199999989
 20
538.99407799999994
 30
0.0
 11
232.00065199999989
 21
538.99407799999994
 31
0.0
  0
TEXT
  8
SIZE
  6
CONTINUOUS
 62
    30
 10
269.00065157142848
 20
563.99407799999994
 30
0.0
 40
64.0
  1
58
 41
0.9
 72
     1
 11
315.62922299999991
 21
563.99407799999994
 31
0.0
  0
POINT
  8
DEFPOINTS
  6
CONTINUOUS
 62
    30
 10
220.00065199999989
 20
155.49196499999991
 30
0.0
  0
POINT
  8
DEFPOINTS
  6
CONTINUOUS
 62
    30
 10
162.0006519999998
 20
168.89526000000001
 30
0.0
  0
POINT
  8
DEFPOINTS
  6
CONTINUOUS
 62
    30
 10
162.0006519999998
 20
538.99407799999994
 30
0.0
  0
LINE
  8
SIZE
  6
CONTINUOUS
 62
    30
 10
220.00065199999989
 20
175.49196499999991
 30
0.0
 11
220.00065199999989
 21
676.97699599999987
 31
0.0
  0
LINE
  8
SIZE
  6
CONTINUOUS
 62
    30
 10
232.7527
 20
145.73885200000001
 30
0.0
 11
232.7527
 21
676.97699599999987
 31
0.0
  0
LINE
  8
SIZE
  6
CONTINUOUS
 62
    30
 10
208.00065199999989
 20
656.97699599999987
 30
0.0
 11
196.00065199999989
 21
656.97699599999987
 31
0.0
  0
LINE
  8
SIZE
  6
CONTINUOUS
 62
    30
 10
244.7527
 20
656.97699599999987
 30
0.0
 11
505.88412899999997
 21
656.97699599999987
 31
0.0
  0
LINE
  8
SIZE
  6
CONTINUOUS
 62
    30
 10
220.00065199999989
 20
656.97699599999987
 30
0.0
 11
232.7527
 21
656.97699599999987
 31
0.0
  0
CIRCLE
  8
SIZE
  6
CONTINUOUS
 62
    30
 10
220.00065199999989
 20
656.97699599999987
 30
0.0
 40
6.0
  0
LINE
  8
SIZE
  6
CONTINUOUS
 62
    30
 10
220.00065199999989
 20
656.97699599999987
 30
0.0
 11
208.00065199999989
 21
656.97699599999987
 31
0.0
  0
CIRCLE
  8
SIZE
  6
CONTINUOUS
 62
    30
 10
232.7527
 20
656.97699599999987
 30
0.0
 40
6.0
  0
LINE
  8
SIZE
  6
CONTINUOUS
 62
    30
 10
232.7527
 20
656.97699599999987
 30
0.0
 11
244.7527
 21
656.97699599999987
 31
0.0
  0
TEXT
  8
SIZE
  6
CONTINUOUS
 62
    30
 10
272.42698542857153
 20
681.97699599999987
 30
0.0
 40
64.0
  1
（13）
 41
0.9
 72
     1
 11
381.31841400000008
 21
681.97699599999987
 31
0.0
  0
POINT
  8
DEFPOINTS
  6
CONTINUOUS
 62
    30
 10
220.00065199999989
 20
155.49196499999991
 30
0.0
  0
POINT
  8
DEFPOINTS
  6
CONTINUOUS
 62
    30
 10
232.7527
 20
125.73885199999999
 30
0.0
  0
POINT
  8
DEFPOINTS
  6
CONTINUOUS
 62
    30
 10
232.7527
 20
656.97699599999987
 30
0.0
  0
LINE
  8
SIZE
  6
CONTINUOUS
 62
    30
 10
102.3491320000001
 20
200.53490400000001
 30
0.0
 11
102.3491320000001
 21
676.97699599999987
 31
0.0
  0
LINE
  8
SIZE
  6
CONTINUOUS
 62
    30
 10
220.00065199999989
 20
175.49196499999991
 30
0.0
 11
220.00065199999989
 21
676.97699599999987
 31
0.0
  0
LINE
  8
SIZE
  6
CONTINUOUS
 62
    30
 10
90.349132000000054
 20
656.97699599999987
 30
0.0
 11
78.34913199999994
 21
656.97699599999987
 31
0.0
  0
LINE
  8
SIZE
  6
CONTINUOUS
 62
    30
 10
232.00065199999989
 20
656.97699599999987
 30
0.0
 11
244.00065199999989
 21
656.97699599999987
 31
0.0
  0
LINE
  8
SIZE
  6
CONTINUOUS
 62
    30
 10
102.3491320000001
 20
656.97699599999987
 30
0.0
 11
220.00065199999989
 21
656.97699599999987
 31
0.0
  0
CIRCLE
  8
SIZE
  6
CONTINUOUS
 62
    30
 10
102.3491320000001
 20
656.97699599999987
 30
0.0
 40
6.0
  0
LINE
  8
SIZE
  6
CONTINUOUS
 62
    30
 10
102.3491320000001
 20
656.97699599999987
 30
0.0
 11
90.349132000000054
 21
656.97699599999987
 31
0.0
  0
CIRCLE
  8
SIZE
  6
CONTINUOUS
 62
    30
 10
220.00065199999989
 20
656.97699599999987
 30
0.0
 40
6.0
  0
LINE
  8
SIZE
  6
CONTINUOUS
 62
    30
 10
220.00065199999989
 20
656.97699599999987
 30
0.0
 11
232.00065199999989
 21
656.97699599999987
 31
0.0
  0
TEXT
  8
SIZE
  6
CONTINUOUS
 62
    30
 10
98.089177714285725
 20
681.97699599999987
 30
0.0
 40
64.0
  1
118
 41
0.9
 72
     1
 11
161.174892
 21
681.97699599999987
 31
0.0
  0
POINT
  8
DEFPOINTS
  6
CONTINUOUS
 62
    30
 10
102.3491320000001
 20
180.53490400000001
 30
0.0
  0
POINT
  8
DEFPOINTS
  6
CONTINUOUS
 62
    30
 10
220.00065199999989
 20
155.49196499999991
 30
0.0
  0
POINT
  8
DEFPOINTS
  6
CONTINUOUS
 62
    30
 10
220.00065199999989
 20
656.97699599999987
 30
0.0
  0
LINE
  8
SIZE
  6
CONTINUOUS
 62
    30
 10
-102.555684
 20
160.03490400000001
 30
0.0
 11
-102.555684
 21
676.97699599999987
 31
0.0
  0
LINE
  8
SIZE
  6
CONTINUOUS
 62
    30
 10
-144.99999600000001
 20
59.5
 30
0.0
 11
-144.99999600000001
 21
676.97699599999987
 31
0.0
  0
LINE
  8
SIZE
  6
CONTINUOUS
 62
    30
 10
-90.555684000000042
 20
656.97699599999987
 30
0.0
 11
-78.555684000000042
 21
656.97699599999987
 31
0.0
  0
LINE
  8
SIZE
  6
CONTINUOUS
 62
    30
 10
-156.99999600000001
 20
656.97699599999987
 30
0.0
 11
-732.462853
 21
656.97699599999987
 31
0.0
  0
LINE
  8
SIZE
  6
CONTINUOUS
 62
    30
 10
-102.555684
 20
656.97699599999987
 30
0.0
 11
-144.99999600000001
 21
656.97699599999987
 31
0.0
  0
CIRCLE
  8
SIZE
  6
CONTINUOUS
 62
    30
 10
-102.555684
 20
656.97699599999987
 30
0.0
 40
6.0
  0
LINE
  8
SIZE
  6
CONTINUOUS
 62
    30
 10
-102.555684
 20
656.97699599999987
 30
0.0
 11
-90.555684000000042
 21
656.97699599999987
 31
0.0
  0
CIRCLE
  8
SIZE
  6
CONTINUOUS
 62
    30
 10
-144.99999600000001
 20
656.97699599999987
 30
0.0
 40
6.0
  0
LINE
  8
SIZE
  6
CONTINUOUS
 62
    30
 10
-144.99999600000001
 20
656.97699599999987
 30
0.0
 11
-156.99999600000001
 21
656.97699599999987
 31
0.0
  0
TEXT
  8
SIZE
  6
CONTINUOUS
 62
    30
 10
-689.908567857143
 20
681.97699599999987
 30
0.0
 40
64.0
  1
42（最大寸法）
 41
0.9
 72
     1
 11
-450.73142500000012
 21
681.97699599999987
 31
0.0
  0
POINT
  8
DEFPOINTS
  6
CONTINUOUS
 62
    30
 10
-102.555684
 20
140.03490400000001
 30
0.0
  0
POINT
  8
DEFPOINTS
  6
CONTINUOUS
 62
    30
 10
-144.99999600000001
 20
39.5
 30
0.0
  0
POINT
  8
DEFPOINTS
  6
CONTINUOUS
 62
    30
 10
-144.99999600000001
 20
656.97699599999987
 30
0.0
  0
LINE
  8
SIZE
  6
CONTINUOUS
 62
    30
 10
102.3491320000001
 20
200.53490400000001
 30
0.0
 11
102.3491320000001
 21
499.00276300000002
 31
0.0
  0
LINE
  8
SIZE
  6
CONTINUOUS
 62
    30
 10
143.000304
 20
60.0
 30
0.0
 11
143.000304
 21
499.00276300000002
 31
0.0
  0
LINE
  8
SIZE
  6
CONTINUOUS
 62
    30
 10
155.000304
 20
479.00276300000002
 30
0.0
 11
167.000304
 21
479.00276300000002
 31
0.0
  0
LINE
  8
SIZE
  6
CONTINUOUS
 62
    30
 10
90.349132000000054
 20
479.00276300000002
 30
0.0
 11
-40.222297000000033
 21
479.00276300000002
 31
0.0
  0
LINE
  8
SIZE
  6
CONTINUOUS
 62
    30
 10
143.000304
 20
479.00276300000002
 30
0.0
 11
102.3491320000001
 21
479.00276300000002
 31
0.0
  0
CIRCLE
  8
SIZE
  6
CONTINUOUS
 62
    30
 10
143.000304
 20
479.00276300000002
 30
0.0
 40
6.0
  0
LINE
  8
SIZE
  6
CONTINUOUS
 62
    30
 10
143.000304
 20
479.00276300000002
 30
0.0
 11
155.000304
 21
479.00276300000002
 31
0.0
  0
CIRCLE
  8
SIZE
  6
CONTINUOUS
 62
    30
 10
102.3491320000001
 20
479.00276300000002
 30
0.0
 40
6.0
  0
LINE
  8
SIZE
  6
CONTINUOUS
 62
    30
 10
102.3491320000001
 20
479.00276300000002
 30
0.0
 11
90.349132000000054
 21
479.00276300000002
 31
0.0
  0
TEXT
  8
SIZE
  6
CONTINUOUS
 62
    30
 10
-15.22229628571432
 20
504.00276300000002
 30
0.0
 40
64.0
  1
41
 41
0.9
 72
     1
 11
19.06341799999996
 21
504.00276300000002
 31
0.0
  0
POINT
  8
DEFPOINTS
  6
CONTINUOUS
 62
    30
 10
102.3491320000001
 20
180.53490400000001
 30
0.0
  0
POINT
  8
DEFPOINTS
  6
CONTINUOUS
 62
    30
 10
143.000304
 20
40.0
 30
0.0
  0
POINT
  8
DEFPOINTS
  6
CONTINUOUS
 62
    30
 10
143.000304
 20
479.00276300000002
 30
0.0
  0
LINE
  8
SIZE
  6
CONTINUOUS
 62
    30
 10
-165.0
 20
0.0
 30
0.0
 11
-283.25435900000002
 21
0.0
 31
0.0
  0
LINE
  8
SIZE
  6
CONTINUOUS
 62
    30
 10
-164.99999600000001
 20
38.300000000000011
 30
0.0
 11
-283.25435900000002
 21
38.300000000000011
 31
0.0
  0
LINE
  8
SIZE
  6
CONTINUOUS
 62
    30
 10
-263.25435900000002
 20
-12.0
 30
0.0
 11
-263.25435900000002
 21
-24.0
 31
0.0
  0
LINE
  8
SIZE
  6
CONTINUOUS
 62
    30
 10
-263.25435900000002
 20
50.300000000000011
 30
0.0
 11
-263.25435900000002
 21
205.557143
 31
0.0
  0
LINE
  8
SIZE
  6
CONTINUOUS
 62
    30
 10
-263.25435900000002
 20
0.0
 30
0.0
 11
-263.25435900000002
 21
38.300000000000011
 31
0.0
  0
CIRCLE
  8
SIZE
  6
CONTINUOUS
 62
    30
 10
-263.25435900000002
 20
0.0
 30
0.0
 40
6.0
  0
LINE
  8
SIZE
  6
CONTINUOUS
 62
    30
 10
-263.25435900000002
 20
0.0
 30
0.0
 11
-263.25435900000002
 21
-12.0
 31
0.0
  0
CIRCLE
  8
SIZE
  6
CONTINUOUS
 62
    30
 10
-263.25435900000002
 20
38.300000000000011
 30
0.0
 40
6.0
  0
LINE
  8
SIZE
  6
CONTINUOUS
 62
    30
 10
-263.25435900000002
 20
38.300000000000011
 30
0.0
 11
-263.25435900000002
 21
50.300000000000011
 31
0.0
  0
TEXT
  8
SIZE
  6
CONTINUOUS
 62
    30
 10
-288.25435900000002
 20
87.299999571428614
 30
0.0
 40
64.0
  1
38
 50
90.0
 41
0.9
 72
     1
 11
-288.25435900000002
 21
133.92857100000001
 31
0.0
  0
POINT
  8
DEFPOINTS
  6
CONTINUOUS
 62
    30
 10
-145.0
 20
0.0
 30
0.0
  0
POINT
  8
DEFPOINTS
  6
CONTINUOUS
 62
    30
 10
-144.99999600000001
 20
38.300000000000011
 30
0.0
  0
POINT
  8
DEFPOINTS
  6
CONTINUOUS
 62
    30
 10
-263.25435900000002
 20
38.300000000000011
 30
0.0
  0
ARC
  8
DETAIL
  6
DASHED
 62
     5
 10
161.0006519999998
 20
138.390672
 30
0.0
 40
73.004384000000002
 50
270.0
 51
349.37212599999839
  0
LINE
  8
DETAIL
  6
DASHED
 62
     5
 10
232.7527
 20
124.926508
 30
0.0
 11
190.47489599999989
 21
132.38122799999999
 31
0.0
  0
LINE
  8
DETAIL
  6
DASHED
 62
     5
 10
232.7527
 20
125.73885199999999
 30
0.0
 11
190.544884
 21
133.181228
 31
0.0
  0
LINE
  8
DETAIL
  6
CONTINUOUS
 62
     5
 10
-100.555988
 20
142.0
 30
0.0
 11
49.363519999999987
 21
142.0
 31
0.0
  0
LINE
  8
DETAIL
  6
CONTINUOUS
 62
     5
 10
-66.601099999999974
 20
83.930000000000007
 30
0.0
 11
-103.53499600000001
 21
83.930000000000007
 31
0.0
  0
LINE
  8
DETAIL
  6
CONTINUOUS
 62
     5
 10
-72.5
 20
0.0
 30
0.0
 11
-62.5
 21
0.0
 31
0.0
  0
LINE
  8
DETAIL
  6
CONTINUOUS
 62
     5
 10
-71.25454400000001
 20
77.5
 30
0.0
 11
-66.502920000000017
 21
82.5
 31
0.0
  0
LINE
  8
DETAIL
  6
CONTINUOUS
 62
     5
 10
-70.741512000000057
 20
77.5
 30
0.0
 11
-65.989892000000054
 21
82.5
 31
0.0
  0
LINE
  8
DETAIL
  6
CONTINUOUS
 62
     5
 10
-24.519804000000018
 20
77.5
 30
0.0
 11
-101.68183999999999
 21
77.5
 31
0.0
  0
LINE
  8
DETAIL
  6
CONTINUOUS
 62
     5
 10
138.48905199999999
 20
-13.0
 30
0.0
 11
-144.36128800000009
 21
-13.0
 31
0.0
  0
ARC
  8
DETAIL
  6
CONTINUOUS
 62
     5
 10
-70.982844
 20
-16.699999999999989
 30
0.0
 40
0.5
 50
270.0
 51
357.99999999999619
  0
LINE
  8
DETAIL
  6
CONTINUOUS
 62
     5
 10
145.0
 20
0.0
 30
0.0
 11
-145.0
 21
0.0
 31
0.0
  0
LINE
  8
DETAIL
  6
CONTINUOUS
 62
     5
 10
-105.0
 20
0.0
 30
0.0
 11
-102.555684
 21
140.03490400000001
 31
0.0
  0
LINE
  8
DETAIL
  6
CONTINUOUS
 62
     5
 10
-119.775612
 20
41.5
 30
0.0
 11
-120.499996
 21
0.0
 31
0.0
  0
ARC
  8
DETAIL
  6
CONTINUOUS
 62
     5
 10
-128.580592
 20
-0.7805920000000128
 30
0.0
 40
20.0
 50
219.7363409999993
 51
230.2636590000007
  0
LINE
  8
DETAIL
  6
CONTINUOUS
 62
     5
 10
-145.0
 20
0.0
 30
0.0
 11
-145.0
 21
-10.867652000000019
 31
0.0
  0
ARC
  8
DETAIL
  6
CONTINUOUS
 62
     5
 10
-146.0
 20
-7.0
 30
0.0
 40
1.0
 50
270.0
 51
0.0
  0
ARC
  8
DETAIL
  6
CONTINUOUS
 62
     5
 10
-145.99120400000001
 20
-11.0
 30
0.0
 40
1.0
 50
3.240998999999702
 51
90.0
  0
ARC
  8
DETAIL
  6
CONTINUOUS
 62
     5
 10
-147.0
 20
-9.0
 30
0.0
 40
1.0
 50
90.0
 51
180.0
  0
ARC
  8
DETAIL
  6
CONTINUOUS
 62
     5
 10
-147.0
 20
-9.0
 30
0.0
 40
1.0
 50
180.0
 51
270.0
  0
LINE
  8
DETAIL
  6
CONTINUOUS
 62
     5
 10
-147.0
 20
-8.0
 30
0.0
 11
-146.0
 21
-8.0
 31
0.0
  0
LINE
  8
DETAIL
  6
CONTINUOUS
 62
     5
 10
-147.0
 20
-10.0
 30
0.0
 11
-145.99120400000001
 21
-10.0
 31
0.0
  0
ARC
  8
DETAIL
  6
CONTINUOUS
 62
     5
 10
-140.5
 20
-10.68905599999999
 30
0.0
 40
4.5
 50
183.2409989999997
 51
219.7363409999993
  0
LINE
  8
DETAIL
  6
CONTINUOUS
 62
     5
 10
-143.49999199999999
 20
-0.0000079999999798
 30
0.0
 11
-78.553863999999976
 21
-0.0000079999999798
 31
0.0
  0
LINE
  8
DETAIL
  6
CONTINUOUS
 62
     5
 10
-104.982844
 20
-17.199999999999989
 30
0.0
 11
-107.517156
 21
-17.199999999999989
 31
0.0
  0
LINE
  8
DETAIL
  6
CONTINUOUS
 62
     5
 10
-112.8795239999999
 20
-13.75
 30
0.0
 11
-112.983152
 21
-16.71745199999998
 31
0.0
  0
LINE
  8
DETAIL
  6
CONTINUOUS
 62
     5
 10
-108.12040399999999
 20
-13.752103999999971
 30
0.0
 11
-108.016852
 21
-16.71745199999998
 31
0.0
  0
ARC
  8
DETAIL
  6
CONTINUOUS
 62
     5
 10
-138.48905199999999
 20
-12.69999999999999
 30
0.0
 40
4.5
 50
230.2636590000007
 51
270.0
  0
LINE
  8
DETAIL
  6
CONTINUOUS
 62
     5
 10
-113.482844
 20
-17.199999999999989
 30
0.0
 11
-138.48905199999999
 21
-17.199999999999989
 31
0.0
  0
ARC
  8
DETAIL
  6
CONTINUOUS
 62
     5
 10
-113.482844
 20
-16.699999999999989
 30
0.0
 40
0.5
 50
270.0
 51
357.99999999999619
  0
ARC
  8
DETAIL
  6
CONTINUOUS
 62
     5
 10
-107.517156
 20
-16.699999999999989
 30
0.0
 40
0.5
 50
182.00000000000369
 51
270.0
  0
LINE
  8
DETAIL
  6
CONTINUOUS
 62
     5
 10
-122.5
 20
0.0
 30
0.0
 11
-112.5
 21
0.0
 31
0.0
  0
LINE
  8
DETAIL
  6
CONTINUOUS
 62
     5
 10
-117.5
 20
0.0
 30
0.0
 11
-118.22685199999999
 21
0.0
 31
0.0
  0
LINE
  8
DETAIL
  6
CONTINUOUS
 62
     5
 10
-108.1204760000001
 20
-13.75
 30
0.0
 11
-112.8795239999999
 21
-13.75
 31
0.0
  0
LINE
  8
DETAIL
  6
CONTINUOUS
 62
     5
 10
-104.37959600000001
 20
-13.752103999999971
 30
0.0
 11
-104.483152
 21
-16.71745199999998
 31
0.0
  0
LINE
  8
DETAIL
  6
CONTINUOUS
 62
     5
 10
-74.120404000000008
 20
-13.752103999999971
 30
0.0
 11
-74.016851999999972
 21
-16.71745199999998
 31
0.0
  0
LINE
  8
DETAIL
  6
CONTINUOUS
 62
     5
 10
-82.620404000000008
 20
-13.752103999999971
 30
0.0
 11
-82.516851999999972
 21
-16.71745199999998
 31
0.0
  0
LINE
  8
DETAIL
  6
CONTINUOUS
 62
     5
 10
-78.879595999999992
 20
-13.752103999999971
 30
0.0
 11
-78.983152000000018
 21
-16.71745199999998
 31
0.0
  0
LINE
  8
DETAIL
  6
CONTINUOUS
 62
     5
 10
-91.120404000000008
 20
-13.752103999999971
 30
0.0
 11
-91.016851999999972
 21
-16.71745199999998
 31
0.0
  0
LINE
  8
DETAIL
  6
CONTINUOUS
 62
     5
 10
-87.379595999999992
 20
-13.752103999999971
 30
0.0
 11
-87.483152000000018
 21
-16.71745199999998
 31
0.0
  0
LINE
  8
DETAIL
  6
CONTINUOUS
 62
     5
 10
-95.879595999999992
 20
-13.752103999999971
 30
0.0
 11
-95.983152000000018
 21
-16.71745199999998
 31
0.0
  0
LINE
  8
DETAIL
  6
CONTINUOUS
 62
     5
 10
-99.620404000000008
 20
-13.752103999999971
 30
0.0
 11
-99.516851999999972
 21
-16.71745199999998
 31
0.0
  0
LINE
  8
DETAIL
  6
CONTINUOUS
 62
     5
 10
-87.982844
 20
-17.199999999999989
 30
0.0
 11
-90.517156
 21
-17.199999999999989
 31
0.0
  0
LINE
  8
DETAIL
  6
CONTINUOUS
 62
     5
 10
-96.482844
 20
-17.199999999999989
 30
0.0
 11
-99.017156
 21
-17.199999999999989
 31
0.0
  0
ARC
  8
DETAIL
  6
CONTINUOUS
 62
     5
 10
-104.982844
 20
-16.699999999999989
 30
0.0
 40
0.5
 50
270.0
 51
357.99999999999619
  0
ARC
  8
DETAIL
  6
CONTINUOUS
 62
     5
 10
-99.017156
 20
-16.699999999999989
 30
0.0
 40
0.5
 50
182.00000000000369
 51
270.0
  0
ARC
  8
DETAIL
  6
CONTINUOUS
 62
     5
 10
-90.517156
 20
-16.699999999999989
 30
0.0
 40
0.5
 50
182.00000000000369
 51
270.0
  0
ARC
  8
DETAIL
  6
CONTINUOUS
 62
     5
 10
-96.482844
 20
-16.699999999999989
 30
0.0
 40
0.5
 50
270.0
 51
357.99999999999619
  0
LINE
  8
DETAIL
  6
CONTINUOUS
 62
     5
 10
-79.482844
 20
-17.199999999999989
 30
0.0
 11
-82.017156
 21
-17.199999999999989
 31
0.0
  0
ARC
  8
DETAIL
  6
CONTINUOUS
 62
     5
 10
-82.017156
 20
-16.699999999999989
 30
0.0
 40
0.5
 50
182.00000000000369
 51
270.0
  0
ARC
  8
DETAIL
  6
CONTINUOUS
 62
     5
 10
-87.982844
 20
-16.699999999999989
 30
0.0
 40
0.5
 50
270.0
 51
357.99999999999619
  0
ARC
  8
DETAIL
  6
CONTINUOUS
 62
     5
 10
-73.517156
 20
-16.699999999999989
 30
0.0
 40
0.5
 50
182.00000000000369
 51
270.0
  0
LINE
  8
DETAIL
  6
CONTINUOUS
 62
     5
 10
-70.982844
 20
-17.199999999999989
 30
0.0
 11
-73.517156
 21
-17.199999999999989
 31
0.0
  0
ARC
  8
DETAIL
  6
CONTINUOUS
 62
     5
 10
-79.482844
 20
-16.699999999999989
 30
0.0
 40
0.5
 50
270.0
 51
357.99999999999619
  0
LINE
  8
DETAIL
  6
CONTINUOUS
 62
     5
 10
-99.620476000000053
 20
-13.75
 30
0.0
 11
-104.3795239999999
 21
-13.75
 31
0.0
  0
LINE
  8
DETAIL
  6
CONTINUOUS
 62
     5
 10
-91.120476000000053
 20
-13.75
 30
0.0
 11
-95.879523999999947
 21
-13.75
 31
0.0
  0
LINE
  8
DETAIL
  6
CONTINUOUS
 62
     5
 10
-82.62047599999994
 20
-13.75
 30
0.0
 11
-87.379523999999947
 21
-13.75
 31
0.0
  0
LINE
  8
DETAIL
  6
CONTINUOUS
 62
     5
 10
-74.12047599999994
 20
-13.75
 30
0.0
 11
-78.879523999999947
 21
-13.75
 31
0.0
  0
LINE
  8
DETAIL
  6
CONTINUOUS
 62
     5
 10
-144.99999600000001
 20
38.300000000000011
 30
0.0
 11
-119.831468
 21
38.300000000000011
 31
0.0
  0
LINE
  8
DETAIL
  6
CONTINUOUS
 62
     5
 10
-144.99999600000001
 20
39.5
 30
0.0
 11
-119.810524
 21
39.5
 31
0.0
  0
LINE
  8
DETAIL
  6
CONTINUOUS
 62
     5
 10
-144.99999600000001
 20
39.5
 30
0.0
 11
-144.99999600000001
 21
38.300000000000011
 31
0.0
  0
LINE
  8
DETAIL
  6
CONTINUOUS
 62
     5
 10
-104.275616
 20
41.5
 30
0.0
 11
-119.775612
 21
41.5
 31
0.0
  0
ARC
  8
DETAIL
  6
CONTINUOUS
 62
     5
 10
-101.68183999999999
 20
75.5
 30
0.0
 40
2.0
 50
90.0
 51
178.99999999999821
  0
ARC
  8
DETAIL
  6
CONTINUOUS
 62
     5
 10
-100.555988
 20
140.0
 30
0.0
 40
2.0
 50
90.0
 51
178.99999999999821
  0
LINE
  8
DETAIL
  6
CONTINUOUS
 62
     5
 10
-61.508119999999963
 20
169.03490400000001
 30
0.0
 11
-61.962863999999968
 21
142.98254399999999
 31
0.0
  0
LINE
  8
DETAIL
  6
CONTINUOUS
 62
     5
 10
35.508115999999973
 20
169.03490400000001
 30
0.0
 11
35.962863999999968
 21
142.98254399999999
 31
0.0
  0
LINE
  8
DETAIL
  6
CONTINUOUS
 62
     5
 10
145.0006519999998
 20
156.11797999999999
 30
0.0
 11
145.0006519999998
 21
60.389380000000017
 31
0.0
  0
LINE
  8
DETAIL
  6
CONTINUOUS
 62
     5
 10
183.34636
 20
165.91635999999991
 30
0.0
 11
190.00065199999989
 21
60.738452000000002
 31
0.0
  0
LINE
  8
DETAIL
  6
CONTINUOUS
 62
     5
 10
190.00065199999989
 20
60.738452000000002
 30
0.0
 11
190.00065199999989
 21
159.26206400000001
 31
0.0
  0
LINE
  8
DETAIL
  6
CONTINUOUS
 62
     5
 10
102.50024000000001
 20
171.87780799999999
 30
0.0
 11
105.0
 21
0.0
 31
0.0
  0
LINE
  8
DETAIL
  6
CONTINUOUS
 62
     5
 10
71.849360000000047
 20
186.5
 30
0.0
 11
71.849360000000047
 21
142.5
 31
0.0
  0
LINE
  8
DETAIL
  6
CONTINUOUS
 62
     5
 10
220.00065199999989
 20
61.000260000000033
 30
0.0
 11
220.00065199999989
 21
159.00026
 31
0.0
  0
LINE
  8
DETAIL
  6
CONTINUOUS
 62
     5
 10
78.879523999999947
 20
-13.75
 30
0.0
 11
74.12047599999994
 21
-13.75
 31
0.0
  0
LINE
  8
DETAIL
  6
CONTINUOUS
 62
     5
 10
47.521380000000022
 20
142.0
 30
0.0
 11
50.0
 21
0.0
 31
0.0
  0
LINE
  8
DETAIL
  6
CONTINUOUS
 62
     5
 10
-63.097147999999947
 20
0.0
 30
0.0
 11
-61.744379999999978
 21
77.5
 31
0.0
  0
LINE
  8
DETAIL
  6
CONTINUOUS
 62
     5
 10
62.433719999999987
 20
15.5
 30
0.0
 11
61.68398000000002
 21
142.5
 31
0.0
  0
ARC
  8
DETAIL
  6
CONTINUOUS
 62
     5
 10
53.13389600000005
 20
18.5
 30
0.0
 40
3.0
 50
180.9999999999952
 51
270.0
  0
ARC
  8
DETAIL
  6
CONTINUOUS
 62
     5
 10
28.0
 20
15.5
 30
0.0
 40
2.0
 50
0.0
 51
90.0
  0
LINE
  8
DETAIL
  6
CONTINUOUS
 62
     5
 10
12.5
 20
19.0
 30
0.0
 11
12.5
 21
12.5
 31
0.0
  0
LINE
  8
DETAIL
  6
CONTINUOUS
 62
     5
 10
14.5
 20
17.5
 30
0.0
 11
14.5
 21
14.5
 31
0.0
  0
LINE
  8
DETAIL
  6
CONTINUOUS
 62
     5
 10
19.5
 20
14.5
 30
0.0
 11
19.5
 21
17.5
 31
0.0
  0
LINE
  8
DETAIL
  6
CONTINUOUS
 62
     5
 10
7.0
 20
16.0
 30
0.0
 11
7.0
 21
19.0
 31
0.0
  0
LINE
  8
DETAIL
  6
CONTINUOUS
 62
     5
 10
9.0
 20
16.0
 30
0.0
 11
9.0
 21
19.0
 31
0.0
  0
LINE
  8
DETAIL
  6
CONTINUOUS
 62
     5
 10
14.30272000000002
 20
14.5
 30
0.0
 11
14.30272000000002
 21
17.5
 31
0.0
  0
ARC
  8
DETAIL
  6
CONTINUOUS
 62
     5
 10
-28.0
 20
15.5
 30
0.0
 40
2.0
 50
90.0
 51
180.0
  0
LINE
  8
DETAIL
  6
CONTINUOUS
 62
     5
 10
-12.5
 20
19.0
 30
0.0
 11
-12.5
 21
12.5
 31
0.0
  0
LINE
  8
DETAIL
  6
CONTINUOUS
 62
     5
 10
-14.5
 20
17.5
 30
0.0
 11
-14.5
 21
14.5
 31
0.0
  0
LINE
  8
DETAIL
  6
CONTINUOUS
 62
     5
 10
-19.5
 20
14.5
 30
0.0
 11
-19.5
 21
17.5
 31
0.0
  0
LINE
  8
DETAIL
  6
CONTINUOUS
 62
     5
 10
-7.0
 20
16.0
 30
0.0
 11
-7.0
 21
19.0
 31
0.0
  0
LINE
  8
DETAIL
  6
CONTINUOUS
 62
     5
 10
-9.0
 20
16.0
 30
0.0
 11
-9.0
 21
19.0
 31
0.0
  0
LINE
  8
DETAIL
  6
CONTINUOUS
 62
     5
 10
-14.30272400000001
 20
14.5
 30
0.0
 11
-14.30272400000001
 21
17.5
 31
0.0
  0
LINE
  8
DETAIL
  6
CONTINUOUS
 62
     5
 10
2.3795959999999918
 20
-13.752103999999971
 30
0.0
 11
2.4831480000000279
 21
-16.71745199999998
 31
0.0
  0
ARC
  8
DETAIL
  6
CONTINUOUS
 62
     5
 10
2.9828440000000001
 20
-16.699999999999989
 30
0.0
 40
0.5
 50
182.00000000000369
 51
270.0
  0
LINE
  8
DETAIL
  6
CONTINUOUS
 62
     5
 10
17.21788000000004
 20
11.23738400000002
 30
0.0
 11
0.0
 21
11.23738400000002
 31
0.0
  0
LINE
  8
DETAIL
  6
CONTINUOUS
 62
     5
 10
17.73185599999999
 20
12.23738400000002
 30
0.0
 11
0.0
 21
12.23738400000002
 31
0.0
  0
LINE
  8
DETAIL
  6
CONTINUOUS
 62
     5
 10
5.5892760000000408
 20
2.5
 30
0.0
 11
-5.5892760000000408
 21
2.5
 31
0.0
  0
ARC
  8
DETAIL
  6
CONTINUOUS
 62
     5
 10
0.0
 20
8.5
 30
0.0
 40
8.1999999999999975
 50
214.07453799999999
 51
325.92546199999998
  0
LINE
  8
DETAIL
  6
CONTINUOUS
 62
     5
 10
-31.62047600000005
 20
-13.75
 30
0.0
 11
-36.379523999999947
 21
-13.75
 31
0.0
  0
LINE
  8
DETAIL
  6
CONTINUOUS
 62
     5
 10
-40.120404000000008
 20
-13.752103999999971
 30
0.0
 11
-40.016851999999972
 21
-16.71745199999998
 31
0.0
  0
LINE
  8
DETAIL
  6
CONTINUOUS
 62
     5
 10
-36.379595999999992
 20
-13.752103999999971
 30
0.0
 11
-36.483152000000018
 21
-16.71745199999998
 31
0.0
  0
LINE
  8
DETAIL
  6
CONTINUOUS
 62
     5
 10
-48.620404000000008
 20
-13.752103999999971
 30
0.0
 11
-48.516851999999972
 21
-16.71745199999998
 31
0.0
  0
LINE
  8
DETAIL
  6
CONTINUOUS
 62
     5
 10
-44.879595999999992
 20
-13.752103999999971
 30
0.0
 11
-44.983152000000018
 21
-16.71745199999998
 31
0.0
  0
LINE
  8
DETAIL
  6
CONTINUOUS
 62
     5
 10
-57.120404000000008
 20
-13.752103999999971
 30
0.0
 11
-57.016851999999972
 21
-16.71745199999998
 31
0.0
  0
LINE
  8
DETAIL
  6
CONTINUOUS
 62
     5
 10
-53.379595999999992
 20
-13.752103999999971
 30
0.0
 11
-53.483152000000018
 21
-16.71745199999998
 31
0.0
  0
LINE
  8
DETAIL
  6
CONTINUOUS
 62
     5
 10
-65.620404000000008
 20
-13.752103999999971
 30
0.0
 11
-65.516851999999972
 21
-16.71745199999998
 31
0.0
  0
LINE
  8
DETAIL
  6
CONTINUOUS
 62
     5
 10
-61.879595999999992
 20
-13.752103999999971
 30
0.0
 11
-61.983152000000018
 21
-16.71745199999998
 31
0.0
  0
LINE
  8
DETAIL
  6
CONTINUOUS
 62
     5
 10
-70.379595999999992
 20
-13.752103999999971
 30
0.0
 11
-70.483152000000018
 21
-16.71745199999998
 31
0.0
  0
ARC
  8
DETAIL
  6
CONTINUOUS
 62
     5
 10
-65.017156
 20
-16.699999999999989
 30
0.0
 40
0.5
 50
182.00000000000369
 51
270.0
  0
LINE
  8
DETAIL
  6
CONTINUOUS
 62
     5
 10
-62.482844
 20
-17.199999999999989
 30
0.0
 11
-65.017156
 21
-17.199999999999989
 31
0.0
  0
ARC
  8
DETAIL
  6
CONTINUOUS
 62
     5
 10
-62.482844
 20
-16.699999999999989
 30
0.0
 40
0.5
 50
270.0
 51
357.99999999999619
  0
ARC
  8
DETAIL
  6
CONTINUOUS
 62
     5
 10
-56.517156
 20
-16.699999999999989
 30
0.0
 40
0.5
 50
182.00000000000369
 51
270.0
  0
LINE
  8
DETAIL
  6
CONTINUOUS
 62
     5
 10
-53.982844
 20
-17.199999999999989
 30
0.0
 11
-56.517156
 21
-17.199999999999989
 31
0.0
  0
ARC
  8
DETAIL
  6
CONTINUOUS
 62
     5
 10
-53.982844
 20
-16.699999999999989
 30
0.0
 40
0.5
 50
270.0
 51
357.99999999999619
  0
ARC
  8
DETAIL
  6
CONTINUOUS
 62
     5
 10
-48.017156
 20
-16.699999999999989
 30
0.0
 40
0.5
 50
182.00000000000369
 51
270.0
  0
LINE
  8
DETAIL
  6
CONTINUOUS
 62
     5
 10
-45.482844
 20
-17.199999999999989
 30
0.0
 11
-48.017156
 21
-17.199999999999989
 31
0.0
  0
ARC
  8
DETAIL
  6
CONTINUOUS
 62
     5
 10
-45.482844
 20
-16.699999999999989
 30
0.0
 40
0.5
 50
270.0
 51
357.99999999999619
  0
ARC
  8
DETAIL
  6
CONTINUOUS
 62
     5
 10
-39.517156
 20
-16.699999999999989
 30
0.0
 40
0.5
 50
182.00000000000369
 51
270.0
  0
LINE
  8
DETAIL
  6
CONTINUOUS
 62
     5
 10
-36.982844
 20
-17.199999999999989
 30
0.0
 11
-39.517156
 21
-17.199999999999989
 31
0.0
  0
ARC
  8
DETAIL
  6
CONTINUOUS
 62
     5
 10
-36.982844
 20
-16.699999999999989
 30
0.0
 40
0.5
 50
270.0
 51
357.99999999999619
  0
LINE
  8
DETAIL
  6
CONTINUOUS
 62
     5
 10
-48.620476000000053
 20
-13.75
 30
0.0
 11
-53.379523999999947
 21
-13.75
 31
0.0
  0
LINE
  8
DETAIL
  6
CONTINUOUS
 62
     5
 10
-57.120476000000053
 20
-13.75
 30
0.0
 11
-61.879523999999947
 21
-13.75
 31
0.0
  0
LINE
  8
DETAIL
  6
CONTINUOUS
 62
     5
 10
-67.5
 20
0.0
 30
0.0
 11
-68.226852000000008
 21
0.0
 31
0.0
  0
LINE
  8
DETAIL
  6
CONTINUOUS
 62
     5
 10
-65.620476000000053
 20
-13.75
 30
0.0
 11
-70.379523999999947
 21
-13.75
 31
0.0
  0
LINE
  8
DETAIL
  6
CONTINUOUS
 62
     5
 10
-40.120476000000053
 20
-13.75
 30
0.0
 11
-44.879523999999947
 21
-13.75
 31
0.0
  0
LINE
  8
DETAIL
  6
CONTINUOUS
 62
     5
 10
-6.1204040000000077
 20
-13.752103999999971
 30
0.0
 11
-6.0168519999999717
 21
-16.71745199999998
 31
0.0
  0
LINE
  8
DETAIL
  6
CONTINUOUS
 62
     5
 10
-2.3795959999999918
 20
-13.752103999999971
 30
0.0
 11
-2.4831520000000178
 21
-16.71745199999998
 31
0.0
  0
LINE
  8
DETAIL
  6
CONTINUOUS
 62
     5
 10
-14.62040400000001
 20
-13.752103999999971
 30
0.0
 11
-14.51685199999997
 21
-16.71745199999998
 31
0.0
  0
LINE
  8
DETAIL
  6
CONTINUOUS
 62
     5
 10
-10.87959599999999
 20
-13.752103999999971
 30
0.0
 11
-10.98315200000002
 21
-16.71745199999998
 31
0.0
  0
LINE
  8
DETAIL
  6
CONTINUOUS
 62
     5
 10
-23.120404000000011
 20
-13.752103999999971
 30
0.0
 11
-23.016851999999972
 21
-16.71745199999998
 31
0.0
  0
LINE
  8
DETAIL
  6
CONTINUOUS
 62
     5
 10
-19.379595999999989
 20
-13.752103999999971
 30
0.0
 11
-19.483152000000018
 21
-16.71745199999998
 31
0.0
  0
LINE
  8
DETAIL
  6
CONTINUOUS
 62
     5
 10
-31.620404000000011
 20
-13.752103999999971
 30
0.0
 11
-31.516851999999972
 21
-16.71745199999998
 31
0.0
  0
LINE
  8
DETAIL
  6
CONTINUOUS
 62
     5
 10
-27.879595999999989
 20
-13.752103999999971
 30
0.0
 11
-27.983152000000018
 21
-16.71745199999998
 31
0.0
  0
ARC
  8
DETAIL
  6
CONTINUOUS
 62
     5
 10
-31.017156
 20
-16.699999999999989
 30
0.0
 40
0.5
 50
182.00000000000369
 51
270.0
  0
LINE
  8
DETAIL
  6
CONTINUOUS
 62
     5
 10
-28.482844
 20
-17.199999999999989
 30
0.0
 11
-31.017156
 21
-17.199999999999989
 31
0.0
  0
ARC
  8
DETAIL
  6
CONTINUOUS
 62
     5
 10
-28.482844
 20
-16.699999999999989
 30
0.0
 40
0.5
 50
270.0
 51
357.99999999999619
  0
ARC
  8
DETAIL
  6
CONTINUOUS
 62
     5
 10
-22.517156
 20
-16.699999999999989
 30
0.0
 40
0.5
 50
182.00000000000369
 51
270.0
  0
LINE
  8
DETAIL
  6
CONTINUOUS
 62
     5
 10
-19.982844
 20
-17.199999999999989
 30
0.0
 11
-22.517156
 21
-17.199999999999989
 31
0.0
  0
ARC
  8
DETAIL
  6
CONTINUOUS
 62
     5
 10
-19.982844
 20
-16.699999999999989
 30
0.0
 40
0.5
 50
270.0
 51
357.99999999999619
  0
ARC
  8
DETAIL
  6
CONTINUOUS
 62
     5
 10
-14.017156
 20
-16.699999999999989
 30
0.0
 40
0.5
 50
182.00000000000369
 51
270.0
  0
LINE
  8
DETAIL
  6
CONTINUOUS
 62
     5
 10
-11.482844
 20
-17.199999999999989
 30
0.0
 11
-14.017156
 21
-17.199999999999989
 31
0.0
  0
ARC
  8
DETAIL
  6
CONTINUOUS
 62
     5
 10
-11.482844
 20
-16.699999999999989
 30
0.0
 40
0.5
 50
270.0
 51
357.99999999999619
  0
ARC
  8
DETAIL
  6
CONTINUOUS
 62
     5
 10
-5.5171559999999999
 20
-16.699999999999989
 30
0.0
 40
0.5
 50
182.00000000000369
 51
270.0
  0
LINE
  8
DETAIL
  6
CONTINUOUS
 62
     5
 10
-2.9828440000000001
 20
-17.199999999999989
 30
0.0
 11
-5.5171559999999999
 21
-17.199999999999989
 31
0.0
  0
ARC
  8
DETAIL
  6
CONTINUOUS
 62
     5
 10
-2.9828440000000001
 20
-16.699999999999989
 30
0.0
 40
0.5
 50
270.0
 51
357.99999999999619
  0
LINE
  8
DETAIL
  6
CONTINUOUS
 62
     5
 10
-14.62047600000005
 20
-13.75
 30
0.0
 11
-19.37952399999995
 21
-13.75
 31
0.0
  0
LINE
  8
DETAIL
  6
CONTINUOUS
 62
     5
 10
-17.21788000000004
 20
11.23738400000002
 30
0.0
 11
0.0
 21
11.23738400000002
 31
0.0
  0
LINE
  8
DETAIL
  6
CONTINUOUS
 62
     5
 10
-17.73185999999998
 20
12.23738400000002
 30
0.0
 11
0.0
 21
12.23738400000002
 31
0.0
  0
LINE
  8
DETAIL
  6
CONTINUOUS
 62
     5
 10
-12.5
 20
12.5
 30
0.0
 11
-17.209803999999959
 21
12.5
 31
0.0
  0
LINE
  8
DETAIL
  6
CONTINUOUS
 62
     5
 10
-14.30272400000001
 20
14.5
 30
0.0
 11
-20.5
 21
14.5
 31
0.0
  0
LINE
  8
DETAIL
  6
CONTINUOUS
 62
     5
 10
-19.5
 20
0.0
 30
0.0
 11
-19.5
 21
12.5
 31
0.0
  0
LINE
  8
DETAIL
  6
CONTINUOUS
 62
     5
 10
-30.0
 20
0.0
 30
0.0
 11
-30.0
 21
15.5
 31
0.0
  0
LINE
  8
DETAIL
  6
CONTINUOUS
 62
     5
 10
-23.12047600000005
 20
-13.75
 30
0.0
 11
-27.87952399999995
 21
-13.75
 31
0.0
  0
LINE
  8
DETAIL
  6
CONTINUOUS
 62
     5
 10
-18.155824000000049
 20
14.5
 30
0.0
 11
-18.217380000000048
 21
12.268987999999981
 31
0.0
  0
LINE
  8
DETAIL
  6
CONTINUOUS
 62
     5
 10
-17.154664000000029
 20
14.5
 30
0.0
 11
-17.21140000000003
 21
12.442088000000011
 31
0.0
  0
ARC
  8
DETAIL
  6
CONTINUOUS
 62
     5
 10
-17.73185999999998
 20
11.73738400000002
 30
0.0
 40
0.5
 50
90.0
 51
153.41108400000431
  0
ARC
  8
DETAIL
  6
CONTINUOUS
 62
     5
 10
-17.011455999999949
 20
12.43738400000001
 30
0.0
 40
0.2
 50
178.18886499999749
 51
270.0
  0
ARC
  8
DETAIL
  6
CONTINUOUS
 62
     5
 10
-17.21788000000004
 20
12.23738400000002
 30
0.0
 40
1.0
 50
178.18886499999749
 51
270.0
  0
LINE
  8
DETAIL
  6
CONTINUOUS
 62
     5
 10
-18.211007999999989
 20
12.5
 30
0.0
 11
-20.5
 21
12.5
 31
0.0
  0
LINE
  8
DETAIL
  6
CONTINUOUS
 62
     5
 10
-20.5
 20
12.5
 30
0.0
 11
-20.5
 21
14.5
 31
0.0
  0
LINE
  8
DETAIL
  6
CONTINUOUS
 62
     5
 10
-13.5
 20
11.23738400000002
 30
0.0
 11
-13.5
 21
0.0
 31
0.0
  0
LINE
  8
DETAIL
  6
CONTINUOUS
 62
     5
 10
-6.9829640000000381
 20
3.6294080000000122
 30
0.0
 11
-7.9554600000000164
 21
0.0
 31
0.0
  0
ARC
  8
DETAIL
  6
CONTINUOUS
 62
     5
 10
0.0
 20
8.5
 30
0.0
 40
10.0
 50
221.7397890000031
 51
238.21166900000199
  0
LINE
  8
DETAIL
  6
CONTINUOUS
 62
     5
 10
-6.1204760000000533
 20
-13.75
 30
0.0
 11
-10.87952399999995
 21
-13.75
 31
0.0
  0
LINE
  8
DETAIL
  6
CONTINUOUS
 62
     5
 10
2.3795239999999471
 20
-13.75
 30
0.0
 11
-2.3795239999999471
 21
-13.75
 31
0.0
  0
ARC
  8
DETAIL
  6
CONTINUOUS
 62
     5
 10
-6.5
 20
3.5
 30
0.0
 40
0.5
 50
0.0
 51
164.99999999999929
  0
LINE
  8
DETAIL
  6
CONTINUOUS
 62
     5
 10
-13.5
 20
12.5
 30
0.0
 11
-13.5
 21
12.23738400000002
 31
0.0
  0
ARC
  8
DETAIL
  6
CONTINUOUS
 62
     5
 10
-8.0
 20
16.0
 30
0.0
 40
1.0
 50
180.0
 51
0.0
  0
LINE
  8
DETAIL
  6
CONTINUOUS
 62
     5
 10
-6.0
 20
2.9107240000000161
 30
0.0
 11
-6.0
 21
3.5
 31
0.0
  0
LINE
  8
DETAIL
  6
CONTINUOUS
 62
     5
 10
39.517156
 20
-17.199999999999989
 30
0.0
 11
36.982844
 21
-17.199999999999989
 31
0.0
  0
LINE
  8
DETAIL
  6
CONTINUOUS
 62
     5
 10
36.379595999999992
 20
-13.752103999999971
 30
0.0
 11
36.483148000000028
 21
-16.71745199999998
 31
0.0
  0
LINE
  8
DETAIL
  6
CONTINUOUS
 62
     5
 10
27.879595999999989
 20
-13.752103999999971
 30
0.0
 11
27.983148000000028
 21
-16.71745199999998
 31
0.0
  0
LINE
  8
DETAIL
  6
CONTINUOUS
 62
     5
 10
31.620404000000011
 20
-13.752103999999971
 30
0.0
 11
31.516847999999982
 21
-16.71745199999998
 31
0.0
  0
LINE
  8
DETAIL
  6
CONTINUOUS
 62
     5
 10
19.379595999999989
 20
-13.752103999999971
 30
0.0
 11
19.483148000000028
 21
-16.71745199999998
 31
0.0
  0
LINE
  8
DETAIL
  6
CONTINUOUS
 62
     5
 10
23.120404000000011
 20
-13.752103999999971
 30
0.0
 11
23.016847999999982
 21
-16.71745199999998
 31
0.0
  0
LINE
  8
DETAIL
  6
CONTINUOUS
 62
     5
 10
10.87959599999999
 20
-13.752103999999971
 30
0.0
 11
10.98314800000003
 21
-16.71745199999998
 31
0.0
  0
LINE
  8
DETAIL
  6
CONTINUOUS
 62
     5
 10
14.62040400000001
 20
-13.752103999999971
 30
0.0
 11
14.51684799999998
 21
-16.71745199999998
 31
0.0
  0
LINE
  8
DETAIL
  6
CONTINUOUS
 62
     5
 10
6.1204040000000077
 20
-13.752103999999971
 30
0.0
 11
6.0168479999999818
 21
-16.71745199999998
 31
0.0
  0
LINE
  8
DETAIL
  6
CONTINUOUS
 62
     5
 10
22.517156
 20
-17.199999999999989
 30
0.0
 11
19.982844
 21
-17.199999999999989
 31
0.0
  0
LINE
  8
DETAIL
  6
CONTINUOUS
 62
     5
 10
14.017156
 20
-17.199999999999989
 30
0.0
 11
11.482844
 21
-17.199999999999989
 31
0.0
  0
ARC
  8
DETAIL
  6
CONTINUOUS
 62
     5
 10
11.482844
 20
-16.699999999999989
 30
0.0
 40
0.5
 50
182.00000000000369
 51
270.0
  0
LINE
  8
DETAIL
  6
CONTINUOUS
 62
     5
 10
5.5171559999999999
 20
-17.199999999999989
 30
0.0
 11
2.9828440000000001
 21
-17.199999999999989
 31
0.0
  0
ARC
  8
DETAIL
  6
CONTINUOUS
 62
     5
 10
5.5171559999999999
 20
-16.699999999999989
 30
0.0
 40
0.5
 50
270.0
 51
357.99999999999619
  0
ARC
  8
DETAIL
  6
CONTINUOUS
 62
     5
 10
19.982844
 20
-16.699999999999989
 30
0.0
 40
0.5
 50
182.00000000000369
 51
270.0
  0
ARC
  8
DETAIL
  6
CONTINUOUS
 62
     5
 10
14.017156
 20
-16.699999999999989
 30
0.0
 40
0.5
 50
270.0
 51
357.99999999999619
  0
LINE
  8
DETAIL
  6
CONTINUOUS
 62
     5
 10
31.017156
 20
-17.199999999999989
 30
0.0
 11
28.482844
 21
-17.199999999999989
 31
0.0
  0
ARC
  8
DETAIL
  6
CONTINUOUS
 62
     5
 10
28.482844
 20
-16.699999999999989
 30
0.0
 40
0.5
 50
182.00000000000369
 51
270.0
  0
ARC
  8
DETAIL
  6
CONTINUOUS
 62
     5
 10
22.517156
 20
-16.699999999999989
 30
0.0
 40
0.5
 50
270.0
 51
357.99999999999619
  0
ARC
  8
DETAIL
  6
CONTINUOUS
 62
     5
 10
36.982844
 20
-16.699999999999989
 30
0.0
 40
0.5
 50
182.00000000000369
 51
270.0
  0
ARC
  8
DETAIL
  6
CONTINUOUS
 62
     5
 10
31.017156
 20
-16.699999999999989
 30
0.0
 40
0.5
 50
270.0
 51
357.99999999999619
  0
LINE
  8
DETAIL
  6
CONTINUOUS
 62
     5
 10
13.5
 20
11.23738400000002
 30
0.0
 11
13.5
 21
0.0
 31
0.0
  0
LINE
  8
DETAIL
  6
CONTINUOUS
 62
     5
 10
19.5
 20
0.0
 30
0.0
 11
19.5
 21
12.5
 31
0.0
  0
ARC
  8
DETAIL
  6
CONTINUOUS
 62
     5
 10
0.0
 20
8.5
 30
0.0
 40
10.0
 50
301.78833099999798
 51
318.2602109999969
  0
LINE
  8
DETAIL
  6
CONTINUOUS
 62
     5
 10
6.9829600000000482
 20
3.6294080000000122
 30
0.0
 11
7.9554600000000164
 21
0.0
 31
0.0
  0
LINE
  8
DETAIL
  6
CONTINUOUS
 62
     5
 10
10.87952399999995
 20
-13.75
 30
0.0
 11
6.1204760000000533
 21
-13.75
 31
0.0
  0
LINE
  8
DETAIL
  6
CONTINUOUS
 62
     5
 10
19.37952399999995
 20
-13.75
 30
0.0
 11
14.62047600000005
 21
-13.75
 31
0.0
  0
ARC
  8
DETAIL
  6
CONTINUOUS
 62
     5
 10
8.0
 20
16.0
 30
0.0
 40
1.0
 50
180.0
 51
0.0
  0
LINE
  8
DETAIL
  6
CONTINUOUS
 62
     5
 10
6.0
 20
2.9107240000000161
 30
0.0
 11
6.0
 21
3.5
 31
0.0
  0
ARC
  8
DETAIL
  6
CONTINUOUS
 62
     5
 10
6.5
 20
3.5
 30
0.0
 40
0.5
 50
15.000000000000741
 51
180.0
  0
LINE
  8
DETAIL
  6
CONTINUOUS
 62
     5
 10
18.155824000000049
 20
14.5
 30
0.0
 11
18.217380000000048
 21
12.268987999999981
 31
0.0
  0
LINE
  8
DETAIL
  6
CONTINUOUS
 62
     5
 10
17.154660000000039
 20
14.5
 30
0.0
 11
17.21140000000003
 21
12.442088000000011
 31
0.0
  0
ARC
  8
DETAIL
  6
CONTINUOUS
 62
     5
 10
17.73185599999999
 20
11.73738400000002
 30
0.0
 40
0.5
 50
26.588915999995731
 51
90.0
  0
ARC
  8
DETAIL
  6
CONTINUOUS
 62
     5
 10
17.011455999999949
 20
12.43738400000001
 30
0.0
 40
0.2
 50
270.0
 51
1.811135000002448
  0
ARC
  8
DETAIL
  6
CONTINUOUS
 62
     5
 10
17.21788000000004
 20
12.23738400000002
 30
0.0
 40
1.0
 50
270.0
 51
1.811135000002448
  0
LINE
  8
DETAIL
  6
CONTINUOUS
 62
     5
 10
18.211003999999999
 20
12.5
 30
0.0
 11
20.5
 21
12.5
 31
0.0
  0
LINE
  8
DETAIL
  6
CONTINUOUS
 62
     5
 10
12.5
 20
12.5
 30
0.0
 11
17.209803999999959
 21
12.5
 31
0.0
  0
LINE
  8
DETAIL
  6
CONTINUOUS
 62
     5
 10
13.5
 20
12.5
 30
0.0
 11
13.5
 21
12.23738400000002
 31
0.0
  0
LINE
  8
DETAIL
  6
CONTINUOUS
 62
     5
 10
20.5
 20
12.5
 30
0.0
 11
20.5
 21
14.5
 31
0.0
  0
LINE
  8
DETAIL
  6
CONTINUOUS
 62
     5
 10
14.30272000000002
 20
14.5
 30
0.0
 11
20.5
 21
14.5
 31
0.0
  0
LINE
  8
DETAIL
  6
CONTINUOUS
 62
     5
 10
30.0
 20
0.0
 30
0.0
 11
30.0
 21
15.5
 31
0.0
  0
LINE
  8
DETAIL
  6
CONTINUOUS
 62
     5
 10
27.87952399999995
 20
-13.75
 30
0.0
 11
23.12047600000005
 21
-13.75
 31
0.0
  0
LINE
  8
DETAIL
  6
CONTINUOUS
 62
     5
 10
36.379523999999947
 20
-13.75
 30
0.0
 11
31.62047600000005
 21
-13.75
 31
0.0
  0
LINE
  8
DETAIL
  6
CONTINUOUS
 62
     5
 10
44.879595999999992
 20
-13.752103999999971
 30
0.0
 11
44.983148000000028
 21
-16.71745199999998
 31
0.0
  0
LINE
  8
DETAIL
  6
CONTINUOUS
 62
     5
 10
40.120404000000008
 20
-13.752103999999971
 30
0.0
 11
40.016847999999982
 21
-16.71745199999998
 31
0.0
  0
LINE
  8
DETAIL
  6
CONTINUOUS
 62
     5
 10
70.379595999999992
 20
-13.752103999999971
 30
0.0
 11
70.483148000000028
 21
-16.71745199999998
 31
0.0
  0
LINE
  8
DETAIL
  6
CONTINUOUS
 62
     5
 10
74.120404000000008
 20
-13.752103999999971
 30
0.0
 11
74.016847999999982
 21
-16.71745199999998
 31
0.0
  0
LINE
  8
DETAIL
  6
CONTINUOUS
 62
     5
 10
61.879595999999992
 20
-13.752103999999971
 30
0.0
 11
61.983148000000028
 21
-16.71745199999998
 31
0.0
  0
LINE
  8
DETAIL
  6
CONTINUOUS
 62
     5
 10
65.620404000000008
 20
-13.752103999999971
 30
0.0
 11
65.516847999999982
 21
-16.71745199999998
 31
0.0
  0
LINE
  8
DETAIL
  6
CONTINUOUS
 62
     5
 10
53.379595999999992
 20
-13.752103999999971
 30
0.0
 11
53.483148000000028
 21
-16.71745199999998
 31
0.0
  0
LINE
  8
DETAIL
  6
CONTINUOUS
 62
     5
 10
57.120404000000008
 20
-13.752103999999971
 30
0.0
 11
57.016847999999982
 21
-16.71745199999998
 31
0.0
  0
LINE
  8
DETAIL
  6
CONTINUOUS
 62
     5
 10
48.620404000000008
 20
-13.752103999999971
 30
0.0
 11
48.516847999999982
 21
-16.71745199999998
 31
0.0
  0
ARC
  8
DETAIL
  6
CONTINUOUS
 62
     5
 10
48.017156
 20
-16.699999999999989
 30
0.0
 40
0.5
 50
270.0
 51
357.99999999999619
  0
ARC
  8
DETAIL
  6
CONTINUOUS
 62
     5
 10
45.482844
 20
-16.699999999999989
 30
0.0
 40
0.5
 50
182.00000000000369
 51
270.0
  0
ARC
  8
DETAIL
  6
CONTINUOUS
 62
     5
 10
39.517156
 20
-16.699999999999989
 30
0.0
 40
0.5
 50
270.0
 51
357.99999999999619
  0
LINE
  8
DETAIL
  6
CONTINUOUS
 62
     5
 10
48.017156
 20
-17.199999999999989
 30
0.0
 11
45.482844
 21
-17.199999999999989
 31
0.0
  0
ARC
  8
DETAIL
  6
CONTINUOUS
 62
     5
 10
53.982844
 20
-16.699999999999989
 30
0.0
 40
0.5
 50
182.00000000000369
 51
270.0
  0
LINE
  8
DETAIL
  6
CONTINUOUS
 62
     5
 10
56.517156
 20
-17.199999999999989
 30
0.0
 11
53.982844
 21
-17.199999999999989
 31
0.0
  0
ARC
  8
DETAIL
  6
CONTINUOUS
 62
     5
 10
56.517156
 20
-16.699999999999989
 30
0.0
 40
0.5
 50
270.0
 51
357.99999999999619
  0
ARC
  8
DETAIL
  6
CONTINUOUS
 62
     5
 10
62.482844
 20
-16.699999999999989
 30
0.0
 40
0.5
 50
182.00000000000369
 51
270.0
  0
LINE
  8
DETAIL
  6
CONTINUOUS
 62
     5
 10
65.017156
 20
-17.199999999999989
 30
0.0
 11
62.482844
 21
-17.199999999999989
 31
0.0
  0
ARC
  8
DETAIL
  6
CONTINUOUS
 62
     5
 10
65.017156
 20
-16.699999999999989
 30
0.0
 40
0.5
 50
270.0
 51
357.99999999999619
  0
ARC
  8
DETAIL
  6
CONTINUOUS
 62
     5
 10
70.982844
 20
-16.699999999999989
 30
0.0
 40
0.5
 50
182.00000000000369
 51
270.0
  0
LINE
  8
DETAIL
  6
CONTINUOUS
 62
     5
 10
73.517156
 20
-17.199999999999989
 30
0.0
 11
70.982844
 21
-17.199999999999989
 31
0.0
  0
ARC
  8
DETAIL
  6
CONTINUOUS
 62
     5
 10
73.517156
 20
-16.699999999999989
 30
0.0
 40
0.5
 50
270.0
 51
357.99999999999619
  0
LINE
  8
DETAIL
  6
CONTINUOUS
 62
     5
 10
53.13389600000005
 20
15.5
 30
0.0
 11
70.740448000000015
 21
15.5
 31
0.0
  0
LINE
  8
DETAIL
  6
CONTINUOUS
 62
     5
 10
61.879523999999947
 20
-13.75
 30
0.0
 11
57.120476000000053
 21
-13.75
 31
0.0
  0
LINE
  8
DETAIL
  6
CONTINUOUS
 62
     5
 10
44.879523999999947
 20
-13.75
 30
0.0
 11
40.120476000000053
 21
-13.75
 31
0.0
  0
LINE
  8
DETAIL
  6
CONTINUOUS
 62
     5
 10
53.379523999999947
 20
-13.75
 30
0.0
 11
48.620476000000053
 21
-13.75
 31
0.0
  0
LINE
  8
DETAIL
  6
CONTINUOUS
 62
     5
 10
63.356135999999992
 20
0.0
 30
0.0
 11
63.08558000000005
 21
15.5
 31
0.0
  0
LINE
  8
DETAIL
  6
CONTINUOUS
 62
     5
 10
72.740448000000015
 20
13.5
 30
0.0
 11
72.740448000000015
 21
0.0
 31
0.0
  0
LINE
  8
DETAIL
  6
CONTINUOUS
 62
     5
 10
70.379523999999947
 20
-13.75
 30
0.0
 11
65.620476000000053
 21
-13.75
 31
0.0
  0
LINE
  8
DETAIL
  6
CONTINUOUS
 62
     5
 10
67.5
 20
0.0
 30
0.0
 11
66.773147999999992
 21
0.0
 31
0.0
  0
ARC
  8
DETAIL
  6
CONTINUOUS
 62
     5
 10
70.740448000000015
 20
13.5
 30
0.0
 40
2.0
 50
0.0
 51
90.0
  0
LINE
  8
DETAIL
  6
CONTINUOUS
 62
     5
 10
2.3492320000000291
 20
63.733220000000017
 30
0.0
 11
2.4620200000000518
 21
63.328695999999979
 31
0.0
  0
LINE
  8
DETAIL
  6
CONTINUOUS
 62
     5
 10
2.4045640000000499
 20
63.845443999999993
 30
0.0
 11
2.4893359999999798
 21
63.409627999999998
 31
0.0
  0
LINE
  8
DETAIL
  6
CONTINUOUS
 62
     5
 10
2.4893359999999798
 20
62.966268000000007
 30
0.0
 11
2.4045640000000499
 21
62.530456000000022
 31
0.0
  0
LINE
  8
DETAIL
  6
CONTINUOUS
 62
     5
 10
2.3096960000000308
 20
83.05146000000002
 30
0.0
 11
2.451959999999985
 21
82.60075599999999
 31
0.0
  0
LINE
  8
DETAIL
  6
CONTINUOUS
 62
     5
 10
2.3096960000000308
 20
83.327911999999969
 30
0.0
 11
2.451959999999985
 21
82.877207999999996
 31
0.0
  0
LINE
  8
DETAIL
  6
CONTINUOUS
 62
     5
 10
2.451959999999985
 20
81.939772000000005
 30
0.0
 11
2.3096960000000308
 21
81.489067999999975
 31
0.0
  0
LINE
  8
DETAIL
  6
CONTINUOUS
 62
     5
 10
25.87911199999996
 20
53.49308400000001
 30
0.0
 11
0.0
 21
53.49308400000001
 31
0.0
  0
LINE
  8
DETAIL
  6
CONTINUOUS
 62
     5
 10
6.0
 20
94.493083999999953
 30
0.0
 11
0.0
 21
94.493083999999953
 31
0.0
  0
LINE
  8
DETAIL
  6
CONTINUOUS
 62
     5
 10
6.0
 20
95.493083999999953
 30
0.0
 11
0.0
 21
95.493083999999953
 31
0.0
  0
LINE
  8
DETAIL
  6
CONTINUOUS
 62
     5
 10
14.75
 20
91.493083999999953
 30
0.0
 11
0.0
 21
91.493083999999953
 31
0.0
  0
LINE
  8
DETAIL
  6
CONTINUOUS
 62
     5
 10
2.1213199999999688
 20
32.068183999999967
 30
0.0
 11
2.4944080000000208
 21
31.616963999999999
 31
0.0
  0
LINE
  8
DETAIL
  6
CONTINUOUS
 62
     5
 10
2.4944080000000208
 20
28.308387999999979
 30
0.0
 11
2.1213199999999688
 21
27.857168000000001
 31
0.0
  0
LINE
  8
DETAIL
  6
CONTINUOUS
 62
     5
 10
2.1213199999999688
 20
31.946316000000021
 30
0.0
 11
2.4944080000000208
 21
31.49509599999999
 31
0.0
  0
LINE
  8
DETAIL
  6
CONTINUOUS
 62
     5
 10
0.0
 20
17.5
 30
0.0
 11
5.6728520000000344
 21
17.5
 31
0.0
  0
LINE
  8
DETAIL
  6
CONTINUOUS
 62
     5
 10
0.0
 20
47.71217200000001
 30
0.0
 11
3.5
 21
47.71217200000001
 31
0.0
  0
LINE
  8
DETAIL
  6
CONTINUOUS
 62
     5
 10
0.0
 20
52.637459999999983
 30
0.0
 11
3.299999999999955
 21
52.637459999999983
 31
0.0
  0
LINE
  8
DETAIL
  6
CONTINUOUS
 62
     5
 10
0.0
 20
97.455816000000027
 30
0.0
 11
12.5
 21
97.455816000000027
 31
0.0
  0
LINE
  8
DETAIL
  6
CONTINUOUS
 62
     5
 10
-56.601099999999967
 20
78.5
 30
0.0
 11
-56.601099999999967
 21
86.0
 31
0.0
  0
LINE
  8
DETAIL
  6
CONTINUOUS
 62
     5
 10
-66.601099999999974
 20
82.396683999999993
 30
0.0
 11
-66.601099999999974
 21
86.0
 31
0.0
  0
LINE
  8
DETAIL
  6
CONTINUOUS
 62
     5
 10
0.0
 20
84.811059999999998
 30
0.0
 11
0.4877239999999574
 21
84.764892000000032
 31
0.0
  0
LINE
  8
DETAIL
  6
CONTINUOUS
 62
     5
 10
-0.4593760000000202
 20
84.770151999999996
 30
0.0
 11
0.0
 21
84.811059999999998
 31
0.0
  0
LINE
  8
DETAIL
  6
CONTINUOUS
 62
     5
 10
-14.75
 20
84.993083999999953
 30
0.0
 11
-14.75
 21
76.993083999999953
 31
0.0
  0
LINE
  8
DETAIL
  6
CONTINUOUS
 62
     5
 10
-23.019804000000018
 20
84.993083999999953
 30
0.0
 11
-23.019804000000018
 21
76.993083999999953
 31
0.0
  0
LINE
  8
DETAIL
  6
CONTINUOUS
 62
     5
 10
-24.519804000000018
 20
84.993083999999953
 30
0.0
 11
-24.519804000000018
 21
76.993083999999953
 31
0.0
  0
LINE
  8
DETAIL
  6
CONTINUOUS
 62
     5
 10
-24.519804000000018
 20
83.930000000000007
 30
0.0
 11
-56.601099999999967
 21
83.930000000000007
 31
0.0
  0
LINE
  8
DETAIL
  6
CONTINUOUS
 62
     5
 10
-51.947660000000042
 20
77.5
 30
0.0
 11
-56.601099999999967
 21
82.396683999999993
 31
0.0
  0
LINE
  8
DETAIL
  6
CONTINUOUS
 62
     5
 10
-65.989892000000054
 20
77.5
 30
0.0
 11
-65.989892000000054
 21
82.5
 31
0.0
  0
LINE
  8
DETAIL
  6
CONTINUOUS
 62
     5
 10
-66.502920000000017
 20
82.5
 30
0.0
 11
-65.989892000000054
 21
82.5
 31
0.0
  0
LINE
  8
DETAIL
  6
CONTINUOUS
 62
     5
 10
-59.205580000000047
 20
82.5
 30
0.0
 11
-60.615120000000047
 21
82.5
 31
0.0
  0
ARC
  8
DETAIL
  6
CONTINUOUS
 62
     5
 10
-55.601099999999967
 20
78.5
 30
0.0
 40
1.0
 50
180.0
 51
270.0
  0
LINE
  8
DETAIL
  6
CONTINUOUS
 62
     5
 10
-60.615120000000047
 20
77.5
 30
0.0
 11
-60.615120000000047
 21
82.5
 31
0.0
  0
LINE
  8
DETAIL
  6
CONTINUOUS
 62
     5
 10
-57.476132000000007
 20
77.5
 30
0.0
 11
-59.205580000000047
 21
82.5
 31
0.0
  0
LINE
  8
DETAIL
  6
CONTINUOUS
 62
     5
 10
-58.88566800000001
 20
77.5
 30
0.0
 11
-60.615120000000047
 21
82.5
 31
0.0
  0
LINE
  8
DETAIL
  6
CONTINUOUS
 62
     5
 10
-16.079596000000041
 20
53.49308400000001
 30
0.0
 11
-17.07195200000001
 21
17.5
 31
0.0
  0
LINE
  8
DETAIL
  6
CONTINUOUS
 62
     5
 10
-17.079960000000028
 20
53.49308400000001
 30
0.0
 11
-18.073051999999961
 21
17.5
 31
0.0
  0
LINE
  8
DETAIL
  6
CONTINUOUS
 62
     5
 10
-13.5
 20
53.49308400000001
 30
0.0
 11
-13.5
 21
18.490244000000018
 31
0.0
  0
LINE
  8
DETAIL
  6
CONTINUOUS
 62
     5
 10
-5.0
 20
46.75
 30
0.0
 11
-5.0
 21
53.49308400000001
 31
0.0
  0
LINE
  8
DETAIL
  6
CONTINUOUS
 62
     5
 10
-3.5
 20
46.75
 30
0.0
 11
-3.5
 21
52.437459999999987
 31
0.0
  0
LINE
  8
DETAIL
  6
CONTINUOUS
 62
     5
 10
-14.30272400000001
 20
17.5
 30
0.0
 11
-28.0
 21
17.5
 31
0.0
  0
LINE
  8
DETAIL
  6
CONTINUOUS
 62
     5
 10
-10.333939999999981
 20
17.5
 30
0.0
 11
-12.5
 21
17.5
 31
0.0
  0
LINE
  8
DETAIL
  6
CONTINUOUS
 62
     5
 10
-12.5
 20
19.0
 30
0.0
 11
-13.5
 21
19.0
 31
0.0
  0
ARC
  8
DETAIL
  6
CONTINUOUS
 62
     5
 10
-8.0
 20
19.0
 30
0.0
 40
1.0
 50
0.0
 51
180.0
  0
LINE
  8
DETAIL
  6
CONTINUOUS
 62
     5
 10
-12.5
 20
18.490244000000018
 30
0.0
 11
-13.5
 21
18.490244000000018
 31
0.0
  0
LINE
  8
DETAIL
  6
CONTINUOUS
 62
     5
 10
0.0
 20
32.940316000000003
 30
0.0
 11
0.5852680000000419
 21
32.883100000000013
 31
0.0
  0
LINE
  8
DETAIL
  6
CONTINUOUS
 62
     5
 10
0.5852680000000419
 20
32.883100000000013
 30
0.0
 11
1.1480480000000171
 21
32.713656000000007
 31
0.0
  0
LINE
  8
DETAIL
  6
CONTINUOUS
 62
     5
 10
1.1480480000000171
 20
32.713656000000007
 30
0.0
 11
1.666707999999971
 21
32.438491999999997
 31
0.0
  0
LINE
  8
DETAIL
  6
CONTINUOUS
 62
     5
 10
1.666707999999971
 20
32.438491999999997
 30
0.0
 11
2.1213199999999688
 21
32.068183999999967
 31
0.0
  0
LINE
  8
DETAIL
  6
CONTINUOUS
 62
     5
 10
2.1213199999999688
 20
27.857168000000001
 30
0.0
 11
1.666707999999971
 21
27.486859999999979
 31
0.0
  0
LINE
  8
DETAIL
  6
CONTINUOUS
 62
     5
 10
1.666707999999971
 20
27.486859999999979
 30
0.0
 11
1.1480480000000171
 21
27.211696000000021
 31
0.0
  0
LINE
  8
DETAIL
  6
CONTINUOUS
 62
     5
 10
1.1480480000000171
 20
27.211696000000021
 30
0.0
 11
0.5852680000000419
 21
27.042252000000019
 31
0.0
  0
LINE
  8
DETAIL
  6
CONTINUOUS
 62
     5
 10
0.5852680000000419
 20
27.042252000000019
 30
0.0
 11
0.0
 21
26.98504000000003
 31
0.0
  0
LINE
  8
DETAIL
  6
CONTINUOUS
 62
     5
 10
0.0
 20
32.818444
 30
0.0
 11
0.5852680000000419
 21
32.761232000000007
 31
0.0
  0
LINE
  8
DETAIL
  6
CONTINUOUS
 62
     5
 10
0.5852680000000419
 20
32.761232000000007
 30
0.0
 11
1.1480480000000171
 21
32.591788000000008
 31
0.0
  0
LINE
  8
DETAIL
  6
CONTINUOUS
 62
     5
 10
1.1480480000000171
 20
32.591788000000008
 30
0.0
 11
1.666707999999971
 21
32.31662399999999
 31
0.0
  0
LINE
  8
DETAIL
  6
CONTINUOUS
 62
     5
 10
1.666707999999971
 20
32.31662399999999
 30
0.0
 11
2.1213199999999688
 21
31.946316000000021
 31
0.0
  0
LINE
  8
DETAIL
  6
CONTINUOUS
 62
     5
 10
0.0
 20
17.5
 30
0.0
 11
-5.6728560000000243
 21
17.5
 31
0.0
  0
LINE
  8
DETAIL
  6
CONTINUOUS
 62
     5
 10
-3.0
 20
29.840807999999981
 30
0.0
 11
-2.9544240000000168
 21
30.357868
 31
0.0
  0
LINE
  8
DETAIL
  6
CONTINUOUS
 62
     5
 10
-2.9544240000000168
 20
30.357868
 30
0.0
 11
-2.8190799999999849
 21
30.85921999999999
 31
0.0
  0
LINE
  8
DETAIL
  6
CONTINUOUS
 62
     5
 10
-2.8190799999999849
 20
30.85921999999999
 30
0.0
 11
-2.5980759999999918
 21
31.32962800000001
 31
0.0
  0
LINE
  8
DETAIL
  6
CONTINUOUS
 62
     5
 10
-2.5980759999999918
 20
31.32962800000001
 30
0.0
 11
-2.298136
 21
31.754795999999999
 31
0.0
  0
LINE
  8
DETAIL
  6
CONTINUOUS
 62
     5
 10
-2.298136
 20
31.754795999999999
 30
0.0
 11
-1.928363999999988
 21
32.121811999999977
 31
0.0
  0
LINE
  8
DETAIL
  6
CONTINUOUS
 62
     5
 10
-1.928363999999988
 20
32.121811999999977
 30
0.0
 11
-1.5
 21
32.419515999999987
 31
0.0
  0
LINE
  8
DETAIL
  6
CONTINUOUS
 62
     5
 10
-1.5
 20
32.419515999999987
 30
0.0
 11
-1.0260600000000299
 21
32.638871999999992
 31
0.0
  0
LINE
  8
DETAIL
  6
CONTINUOUS
 62
     5
 10
-1.0260600000000299
 20
32.638871999999992
 30
0.0
 11
-0.5209439999999859
 21
32.773208000000011
 31
0.0
  0
LINE
  8
DETAIL
  6
CONTINUOUS
 62
     5
 10
-0.5209439999999859
 20
32.773208000000011
 30
0.0
 11
0.0
 21
32.818444
 31
0.0
  0
LINE
  8
DETAIL
  6
CONTINUOUS
 62
     5
 10
0.0
 20
26.98504000000003
 30
0.0
 11
-0.5512479999999869
 21
27.035739999999979
 31
0.0
  0
LINE
  8
DETAIL
  6
CONTINUOUS
 62
     5
 10
-0.5512479999999869
 20
27.035739999999979
 30
0.0
 11
-1.083727999999951
 21
27.18611199999998
 31
0.0
  0
LINE
  8
DETAIL
  6
CONTINUOUS
 62
     5
 10
-1.083727999999951
 20
27.18611199999998
 30
0.0
 11
-1.5792959999999989
 21
27.43103600000001
 31
0.0
  0
LINE
  8
DETAIL
  6
CONTINUOUS
 62
     5
 10
-1.5792959999999989
 20
27.43103600000001
 30
0.0
 11
-2.0210879999999629
 21
27.762176000000011
 31
0.0
  0
LINE
  8
DETAIL
  6
CONTINUOUS
 62
     5
 10
-2.0210879999999629
 20
27.762176000000011
 30
0.0
 11
-2.3940519999999879
 21
28.168248000000009
 31
0.0
  0
LINE
  8
DETAIL
  6
CONTINUOUS
 62
     5
 10
-2.3940519999999879
 20
28.168248000000009
 30
0.0
 11
-2.6854919999999538
 21
28.63542799999999
 31
0.0
  0
LINE
  8
DETAIL
  6
CONTINUOUS
 62
     5
 10
-2.6854919999999538
 20
28.63542799999999
 30
0.0
 11
-2.88548000000003
 21
29.147808000000001
 31
0.0
  0
LINE
  8
DETAIL
  6
CONTINUOUS
 62
     5
 10
-2.88548000000003
 20
29.147808000000001
 30
0.0
 11
-2.9872040000000202
 21
29.687935999999979
 31
0.0
  0
LINE
  8
DETAIL
  6
CONTINUOUS
 62
     5
 10
-2.9872040000000202
 20
29.687935999999979
 30
0.0
 11
-2.9872040000000202
 21
30.23741999999999
 31
0.0
  0
LINE
  8
DETAIL
  6
CONTINUOUS
 62
     5
 10
-2.9872040000000202
 20
30.23741999999999
 30
0.0
 11
-2.88548000000003
 21
30.777548000000021
 31
0.0
  0
LINE
  8
DETAIL
  6
CONTINUOUS
 62
     5
 10
-2.88548000000003
 20
30.777548000000021
 30
0.0
 11
-2.6854919999999538
 21
31.289923999999981
 31
0.0
  0
LINE
  8
DETAIL
  6
CONTINUOUS
 62
     5
 10
-2.6854919999999538
 20
31.289923999999981
 30
0.0
 11
-2.3940519999999879
 21
31.75710400000003
 31
0.0
  0
LINE
  8
DETAIL
  6
CONTINUOUS
 62
     5
 10
-2.3940519999999879
 20
31.75710400000003
 30
0.0
 11
-2.0210879999999629
 21
32.163180000000011
 31
0.0
  0
LINE
  8
DETAIL
  6
CONTINUOUS
 62
     5
 10
-2.0210879999999629
 20
32.163180000000011
 30
0.0
 11
-1.5792959999999989
 21
32.494316000000033
 31
0.0
  0
LINE
  8
DETAIL
  6
CONTINUOUS
 62
     5
 10
-1.5792959999999989
 20
32.494316000000033
 30
0.0
 11
-1.083727999999951
 21
32.739240000000002
 31
0.0
  0
LINE
  8
DETAIL
  6
CONTINUOUS
 62
     5
 10
-1.083727999999951
 20
32.739240000000002
 30
0.0
 11
-0.5512479999999869
 21
32.88961599999999
 31
0.0
  0
LINE
  8
DETAIL
  6
CONTINUOUS
 62
     5
 10
-0.5512479999999869
 20
32.88961599999999
 30
0.0
 11
0.0
 21
32.940316000000003
 31
0.0
  0
ARC
  8
DETAIL
  6
CONTINUOUS
 62
     5
 10
-4.25
 20
46.75
 30
0.0
 40
0.75
 50
180.0
 51
0.0
  0
LINE
  8
DETAIL
  6
CONTINUOUS
 62
     5
 10
0.0
 20
47.71217200000001
 30
0.0
 11
-3.5
 21
47.71217200000001
 31
0.0
  0
LINE
  8
DETAIL
  6
CONTINUOUS
 62
     5
 10
-24.519804000000018
 20
76.993083999999953
 30
0.0
 11
-14.75
 21
76.993083999999953
 31
0.0
  0
LINE
  8
DETAIL
  6
CONTINUOUS
 62
     5
 10
-23.37911199999996
 20
59.49308400000001
 30
0.0
 11
-14.75
 21
59.49308400000001
 31
0.0
  0
LINE
  8
DETAIL
  6
CONTINUOUS
 62
     5
 10
-25.87911199999996
 20
53.49308400000001
 30
0.0
 11
0.0
 21
53.49308400000001
 31
0.0
  0
LINE
  8
DETAIL
  6
CONTINUOUS
 62
     5
 10
-15.43168400000002
 20
76.993083999999953
 30
0.0
 11
-15.91417200000001
 21
59.49308400000001
 31
0.0
  0
ARC
  8
DETAIL
  6
CONTINUOUS
 62
     5
 10
-189.790536
 20
12.35861599999998
 30
0.0
 40
180.0
 50
16.08675300000117
 51
21.043730000001219
  0
ARC
  8
DETAIL
  6
CONTINUOUS
 62
     5
 10
-189.790536
 20
12.35861599999998
 30
0.0
 40
181.80000000000001
 50
17.788703000002201
 51
20.825632000002059
  0
LINE
  8
DETAIL
  6
CONTINUOUS
 62
     5
 10
-16.43156799999997
 20
76.993083999999953
 30
0.0
 11
-16.91441199999997
 21
59.49308400000001
 31
0.0
  0
ARC
  8
DETAIL
  6
CONTINUOUS
 62
     5
 10
-23.37911199999996
 20
56.99308400000001
 30
0.0
 40
2.5
 50
90.0
 51
180.0
  0
LINE
  8
DETAIL
  6
CONTINUOUS
 62
     5
 10
-25.87911199999996
 20
56.99308400000001
 30
0.0
 11
-25.87911199999996
 21
53.49308400000001
 31
0.0
  0
LINE
  8
DETAIL
  6
CONTINUOUS
 62
     5
 10
-14.75
 20
76.993083999999953
 30
0.0
 11
-14.75
 21
53.49308400000001
 31
0.0
  0
ARC
  8
DETAIL
  6
CONTINUOUS
 62
     5
 10
-189.790536
 20
12.35861599999998
 30
0.0
 40
181.80000000000001
 50
15.67298499999905
 51
16.815099999998139
  0
LINE
  8
DETAIL
  6
CONTINUOUS
 62
     5
 10
0.0
 20
65.31406400000003
 30
0.0
 11
0.4341200000000072
 21
65.277559999999994
 31
0.0
  0
LINE
  8
DETAIL
  6
CONTINUOUS
 62
     5
 10
0.4341200000000072
 20
65.277559999999994
 30
0.0
 11
0.8550480000000107
 21
65.169168000000013
 31
0.0
  0
LINE
  8
DETAIL
  6
CONTINUOUS
 62
     5
 10
0.8550480000000107
 20
65.169168000000013
 30
0.0
 11
1.25
 21
64.992180000000019
 31
0.0
  0
LINE
  8
DETAIL
  6
CONTINUOUS
 62
     5
 10
1.25
 20
64.992180000000019
 30
0.0
 11
1.6069680000000519
 21
64.751968000000033
 31
0.0
  0
LINE
  8
DETAIL
  6
CONTINUOUS
 62
     5
 10
1.6069680000000519
 20
64.751968000000033
 30
0.0
 11
1.915108000000032
 21
64.455835999999977
 31
0.0
  0
LINE
  8
DETAIL
  6
CONTINUOUS
 62
     5
 10
1.915108000000032
 20
64.455835999999977
 30
0.0
 11
2.165064000000029
 21
64.112779999999987
 31
0.0
  0
LINE
  8
DETAIL
  6
CONTINUOUS
 62
     5
 10
2.165064000000029
 20
64.112779999999987
 30
0.0
 11
2.3492320000000291
 21
63.733220000000017
 31
0.0
  0
LINE
  8
DETAIL
  6
CONTINUOUS
 62
     5
 10
0.0
 20
65.59051599999998
 30
0.0
 11
0.4593720000000303
 21
65.549608000000035
 31
0.0
  0
LINE
  8
DETAIL
  6
CONTINUOUS
 62
     5
 10
0.4593720000000303
 20
65.549608000000035
 30
0.0
 11
0.9031039999999848
 21
65.428275999999983
 31
0.0
  0
LINE
  8
DETAIL
  6
CONTINUOUS
 62
     5
 10
0.9031039999999848
 20
65.428275999999983
 30
0.0
 11
1.3160800000000561
 21
65.230652000000021
 31
0.0
  0
LINE
  8
DETAIL
  6
CONTINUOUS
 62
     5
 10
1.3160800000000561
 20
65.230652000000021
 30
0.0
 11
1.6842360000000549
 21
64.963468000000034
 31
0.0
  0
LINE
  8
DETAIL
  6
CONTINUOUS
 62
     5
 10
1.6842360000000549
 20
64.963468000000034
 30
0.0
 11
1.995040000000017
 21
64.635819999999967
 31
0.0
  0
LINE
  8
DETAIL
  6
CONTINUOUS
 62
     5
 10
1.995040000000017
 20
64.635819999999967
 30
0.0
 11
2.237907999999948
 21
64.258864000000017
 31
0.0
  0
LINE
  8
DETAIL
  6
CONTINUOUS
 62
     5
 10
2.237907999999948
 20
64.258864000000017
 30
0.0
 11
2.4045640000000499
 21
63.845443999999993
 31
0.0
  0
LINE
  8
DETAIL
  6
CONTINUOUS
 62
     5
 10
2.4045640000000499
 20
62.530456000000022
 30
0.0
 11
2.237907999999948
 21
62.117031999999988
 31
0.0
  0
LINE
  8
DETAIL
  6
CONTINUOUS
 62
     5
 10
2.237907999999948
 20
62.117031999999988
 30
0.0
 11
1.995040000000017
 21
61.740079999999978
 31
0.0
  0
LINE
  8
DETAIL
  6
CONTINUOUS
 62
     5
 10
1.995040000000017
 20
61.740079999999978
 30
0.0
 11
1.6842360000000549
 21
61.412427999999977
 31
0.0
  0
LINE
  8
DETAIL
  6
CONTINUOUS
 62
     5
 10
1.6842360000000549
 20
61.412427999999977
 30
0.0
 11
1.3160800000000561
 21
61.145243999999991
 31
0.0
  0
LINE
  8
DETAIL
  6
CONTINUOUS
 62
     5
 10
1.3160800000000561
 20
61.145243999999991
 30
0.0
 11
0.9031039999999848
 21
60.947620000000029
 31
0.0
  0
LINE
  8
DETAIL
  6
CONTINUOUS
 62
     5
 10
0.9031039999999848
 20
60.947620000000029
 30
0.0
 11
0.4593720000000303
 21
60.826287999999977
 31
0.0
  0
LINE
  8
DETAIL
  6
CONTINUOUS
 62
     5
 10
0.4593720000000303
 20
60.826287999999977
 30
0.0
 11
0.0
 21
60.785380000000032
 31
0.0
  0
LINE
  8
DETAIL
  6
CONTINUOUS
 62
     5
 10
-2.5
 20
62.911496
 30
0.0
 11
-2.4620200000000518
 21
63.328695999999979
 31
0.0
  0
LINE
  8
DETAIL
  6
CONTINUOUS
 62
     5
 10
-2.4620200000000518
 20
63.328695999999979
 30
0.0
 11
-2.3492320000000291
 21
63.733220000000017
 31
0.0
  0
LINE
  8
DETAIL
  6
CONTINUOUS
 62
     5
 10
-2.3492320000000291
 20
63.733220000000017
 30
0.0
 11
-2.165064000000029
 21
64.112779999999987
 31
0.0
  0
LINE
  8
DETAIL
  6
CONTINUOUS
 62
     5
 10
-2.165064000000029
 20
64.112779999999987
 30
0.0
 11
-1.9151120000000219
 21
64.455835999999977
 31
0.0
  0
LINE
  8
DETAIL
  6
CONTINUOUS
 62
     5
 10
-1.9151120000000219
 20
64.455835999999977
 30
0.0
 11
-1.606972000000042
 21
64.751968000000033
 31
0.0
  0
LINE
  8
DETAIL
  6
CONTINUOUS
 62
     5
 10
-1.606972000000042
 20
64.751968000000033
 30
0.0
 11
-1.25
 21
64.992180000000019
 31
0.0
  0
LINE
  8
DETAIL
  6
CONTINUOUS
 62
     5
 10
-1.25
 20
64.992180000000019
 30
0.0
 11
-0.8550520000000006
 21
65.169168000000013
 31
0.0
  0
LINE
  8
DETAIL
  6
CONTINUOUS
 62
     5
 10
-0.8550520000000006
 20
65.169168000000013
 30
0.0
 11
-0.4341200000000072
 21
65.277559999999994
 31
0.0
  0
LINE
  8
DETAIL
  6
CONTINUOUS
 62
     5
 10
-0.4341200000000072
 20
65.277559999999994
 30
0.0
 11
0.0
 21
65.31406400000003
 31
0.0
  0
LINE
  8
DETAIL
  6
CONTINUOUS
 62
     5
 10
0.0
 20
60.785380000000032
 30
0.0
 11
-0.4593760000000202
 21
60.826287999999977
 31
0.0
  0
LINE
  8
DETAIL
  6
CONTINUOUS
 62
     5
 10
-0.4593760000000202
 20
60.826287999999977
 30
0.0
 11
-0.9031039999999848
 21
60.947620000000029
 31
0.0
  0
LINE
  8
DETAIL
  6
CONTINUOUS
 62
     5
 10
-0.9031039999999848
 20
60.947620000000029
 30
0.0
 11
-1.3160800000000561
 21
61.145243999999991
 31
0.0
  0
LINE
  8
DETAIL
  6
CONTINUOUS
 62
     5
 10
-1.3160800000000561
 20
61.145243999999991
 30
0.0
 11
-1.684240000000045
 21
61.412427999999977
 31
0.0
  0
LINE
  8
DETAIL
  6
CONTINUOUS
 62
     5
 10
-1.684240000000045
 20
61.412427999999977
 30
0.0
 11
-1.9950440000000069
 21
61.740079999999978
 31
0.0
  0
LINE
  8
DETAIL
  6
CONTINUOUS
 62
     5
 10
-1.9950440000000069
 20
61.740079999999978
 30
0.0
 11
-2.237907999999948
 21
62.117031999999988
 31
0.0
  0
LINE
  8
DETAIL
  6
CONTINUOUS
 62
     5
 10
-2.237907999999948
 20
62.117031999999988
 30
0.0
 11
-2.4045640000000499
 21
62.530456000000022
 31
0.0
  0
LINE
  8
DETAIL
  6
CONTINUOUS
 62
     5
 10
-2.4045640000000499
 20
62.530456000000022
 30
0.0
 11
-2.4893359999999798
 21
62.966268000000007
 31
0.0
  0
LINE
  8
DETAIL
  6
CONTINUOUS
 62
     5
 10
-2.4893359999999798
 20
62.966268000000007
 30
0.0
 11
-2.4893359999999798
 21
63.409627999999998
 31
0.0
  0
LINE
  8
DETAIL
  6
CONTINUOUS
 62
     5
 10
-2.4893359999999798
 20
63.409627999999998
 30
0.0
 11
-2.4045640000000499
 21
63.845443999999993
 31
0.0
  0
LINE
  8
DETAIL
  6
CONTINUOUS
 62
     5
 10
-2.4045640000000499
 20
63.845443999999993
 30
0.0
 11
-2.237907999999948
 21
64.258864000000017
 31
0.0
  0
LINE
  8
DETAIL
  6
CONTINUOUS
 62
     5
 10
-2.237907999999948
 20
64.258864000000017
 30
0.0
 11
-1.9950440000000069
 21
64.635819999999967
 31
0.0
  0
LINE
  8
DETAIL
  6
CONTINUOUS
 62
     5
 10
-1.9950440000000069
 20
64.635819999999967
 30
0.0
 11
-1.684240000000045
 21
64.963468000000034
 31
0.0
  0
LINE
  8
DETAIL
  6
CONTINUOUS
 62
     5
 10
-1.684240000000045
 20
64.963468000000034
 30
0.0
 11
-1.3160800000000561
 21
65.230652000000021
 31
0.0
  0
LINE
  8
DETAIL
  6
CONTINUOUS
 62
     5
 10
-1.3160800000000561
 20
65.230652000000021
 30
0.0
 11
-0.9031039999999848
 21
65.428275999999983
 31
0.0
  0
LINE
  8
DETAIL
  6
CONTINUOUS
 62
     5
 10
-0.9031039999999848
 20
65.428275999999983
 30
0.0
 11
-0.4593760000000202
 21
65.549608000000035
 31
0.0
  0
LINE
  8
DETAIL
  6
CONTINUOUS
 62
     5
 10
-0.4593760000000202
 20
65.549608000000035
 30
0.0
 11
0.0
 21
65.59051599999998
 31
0.0
  0
ARC
  8
DETAIL
  6
CONTINUOUS
 62
     5
 10
-3.299999999999955
 20
52.437459999999987
 30
0.0
 40
0.2
 50
90.0
 51
180.0
  0
LINE
  8
DETAIL
  6
CONTINUOUS
 62
     5
 10
0.0
 20
52.637459999999983
 30
0.0
 11
-3.299999999999955
 21
52.637459999999983
 31
0.0
  0
LINE
  8
DETAIL
  6
CONTINUOUS
 62
     5
 10
0.0
 20
84.534604000000002
 30
0.0
 11
0.4877239999999574
 21
84.488439999999969
 31
0.0
  0
LINE
  8
DETAIL
  6
CONTINUOUS
 62
     5
 10
0.4877239999999574
 20
84.488439999999969
 30
0.0
 11
0.9567080000000487
 21
84.35172
 31
0.0
  0
LINE
  8
DETAIL
  6
CONTINUOUS
 62
     5
 10
0.9567080000000487
 20
84.35172
 30
0.0
 11
1.388923999999975
 21
84.129700000000014
 31
0.0
  0
LINE
  8
DETAIL
  6
CONTINUOUS
 62
     5
 10
1.388923999999975
 20
84.129700000000014
 30
0.0
 11
1.767764000000057
 21
83.830907999999965
 31
0.0
  0
LINE
  8
DETAIL
  6
CONTINUOUS
 62
     5
 10
1.767764000000057
 20
83.830907999999965
 30
0.0
 11
2.0786719999999832
 21
83.466831999999954
 31
0.0
  0
LINE
  8
DETAIL
  6
CONTINUOUS
 62
     5
 10
2.0786719999999832
 20
83.466831999999954
 30
0.0
 11
2.3096960000000308
 21
83.05146000000002
 31
0.0
  0
LINE
  8
DETAIL
  6
CONTINUOUS
 62
     5
 10
0.4877239999999574
 20
84.764892000000032
 30
0.0
 11
0.9567080000000487
 21
84.628172000000006
 31
0.0
  0
LINE
  8
DETAIL
  6
CONTINUOUS
 62
     5
 10
0.9567080000000487
 20
84.628172000000006
 30
0.0
 11
1.388923999999975
 21
84.40615200000002
 31
0.0
  0
LINE
  8
DETAIL
  6
CONTINUOUS
 62
     5
 10
1.388923999999975
 20
84.40615200000002
 30
0.0
 11
1.767764000000057
 21
84.107364000000018
 31
0.0
  0
LINE
  8
DETAIL
  6
CONTINUOUS
 62
     5
 10
1.767764000000057
 20
84.107364000000018
 30
0.0
 11
2.0786719999999832
 21
83.743284000000017
 31
0.0
  0
LINE
  8
DETAIL
  6
CONTINUOUS
 62
     5
 10
2.0786719999999832
 20
83.743284000000017
 30
0.0
 11
2.3096960000000308
 21
83.327911999999969
 31
0.0
  0
LINE
  8
DETAIL
  6
CONTINUOUS
 62
     5
 10
2.3096960000000308
 20
81.489067999999975
 30
0.0
 11
2.0786719999999832
 21
81.073695999999984
 31
0.0
  0
LINE
  8
DETAIL
  6
CONTINUOUS
 62
     5
 10
2.0786719999999832
 20
81.073695999999984
 30
0.0
 11
1.767764000000057
 21
80.709619999999973
 31
0.0
  0
LINE
  8
DETAIL
  6
CONTINUOUS
 62
     5
 10
1.767764000000057
 20
80.709619999999973
 30
0.0
 11
1.388923999999975
 21
80.410827999999981
 31
0.0
  0
LINE
  8
DETAIL
  6
CONTINUOUS
 62
     5
 10
1.388923999999975
 20
80.410827999999981
 30
0.0
 11
0.9567080000000487
 21
80.188807999999995
 31
0.0
  0
LINE
  8
DETAIL
  6
CONTINUOUS
 62
     5
 10
0.9567080000000487
 20
80.188807999999995
 30
0.0
 11
0.4877239999999574
 21
80.052088000000026
 31
0.0
  0
LINE
  8
DETAIL
  6
CONTINUOUS
 62
     5
 10
0.4877239999999574
 20
80.052088000000026
 30
0.0
 11
0.0
 21
80.005923999999993
 31
0.0
  0
LINE
  8
DETAIL
  6
CONTINUOUS
 62
     5
 10
0.0
 20
80.005923999999993
 30
0.0
 11
-0.4593760000000202
 21
80.046831999999995
 31
0.0
  0
LINE
  8
DETAIL
  6
CONTINUOUS
 62
     5
 10
-0.4593760000000202
 20
80.046831999999995
 30
0.0
 11
-0.9031039999999848
 21
80.16816399999999
 31
0.0
  0
LINE
  8
DETAIL
  6
CONTINUOUS
 62
     5
 10
-0.9031039999999848
 20
80.16816399999999
 30
0.0
 11
-1.3160800000000561
 21
80.365787999999952
 31
0.0
  0
LINE
  8
DETAIL
  6
CONTINUOUS
 62
     5
 10
-1.3160800000000561
 20
80.365787999999952
 30
0.0
 11
-1.684240000000045
 21
80.632971999999995
 31
0.0
  0
LINE
  8
DETAIL
  6
CONTINUOUS
 62
     5
 10
-1.684240000000045
 20
80.632971999999995
 30
0.0
 11
-1.9950440000000069
 21
80.960620000000006
 31
0.0
  0
LINE
  8
DETAIL
  6
CONTINUOUS
 62
     5
 10
-1.9950440000000069
 20
80.960620000000006
 30
0.0
 11
-2.237907999999948
 21
81.337576000000013
 31
0.0
  0
LINE
  8
DETAIL
  6
CONTINUOUS
 62
     5
 10
-2.237907999999948
 20
81.337576000000013
 30
0.0
 11
-2.4045640000000499
 21
81.750995999999986
 31
0.0
  0
LINE
  8
DETAIL
  6
CONTINUOUS
 62
     5
 10
-2.4045640000000499
 20
81.750995999999986
 30
0.0
 11
-2.4893359999999798
 21
82.186807999999985
 31
0.0
  0
LINE
  8
DETAIL
  6
CONTINUOUS
 62
     5
 10
-2.4893359999999798
 20
82.186807999999985
 30
0.0
 11
-2.4893359999999798
 21
82.630172000000016
 31
0.0
  0
LINE
  8
DETAIL
  6
CONTINUOUS
 62
     5
 10
-2.4893359999999798
 20
82.630172000000016
 30
0.0
 11
-2.4045640000000499
 21
83.065984000000014
 31
0.0
  0
LINE
  8
DETAIL
  6
CONTINUOUS
 62
     5
 10
-2.4045640000000499
 20
83.065984000000014
 30
0.0
 11
-2.237907999999948
 21
83.479408000000035
 31
0.0
  0
LINE
  8
DETAIL
  6
CONTINUOUS
 62
     5
 10
-2.237907999999948
 20
83.479408000000035
 30
0.0
 11
-1.9950440000000069
 21
83.856359999999995
 31
0.0
  0
LINE
  8
DETAIL
  6
CONTINUOUS
 62
     5
 10
-1.9950440000000069
 20
83.856359999999995
 30
0.0
 11
-1.684240000000045
 21
84.184008000000006
 31
0.0
  0
LINE
  8
DETAIL
  6
CONTINUOUS
 62
     5
 10
-1.684240000000045
 20
84.184008000000006
 30
0.0
 11
-1.3160800000000561
 21
84.451195999999982
 31
0.0
  0
LINE
  8
DETAIL
  6
CONTINUOUS
 62
     5
 10
-1.3160800000000561
 20
84.451195999999982
 30
0.0
 11
-0.9031039999999848
 21
84.648820000000001
 31
0.0
  0
LINE
  8
DETAIL
  6
CONTINUOUS
 62
     5
 10
-0.9031039999999848
 20
84.648820000000001
 30
0.0
 11
-0.4593760000000202
 21
84.770151999999996
 31
0.0
  0
LINE
  8
DETAIL
  6
CONTINUOUS
 62
     5
 10
-2.5
 20
82.132035999999971
 30
0.0
 11
-2.4620200000000518
 21
82.549235999999951
 31
0.0
  0
LINE
  8
DETAIL
  6
CONTINUOUS
 62
     5
 10
-2.4620200000000518
 20
82.549235999999951
 30
0.0
 11
-2.3492320000000291
 21
82.953763999999978
 31
0.0
  0
LINE
  8
DETAIL
  6
CONTINUOUS
 62
     5
 10
-2.3492320000000291
 20
82.953763999999978
 30
0.0
 11
-2.165064000000029
 21
83.333320000000015
 31
0.0
  0
LINE
  8
DETAIL
  6
CONTINUOUS
 62
     5
 10
-2.165064000000029
 20
83.333320000000015
 30
0.0
 11
-1.9151120000000219
 21
83.676376000000005
 31
0.0
  0
LINE
  8
DETAIL
  6
CONTINUOUS
 62
     5
 10
-1.9151120000000219
 20
83.676376000000005
 30
0.0
 11
-1.606972000000042
 21
83.972511999999995
 31
0.0
  0
LINE
  8
DETAIL
  6
CONTINUOUS
 62
     5
 10
-1.606972000000042
 20
83.972511999999995
 30
0.0
 11
-1.25
 21
84.21271999999999
 31
0.0
  0
LINE
  8
DETAIL
  6
CONTINUOUS
 62
     5
 10
-1.25
 20
84.21271999999999
 30
0.0
 11
-0.8550520000000006
 21
84.389712000000031
 31
0.0
  0
LINE
  8
DETAIL
  6
CONTINUOUS
 62
     5
 10
-0.8550520000000006
 20
84.389712000000031
 30
0.0
 11
-0.4341200000000072
 21
84.498104000000012
 31
0.0
  0
LINE
  8
DETAIL
  6
CONTINUOUS
 62
     5
 10
-0.4341200000000072
 20
84.498104000000012
 30
0.0
 11
0.0
 21
84.534604000000002
 31
0.0
  0
LINE
  8
DETAIL
  6
CONTINUOUS
 62
     5
 10
2.1068080000000009
 20
83.425448000000017
 30
0.0
 11
1.653936000000044
 21
83.061019999999985
 31
0.0
  0
LINE
  8
DETAIL
  6
CONTINUOUS
 62
     5
 10
1.653936000000044
 20
83.061019999999985
 30
0.0
 11
1.138596000000007
 21
82.790415999999993
 31
0.0
  0
LINE
  8
DETAIL
  6
CONTINUOUS
 62
     5
 10
1.138596000000007
 20
82.790415999999993
 30
0.0
 11
0.580255999999963
 21
82.623851999999999
 31
0.0
  0
LINE
  8
DETAIL
  6
CONTINUOUS
 62
     5
 10
0.580255999999963
 20
82.623851999999999
 30
0.0
 11
0.0
 21
82.567623999999967
 31
0.0
  0
LINE
  8
DETAIL
  6
CONTINUOUS
 62
     5
 10
0.0
 20
82.567623999999967
 30
0.0
 11
-0.580255999999963
 21
82.623851999999999
 31
0.0
  0
LINE
  8
DETAIL
  6
CONTINUOUS
 62
     5
 10
-0.580255999999963
 20
82.623851999999999
 30
0.0
 11
-1.138596000000007
 21
82.790415999999993
 31
0.0
  0
LINE
  8
DETAIL
  6
CONTINUOUS
 62
     5
 10
-1.138596000000007
 20
82.790415999999993
 30
0.0
 11
-1.653936000000044
 21
83.061019999999985
 31
0.0
  0
LINE
  8
DETAIL
  6
CONTINUOUS
 62
     5
 10
-1.653936000000044
 20
83.061019999999985
 30
0.0
 11
-2.1068119999999908
 21
83.425448000000017
 31
0.0
  0
LINE
  8
DETAIL
  6
CONTINUOUS
 62
     5
 10
-59.601099999999967
 20
89.0
 30
0.0
 11
-63.601099999999967
 21
89.0
 31
0.0
  0
ARC
  8
DETAIL
  6
CONTINUOUS
 62
     5
 10
-63.601099999999967
 20
86.0
 30
0.0
 40
3.0
 50
90.0
 51
180.0
  0
ARC
  8
DETAIL
  6
CONTINUOUS
 62
     5
 10
-59.601099999999967
 20
86.0
 30
0.0
 40
3.0
 50
0.0
 51
90.0
  0
ARC
  8
DETAIL
  6
CONTINUOUS
 62
     5
 10
-62.96271200000001
 20
143.0
 30
0.0
 40
1.0
 50
270.0
 51
358.99999999999818
  0
LINE
  8
DETAIL
  6
CONTINUOUS
 62
     5
 10
-24.519804000000018
 20
84.993083999999953
 30
0.0
 11
-13.75
 21
84.993083999999953
 31
0.0
  0
ARC
  8
DETAIL
  6
CONTINUOUS
 62
     5
 10
-15.031123999999981
 20
91.493083999999953
 30
0.0
 40
1.0
 50
90.0
 51
178.18886499999749
  0
LINE
  8
DETAIL
  6
CONTINUOUS
 62
     5
 10
-22.28156000000001
 20
88.73794799999996
 30
0.0
 11
-25.369163999999959
 21
96.54478400000005
 31
0.0
  0
LINE
  8
DETAIL
  6
CONTINUOUS
 62
     5
 10
-23.519804000000018
 20
84.993083999999953
 30
0.0
 11
-25.420671999999971
 21
96.731924000000049
 31
0.0
  0
ARC
  8
DETAIL
  6
CONTINUOUS
 62
     5
 10
-24.532243999999992
 20
96.875783999999953
 30
0.0
 40
0.9
 50
9.1980470000024326
 51
189.19804700000239
  0
LINE
  8
DETAIL
  6
CONTINUOUS
 62
     5
 10
-21.696360000000031
 20
84.993083999999953
 30
0.0
 11
-22.317463999999969
 21
88.828723999999966
 31
0.0
  0
ARC
  8
DETAIL
  6
CONTINUOUS
 62
     5
 10
-21.444640000000049
 20
89.068947999999978
 30
0.0
 40
0.9
 50
201.5788040000009
 51
21.578804000000979
  0
LINE
  8
DETAIL
  6
CONTINUOUS
 62
     5
 10
-20.607715999999979
 20
89.399951999999985
 30
0.0
 11
-23.695324000000031
 21
97.20678799999996
 31
0.0
  0
LINE
  8
DETAIL
  6
CONTINUOUS
 62
     5
 10
-16.030623999999989
 20
91.524687999999969
 30
0.0
 11
-16.210835999999968
 21
84.993083999999953
 31
0.0
  0
LINE
  8
DETAIL
  6
CONTINUOUS
 62
     5
 10
-14.75
 20
91.493083999999953
 30
0.0
 11
0.0
 21
91.493083999999953
 31
0.0
  0
LINE
  8
DETAIL
  6
CONTINUOUS
 62
     5
 10
0.0
 20
97.455816000000027
 30
0.0
 11
-12.5
 21
97.455816000000027
 31
0.0
  0
LINE
  8
DETAIL
  6
CONTINUOUS
 62
     5
 10
-8.2810279999999921
 20
98.5
 30
0.0
 11
-8.2992520000000241
 21
97.455816000000027
 31
0.0
  0
LINE
  8
DETAIL
  6
CONTINUOUS
 62
     5
 10
-6.7804159999999456
 20
98.5
 30
0.0
 11
-6.7442839999999933
 21
97.455816000000027
 31
0.0
  0
LINE
  8
DETAIL
  6
CONTINUOUS
 62
     5
 10
-6.7804159999999456
 20
98.5
 30
0.0
 11
-8.2804159999999456
 21
98.5
 31
0.0
  0
LINE
  8
DETAIL
  6
CONTINUOUS
 62
     5
 10
-14.75
 20
91.493083999999953
 30
0.0
 11
-14.75
 21
86.493083999999953
 31
0.0
  0
LINE
  8
DETAIL
  6
CONTINUOUS
 62
     5
 10
-14.75
 20
86.493083999999953
 30
0.0
 11
-13.75
 21
86.493083999999953
 31
0.0
  0
LINE
  8
DETAIL
  6
CONTINUOUS
 62
     5
 10
-13.75
 20
86.493083999999953
 30
0.0
 11
-13.75
 21
84.993083999999953
 31
0.0
  0
ARC
  8
DETAIL
  6
CONTINUOUS
 62
     5
 10
-14.83734800000002
 20
91.293084000000022
 30
0.0
 40
0.2
 50
90.0
 51
178.18886499999749
  0
LINE
  8
DETAIL
  6
CONTINUOUS
 62
     5
 10
-15.03724799999998
 20
91.299403999999981
 30
0.0
 11
-15.211115999999951
 21
84.993083999999953
 31
0.0
  0
LINE
  8
DETAIL
  6
CONTINUOUS
 62
     5
 10
-15.031123999999981
 20
92.493083999999953
 30
0.0
 11
-12.5
 21
92.493083999999953
 31
0.0
  0
LINE
  8
DETAIL
  6
CONTINUOUS
 62
     5
 10
-14.83734800000002
 20
91.493083999999953
 30
0.0
 11
-12.5
 21
91.493083999999953
 31
0.0
  0
LINE
  8
DETAIL
  6
CONTINUOUS
 62
     5
 10
-12.5
 20
92.493083999999953
 30
0.0
 11
-12.5
 21
91.493083999999953
 31
0.0
  0
LINE
  8
DETAIL
  6
CONTINUOUS
 62
     5
 10
-12.5
 20
97.455816000000027
 30
0.0
 11
-12.5
 21
96.463267999999971
 31
0.0
  0
LINE
  8
DETAIL
  6
CONTINUOUS
 62
     5
 10
-13.5
 20
96.463267999999971
 30
0.0
 11
-13.5
 21
92.493083999999953
 31
0.0
  0
LINE
  8
DETAIL
  6
CONTINUOUS
 62
     5
 10
-12.5
 20
96.463267999999971
 30
0.0
 11
-13.5
 21
96.463267999999971
 31
0.0
  0
LINE
  8
DETAIL
  6
CONTINUOUS
 62
     5
 10
-6.0
 20
95.493083999999953
 30
0.0
 11
0.0
 21
95.493083999999953
 31
0.0
  0
LINE
  8
DETAIL
  6
CONTINUOUS
 62
     5
 10
-6.0
 20
94.493083999999953
 30
0.0
 11
0.0
 21
94.493083999999953
 31
0.0
  0
LINE
  8
DETAIL
  6
CONTINUOUS
 62
     5
 10
-6.0
 20
95.493083999999953
 30
0.0
 11
-6.0
 21
91.493083999999953
 31
0.0
  0
LINE
  8
DETAIL
  6
CONTINUOUS
 62
     5
 10
25.0
 20
77.5
 30
0.0
 11
25.0
 21
93.5
 31
0.0
  0
LINE
  8
DETAIL
  6
CONTINUOUS
 62
     5
 10
48.022288000000003
 20
139.44764000000001
 30
0.0
 11
50.134352000000042
 21
18.447639999999978
 31
0.0
  0
LINE
  8
DETAIL
  6
CONTINUOUS
 62
     5
 10
24.519804000000018
 20
84.993083999999953
 30
0.0
 11
24.519804000000018
 21
76.993083999999953
 31
0.0
  0
LINE
  8
DETAIL
  6
CONTINUOUS
 62
     5
 10
23.019804000000018
 20
84.993083999999953
 30
0.0
 11
23.019804000000018
 21
76.993083999999953
 31
0.0
  0
LINE
  8
DETAIL
  6
CONTINUOUS
 62
     5
 10
14.75
 20
84.993083999999953
 30
0.0
 11
14.75
 21
76.993083999999953
 31
0.0
  0
LINE
  8
DETAIL
  6
CONTINUOUS
 62
     5
 10
17.079956000000038
 20
53.49308400000001
 30
0.0
 11
18.073047999999972
 21
17.5
 31
0.0
  0
LINE
  8
DETAIL
  6
CONTINUOUS
 62
     5
 10
16.079592000000051
 20
53.49308400000001
 30
0.0
 11
17.07194800000002
 21
17.5
 31
0.0
  0
LINE
  8
DETAIL
  6
CONTINUOUS
 62
     5
 10
5.0
 20
46.75
 30
0.0
 11
5.0
 21
53.49308400000001
 31
0.0
  0
LINE
  8
DETAIL
  6
CONTINUOUS
 62
     5
 10
13.5
 20
53.49308400000001
 30
0.0
 11
13.5
 21
18.490244000000018
 31
0.0
  0
LINE
  8
DETAIL
  6
CONTINUOUS
 62
     5
 10
3.5
 20
46.75
 30
0.0
 11
3.5
 21
52.437459999999987
 31
0.0
  0
LINE
  8
DETAIL
  6
CONTINUOUS
 62
     5
 10
14.30272000000002
 20
17.5
 30
0.0
 11
28.0
 21
17.5
 31
0.0
  0
LINE
  8
DETAIL
  6
CONTINUOUS
 62
     5
 10
10.333939999999981
 20
17.5
 30
0.0
 11
12.5
 21
17.5
 31
0.0
  0
LINE
  8
DETAIL
  6
CONTINUOUS
 62
     5
 10
2.4944080000000208
 20
31.616963999999999
 30
0.0
 11
2.771635999999944
 21
31.10216800000001
 31
0.0
  0
LINE
  8
DETAIL
  6
CONTINUOUS
 62
     5
 10
2.771635999999944
 20
31.10216800000001
 30
0.0
 11
2.942356000000018
 21
30.54358400000001
 31
0.0
  0
LINE
  8
DETAIL
  6
CONTINUOUS
 62
     5
 10
2.942356000000018
 20
30.54358400000001
 30
0.0
 11
3.0
 21
29.962675999999991
 31
0.0
  0
LINE
  8
DETAIL
  6
CONTINUOUS
 62
     5
 10
3.0
 20
29.962675999999991
 30
0.0
 11
2.942356000000018
 21
29.381768000000019
 31
0.0
  0
LINE
  8
DETAIL
  6
CONTINUOUS
 62
     5
 10
2.942356000000018
 20
29.381768000000019
 30
0.0
 11
2.771635999999944
 21
28.82318400000003
 31
0.0
  0
LINE
  8
DETAIL
  6
CONTINUOUS
 62
     5
 10
2.771635999999944
 20
28.82318400000003
 30
0.0
 11
2.4944080000000208
 21
28.308387999999979
 31
0.0
  0
LINE
  8
DETAIL
  6
CONTINUOUS
 62
     5
 10
2.4944080000000208
 20
31.49509599999999
 30
0.0
 11
2.771635999999944
 21
30.9803
 31
0.0
  0
LINE
  8
DETAIL
  6
CONTINUOUS
 62
     5
 10
2.771635999999944
 20
30.9803
 30
0.0
 11
2.942356000000018
 21
30.421716
 31
0.0
  0
LINE
  8
DETAIL
  6
CONTINUOUS
 62
     5
 10
2.942356000000018
 20
30.421716
 30
0.0
 11
3.0
 21
29.840807999999981
 31
0.0
  0
ARC
  8
DETAIL
  6
CONTINUOUS
 62
     5
 10
8.0
 20
19.0
 30
0.0
 40
1.0
 50
0.0
 51
180.0
  0
LINE
  8
DETAIL
  6
CONTINUOUS
 62
     5
 10
12.5
 20
19.0
 30
0.0
 11
13.5
 21
19.0
 31
0.0
  0
LINE
  8
DETAIL
  6
CONTINUOUS
 62
     5
 10
12.5
 20
18.490244000000018
 30
0.0
 11
13.5
 21
18.490244000000018
 31
0.0
  0
ARC
  8
DETAIL
  6
CONTINUOUS
 62
     5
 10
4.25
 20
46.75
 30
0.0
 40
0.75
 50
180.0
 51
0.0
  0
LINE
  8
DETAIL
  6
CONTINUOUS
 62
     5
 10
23.37911199999996
 20
59.49308400000001
 30
0.0
 11
14.75
 21
59.49308400000001
 31
0.0
  0
LINE
  8
DETAIL
  6
CONTINUOUS
 62
     5
 10
24.519804000000018
 20
76.993083999999953
 30
0.0
 11
14.75
 21
76.993083999999953
 31
0.0
  0
ARC
  8
DETAIL
  6
CONTINUOUS
 62
     5
 10
189.79053200000001
 20
12.35861599999998
 30
0.0
 40
180.0
 50
158.9562699999988
 51
163.91324699999879
  0
LINE
  8
DETAIL
  6
CONTINUOUS
 62
     5
 10
14.75
 20
76.993083999999953
 30
0.0
 11
14.75
 21
53.49308400000001
 31
0.0
  0
ARC
  8
DETAIL
  6
CONTINUOUS
 62
     5
 10
189.79053200000001
 20
12.35861599999998
 30
0.0
 40
181.80000000000001
 50
159.17436799999791
 51
162.21129699999781
  0
LINE
  8
DETAIL
  6
CONTINUOUS
 62
     5
 10
15.43168000000003
 20
76.993083999999953
 30
0.0
 11
15.91416800000002
 21
59.49308400000001
 31
0.0
  0
LINE
  8
DETAIL
  6
CONTINUOUS
 62
     5
 10
16.43156399999998
 20
76.993083999999953
 30
0.0
 11
16.91440799999998
 21
59.49308400000001
 31
0.0
  0
LINE
  8
DETAIL
  6
CONTINUOUS
 62
     5
 10
2.4620200000000518
 20
63.328695999999979
 30
0.0
 11
2.5
 21
62.911496
 31
0.0
  0
LINE
  8
DETAIL
  6
CONTINUOUS
 62
     5
 10
2.4893359999999798
 20
63.409627999999998
 30
0.0
 11
2.4893359999999798
 21
62.966268000000007
 31
0.0
  0
ARC
  8
DETAIL
  6
CONTINUOUS
 62
     5
 10
3.299999999999955
 20
52.437459999999987
 30
0.0
 40
0.2
 50
0.0
 51
90.0
  0
ARC
  8
DETAIL
  6
CONTINUOUS
 62
     5
 10
189.79053200000001
 20
12.35861599999998
 30
0.0
 40
181.80000000000001
 50
163.1849000000019
 51
164.32701500000101
  0
LINE
  8
DETAIL
  6
CONTINUOUS
 62
     5
 10
2.451959999999985
 20
82.60075599999999
 30
0.0
 11
2.5
 21
82.132035999999971
 31
0.0
  0
LINE
  8
DETAIL
  6
CONTINUOUS
 62
     5
 10
2.451959999999985
 20
82.877207999999996
 30
0.0
 11
2.5
 21
82.408491999999967
 31
0.0
  0
LINE
  8
DETAIL
  6
CONTINUOUS
 62
     5
 10
2.5
 20
82.408491999999967
 30
0.0
 11
2.451959999999985
 21
81.939772000000005
 31
0.0
  0
ARC
  8
DETAIL
  6
CONTINUOUS
 62
     5
 10
23.37911199999996
 20
56.99308400000001
 30
0.0
 40
2.5
 50
0.0
 51
90.0
  0
LINE
  8
DETAIL
  6
CONTINUOUS
 62
     5
 10
25.87911199999996
 20
56.99308400000001
 30
0.0
 11
25.87911199999996
 21
53.49308400000001
 31
0.0
  0
LINE
  8
DETAIL
  6
CONTINUOUS
 62
     5
 10
25.0
 20
83.930000000000007
 30
0.0
 11
24.519804000000018
 21
83.930000000000007
 31
0.0
  0
LINE
  8
DETAIL
  6
CONTINUOUS
 62
     5
 10
25.0
 20
77.5
 30
0.0
 11
24.519804000000018
 21
77.5
 31
0.0
  0
LINE
  8
DETAIL
  6
CONTINUOUS
 62
     5
 10
44.709719999999948
 20
95.5
 30
0.0
 11
27.0
 21
95.5
 31
0.0
  0
LINE
  8
DETAIL
  6
CONTINUOUS
 62
     5
 10
24.519804000000018
 20
84.993083999999953
 30
0.0
 11
13.75
 21
84.993083999999953
 31
0.0
  0
ARC
  8
DETAIL
  6
CONTINUOUS
 62
     5
 10
21.444635999999949
 20
89.068947999999978
 30
0.0
 40
0.9
 50
158.42119599999899
 51
338.42119599999899
  0
LINE
  8
DETAIL
  6
CONTINUOUS
 62
     5
 10
20.607715999999979
 20
89.399951999999985
 30
0.0
 11
23.695320000000041
 21
97.20678799999996
 31
0.0
  0
LINE
  8
DETAIL
  6
CONTINUOUS
 62
     5
 10
8.2986399999999776
 20
97.455816000000027
 30
0.0
 11
8.2804159999999456
 21
98.5
 31
0.0
  0
LINE
  8
DETAIL
  6
CONTINUOUS
 62
     5
 10
6.7804159999999456
 20
98.5
 30
0.0
 11
6.7442800000000034
 21
97.455816000000027
 31
0.0
  0
LINE
  8
DETAIL
  6
CONTINUOUS
 62
     5
 10
6.7804159999999456
 20
98.5
 30
0.0
 11
8.2804159999999456
 21
98.5
 31
0.0
  0
LINE
  8
DETAIL
  6
CONTINUOUS
 62
     5
 10
6.0
 20
95.493083999999953
 30
0.0
 11
6.0
 21
91.493083999999953
 31
0.0
  0
LINE
  8
DETAIL
  6
CONTINUOUS
 62
     5
 10
13.75
 20
86.493083999999953
 30
0.0
 11
13.75
 21
84.993083999999953
 31
0.0
  0
LINE
  8
DETAIL
  6
CONTINUOUS
 62
     5
 10
14.75
 20
86.493083999999953
 30
0.0
 11
13.75
 21
86.493083999999953
 31
0.0
  0
LINE
  8
DETAIL
  6
CONTINUOUS
 62
     5
 10
14.75
 20
91.493083999999953
 30
0.0
 11
14.75
 21
86.493083999999953
 31
0.0
  0
LINE
  8
DETAIL
  6
CONTINUOUS
 62
     5
 10
15.037243999999991
 20
91.299403999999981
 30
0.0
 11
15.211111999999961
 21
84.993083999999953
 31
0.0
  0
LINE
  8
DETAIL
  6
CONTINUOUS
 62
     5
 10
16.030619999999999
 20
91.524687999999969
 30
0.0
 11
16.210835999999968
 21
84.993083999999953
 31
0.0
  0
LINE
  8
DETAIL
  6
CONTINUOUS
 62
     5
 10
15.031119999999991
 20
92.493083999999953
 30
0.0
 11
12.5
 21
92.493083999999953
 31
0.0
  0
LINE
  8
DETAIL
  6
CONTINUOUS
 62
     5
 10
14.83734400000003
 20
91.493083999999953
 30
0.0
 11
12.5
 21
91.493083999999953
 31
0.0
  0
ARC
  8
DETAIL
  6
CONTINUOUS
 62
     5
 10
14.83734400000003
 20
91.293084000000022
 30
0.0
 40
0.2
 50
1.811135000002448
 51
90.0
  0
ARC
  8
DETAIL
  6
CONTINUOUS
 62
     5
 10
15.031119999999991
 20
91.493083999999953
 30
0.0
 40
1.0
 50
1.811135000002448
 51
90.0
  0
LINE
  8
DETAIL
  6
CONTINUOUS
 62
     5
 10
13.5
 20
96.463267999999971
 30
0.0
 11
13.5
 21
92.493083999999953
 31
0.0
  0
LINE
  8
DETAIL
  6
CONTINUOUS
 62
     5
 10
12.5
 20
92.493083999999953
 30
0.0
 11
12.5
 21
91.493083999999953
 31
0.0
  0
LINE
  8
DETAIL
  6
CONTINUOUS
 62
     5
 10
12.5
 20
97.455816000000027
 30
0.0
 11
12.5
 21
96.463267999999971
 31
0.0
  0
LINE
  8
DETAIL
  6
CONTINUOUS
 62
     5
 10
12.5
 20
96.463267999999971
 30
0.0
 11
13.5
 21
96.463267999999971
 31
0.0
  0
ARC
  8
DETAIL
  6
CONTINUOUS
 62
     5
 10
27.0
 20
93.5
 30
0.0
 40
2.0
 50
90.0
 51
180.0
  0
LINE
  8
DETAIL
  6
CONTINUOUS
 62
     5
 10
22.28155600000002
 20
88.73794799999996
 30
0.0
 11
25.369163999999959
 21
96.54478400000005
 31
0.0
  0
LINE
  8
DETAIL
  6
CONTINUOUS
 62
     5
 10
21.696356000000041
 20
84.993083999999953
 30
0.0
 11
22.317459999999979
 21
88.828723999999966
 31
0.0
  0
LINE
  8
DETAIL
  6
CONTINUOUS
 62
     5
 10
23.519804000000018
 20
84.993083999999953
 30
0.0
 11
25.420667999999981
 21
96.731924000000049
 31
0.0
  0
ARC
  8
DETAIL
  6
CONTINUOUS
 62
     5
 10
24.532240000000002
 20
96.875783999999953
 30
0.0
 40
0.9
 50
350.80195299999758
 51
170.80195299999761
  0
ARC
  8
DETAIL
  6
CONTINUOUS
 62
     5
 10
36.96271200000001
 20
143.0
 30
0.0
 40
1.0
 50
180.9999999999952
 51
270.0
  0
LINE
  8
DETAIL
  6
CONTINUOUS
 62
     5
 10
45.521380000000022
 20
142.0
 30
0.0
 11
44.709719999999948
 21
95.5
 31
0.0
  0
LINE
  8
DETAIL
  6
CONTINUOUS
 62
     5
 10
71.849360000000047
 20
151.35238000000001
 30
0.0
 11
56.223615999999993
 21
142.5
 31
0.0
  0
LINE
  8
DETAIL
  6
CONTINUOUS
 62
     5
 10
71.849360000000047
 20
142.5
 30
0.0
 11
51.021832000000018
 21
142.5
 31
0.0
  0
ARC
  8
DETAIL
  6
CONTINUOUS
 62
     5
 10
51.021832000000018
 20
139.5
 30
0.0
 40
3.0
 50
90.0
 51
180.9999999999952
  0
LINE
  8
DETAIL
  6
CONTINUOUS
 62
     5
 10
115.000304
 20
38.0
 30
0.0
 11
115.000304
 21
0.0
 31
0.0
  0
LINE
  8
DETAIL
  6
CONTINUOUS
 62
     5
 10
119.000304
 20
38.0
 30
0.0
 11
119.000304
 21
0.0
 31
0.0
  0
LINE
  8
DETAIL
  6
CONTINUOUS
 62
     5
 10
112.8795239999999
 20
-13.75
 30
0.0
 11
108.1204760000001
 21
-13.75
 31
0.0
  0
LINE
  8
DETAIL
  6
CONTINUOUS
 62
     5
 10
108.1204760000001
 20
-13.75
 30
0.0
 11
108.016848
 21
-16.71745199999998
 31
0.0
  0
LINE
  8
DETAIL
  6
CONTINUOUS
 62
     5
 10
104.3795239999999
 20
-13.75
 30
0.0
 11
104.483148
 21
-16.71745199999998
 31
0.0
  0
LINE
  8
DETAIL
  6
CONTINUOUS
 62
     5
 10
95.879595999999992
 20
-13.752103999999971
 30
0.0
 11
95.983148000000028
 21
-16.71745199999998
 31
0.0
  0
LINE
  8
DETAIL
  6
CONTINUOUS
 62
     5
 10
99.620404000000008
 20
-13.752103999999971
 30
0.0
 11
99.516847999999982
 21
-16.71745199999998
 31
0.0
  0
LINE
  8
DETAIL
  6
CONTINUOUS
 62
     5
 10
87.379595999999992
 20
-13.752103999999971
 30
0.0
 11
87.483148000000028
 21
-16.71745199999998
 31
0.0
  0
LINE
  8
DETAIL
  6
CONTINUOUS
 62
     5
 10
91.120404000000008
 20
-13.752103999999971
 30
0.0
 11
91.016847999999982
 21
-16.71745199999998
 31
0.0
  0
LINE
  8
DETAIL
  6
CONTINUOUS
 62
     5
 10
78.879595999999992
 20
-13.752103999999971
 30
0.0
 11
78.983148000000028
 21
-16.71745199999998
 31
0.0
  0
LINE
  8
DETAIL
  6
CONTINUOUS
 62
     5
 10
82.620404000000008
 20
-13.752103999999971
 30
0.0
 11
82.516847999999982
 21
-16.71745199999998
 31
0.0
  0
ARC
  8
DETAIL
  6
CONTINUOUS
 62
     5
 10
79.482844
 20
-16.699999999999989
 30
0.0
 40
0.5
 50
182.00000000000369
 51
270.0
  0
LINE
  8
DETAIL
  6
CONTINUOUS
 62
     5
 10
82.017156
 20
-17.199999999999989
 30
0.0
 11
79.482844
 21
-17.199999999999989
 31
0.0
  0
ARC
  8
DETAIL
  6
CONTINUOUS
 62
     5
 10
82.017156
 20
-16.699999999999989
 30
0.0
 40
0.5
 50
270.0
 51
357.99999999999619
  0
ARC
  8
DETAIL
  6
CONTINUOUS
 62
     5
 10
87.982844
 20
-16.699999999999989
 30
0.0
 40
0.5
 50
182.00000000000369
 51
270.0
  0
LINE
  8
DETAIL
  6
CONTINUOUS
 62
     5
 10
90.517156
 20
-17.199999999999989
 30
0.0
 11
87.982844
 21
-17.199999999999989
 31
0.0
  0
ARC
  8
DETAIL
  6
CONTINUOUS
 62
     5
 10
90.517156
 20
-16.699999999999989
 30
0.0
 40
0.5
 50
270.0
 51
357.99999999999619
  0
ARC
  8
DETAIL
  6
CONTINUOUS
 62
     5
 10
96.482844
 20
-16.699999999999989
 30
0.0
 40
0.5
 50
182.00000000000369
 51
270.0
  0
LINE
  8
DETAIL
  6
CONTINUOUS
 62
     5
 10
99.017156
 20
-17.199999999999989
 30
0.0
 11
96.482844
 21
-17.199999999999989
 31
0.0
  0
ARC
  8
DETAIL
  6
CONTINUOUS
 62
     5
 10
99.017156
 20
-16.699999999999989
 30
0.0
 40
0.5
 50
270.0
 51
357.99999999999619
  0
LINE
  8
DETAIL
  6
CONTINUOUS
 62
     5
 10
104.982844
 20
-17.199999999999989
 30
0.0
 11
107.517156
 21
-17.199999999999989
 31
0.0
  0
ARC
  8
DETAIL
  6
CONTINUOUS
 62
     5
 10
107.517156
 20
-16.699999999999989
 30
0.0
 40
0.5
 50
270.0
 51
357.99999999999619
  0
ARC
  8
DETAIL
  6
CONTINUOUS
 62
     5
 10
104.982844
 20
-16.699999999999989
 30
0.0
 40
0.5
 50
182.00000000000369
 51
270.0
  0
LINE
  8
DETAIL
  6
CONTINUOUS
 62
     5
 10
95.879523999999947
 20
-13.75
 30
0.0
 11
91.120476000000053
 21
-13.75
 31
0.0
  0
LINE
  8
DETAIL
  6
CONTINUOUS
 62
     5
 10
87.379523999999947
 20
-13.75
 30
0.0
 11
82.62047599999994
 21
-13.75
 31
0.0
  0
LINE
  8
DETAIL
  6
CONTINUOUS
 62
     5
 10
104.3795239999999
 20
-13.75
 30
0.0
 11
99.620476000000053
 21
-13.75
 31
0.0
  0
LINE
  8
DETAIL
  6
CONTINUOUS
 62
     5
 10
112.8795239999999
 20
-13.75
 30
0.0
 11
112.983148
 21
-16.71745199999998
 31
0.0
  0
ARC
  8
DETAIL
  6
CONTINUOUS
 62
     5
 10
138.48905199999999
 20
-12.69999999999999
 30
0.0
 40
4.5
 50
270.0
 51
309.7363409999993
  0
ARC
  8
DETAIL
  6
CONTINUOUS
 62
     5
 10
128.58058800000001
 20
-0.7805920000000128
 30
0.0
 40
20.0
 50
309.7363409999993
 51
320.2636590000007
  0
LINE
  8
DETAIL
  6
CONTINUOUS
 62
     5
 10
138.48905199999999
 20
-17.199999999999989
 30
0.0
 11
113.482844
 21
-17.199999999999989
 31
0.0
  0
ARC
  8
DETAIL
  6
CONTINUOUS
 62
     5
 10
113.482844
 20
-16.699999999999989
 30
0.0
 40
0.5
 50
182.00000000000369
 51
270.0
  0
LINE
  8
DETAIL
  6
CONTINUOUS
 62
     5
 10
117.5
 20
0.0
 30
0.0
 11
118.22685199999999
 21
0.0
 31
0.0
  0
ARC
  8
DETAIL
  6
CONTINUOUS
 62
     5
 10
138.48905199999999
 20
-8.5
 30
0.0
 40
4.5
 50
270.0
 51
309.7363409999993
  0
ARC
  8
DETAIL
  6
CONTINUOUS
 62
     5
 10
147.0
 20
-9.0
 30
0.0
 40
1.0
 50
0.0
 51
90.0
  0
ARC
  8
DETAIL
  6
CONTINUOUS
 62
     5
 10
147.0
 20
-9.0
 30
0.0
 40
1.0
 50
270.0
 51
0.0
  0
LINE
  8
DETAIL
  6
CONTINUOUS
 62
     5
 10
147.0
 20
-8.0
 30
0.0
 11
146.0
 21
-8.0
 31
0.0
  0
ARC
  8
DETAIL
  6
CONTINUOUS
 62
     5
 10
146.0
 20
-7.0
 30
0.0
 40
1.0
 50
180.0
 51
270.0
  0
LINE
  8
DETAIL
  6
CONTINUOUS
 62
     5
 10
147.0
 20
-10.0
 30
0.0
 11
146.0
 21
-10.0
 31
0.0
  0
ARC
  8
DETAIL
  6
CONTINUOUS
 62
     5
 10
146.0
 20
-11.0
 30
0.0
 40
1.0
 50
90.0
 51
180.0
  0
ARC
  8
DETAIL
  6
CONTINUOUS
 62
     5
 10
128.58058800000001
 20
3.4194079999999758
 30
0.0
 40
20.0
 50
309.7363409999993
 51
320.2636590000007
  0
LINE
  8
DETAIL
  6
CONTINUOUS
 62
     5
 10
145.0
 20
-10.68905599999999
 30
0.0
 11
145.0
 21
0.0
 31
0.0
  0
ARC
  8
DETAIL
  6
CONTINUOUS
 62
     5
 10
140.5
 20
-6.489056000000005
 30
0.0
 40
4.5
 50
320.2636590000007
 51
0.0
  0
ARC
  8
DETAIL
  6
CONTINUOUS
 62
     5
 10
140.5
 20
-10.68905599999999
 30
0.0
 40
4.5
 50
320.2636590000007
 51
0.0
  0
LINE
  8
DETAIL
  6
CONTINUOUS
 62
     5
 10
220.00065199999989
 20
61.000260000000033
 30
0.0
 11
105.461944
 21
60.000695999999998
 31
0.0
  0
LINE
  8
DETAIL
  6
DASHED
 62
     5
 10
155.96361999999999
 20
133.181228
 30
0.0
 11
136.72727599999999
 21
133.181228
 31
0.0
  0
LINE
  8
DETAIL
  6
DASHED
 62
     5
 10
190.47489599999989
 20
132.38122799999999
 30
0.0
 11
136.72727599999999
 21
132.38122799999999
 31
0.0
  0
LINE
  8
DETAIL
  6
CONTINUOUS
 62
     5
 10
123.000304
 20
43.0
 30
0.0
 11
104.74981200000001
 21
43.0
 31
0.0
  0
LINE
  8
DETAIL
  6
CONTINUOUS
 62
     5
 10
123.000304
 20
41.5
 30
0.0
 11
104.77599600000001
 21
41.5
 31
0.0
  0
LINE
  8
DETAIL
  6
CONTINUOUS
 62
     5
 10
104.802176
 20
40.0
 30
0.0
 11
118.000304
 21
40.0
 31
0.0
  0
ARC
  8
DETAIL
  6
CONTINUOUS
 62
     5
 10
105.47067199999999
 20
59.000731999999971
 30
0.0
 40
1.0
 50
90.499999999998053
 51
180.9999999999952
  0
LINE
  8
DETAIL
  6
CONTINUOUS
 62
     5
 10
113.000304
 20
40.0
 30
0.0
 11
143.000304
 21
40.0
 31
0.0
  0
LINE
  8
DETAIL
  6
CONTINUOUS
 62
     5
 10
113.000304
 20
38.0
 30
0.0
 11
143.000304
 21
38.0
 31
0.0
  0
LINE
  8
DETAIL
  6
CONTINUOUS
 62
     5
 10
118.000304
 20
41.5
 30
0.0
 11
118.000304
 21
40.0
 31
0.0
  0
LINE
  8
DETAIL
  6
CONTINUOUS
 62
     5
 10
119.000304
 20
41.5
 30
0.0
 11
119.000304
 21
40.0
 31
0.0
  0
LINE
  8
DETAIL
  6
CONTINUOUS
 62
     5
 10
119.000304
 20
44.5
 30
0.0
 11
119.000304
 21
43.0
 31
0.0
  0
LINE
  8
DETAIL
  6
CONTINUOUS
 62
     5
 10
115.000304
 20
44.5
 30
0.0
 11
115.000304
 21
43.0
 31
0.0
  0
LINE
  8
DETAIL
  6
CONTINUOUS
 62
     5
 10
115.000304
 20
44.5
 30
0.0
 11
119.000304
 21
44.5
 31
0.0
  0
LINE
  8
DETAIL
  6
CONTINUOUS
 62
     5
 10
113.000304
 20
38.0
 30
0.0
 11
113.000304
 21
40.0
 31
0.0
  0
LINE
  8
DETAIL
  6
CONTINUOUS
 62
     5
 10
123.000304
 20
41.5
 30
0.0
 11
123.000304
 21
43.0
 31
0.0
  0
LINE
  8
DETAIL
  6
CONTINUOUS
 62
     5
 10
133.000304
 20
37.0
 30
0.0
 11
138.000304
 21
38.0
 31
0.0
  0
LINE
  8
DETAIL
  6
CONTINUOUS
 62
     5
 10
132.80030400000001
 20
38.0
 30
0.0
 11
133.000304
 21
37.0
 31
0.0
  0
LINE
  8
DETAIL
  6
CONTINUOUS
 62
     5
 10
143.000304
 20
40.0
 30
0.0
 11
143.000304
 21
38.0
 31
0.0
  0
LINE
  8
DETAIL
  6
DASHED
 62
     5
 10
136.72727599999999
 20
133.181228
 30
0.0
 11
136.72727599999999
 21
132.38122799999999
 31
0.0
  0
LINE
  8
DETAIL
  6
DASHED
 62
     5
 10
161.0006519999998
 20
65.386287999999979
 30
0.0
 11
161.0006519999998
 21
144.964336
 31
0.0
  0
LINE
  8
DETAIL
  6
DASHED
 62
     5
 10
190.544884
 20
133.181228
 30
0.0
 11
165.96386799999999
 21
133.181228
 31
0.0
  0
LINE
  8
DETAIL
  6
DASHED
 62
     5
 10
157.19366400000001
 20
137.41761999999991
 30
0.0
 11
157.167868
 21
133.77697599999999
 31
0.0
  0
LINE
  8
DETAIL
  6
DASHED
 62
     5
 10
155.99978400000001
 20
138.285844
 30
0.0
 11
155.96789999999999
 21
133.78548000000001
 31
0.0
  0
LINE
  8
DETAIL
  6
DASHED
 62
     5
 10
166.00643199999999
 20
139.18856000000019
 30
0.0
 11
165.96386799999999
 21
133.181228
 31
0.0
  0
LINE
  8
DETAIL
  6
DASHED
 62
     5
 10
164.79347200000009
 20
137.363776
 30
0.0
 11
164.76383999999999
 21
133.181228
 31
0.0
  0
LINE
  8
DETAIL
  6
DASHED
 62
     5
 10
160.36372800000001
 20
133.181228
 30
0.0
 11
157.16364799999999
 21
133.181228
 31
0.0
  0
ARC
  8
DETAIL
  6
DASHED
 62
     5
 10
156.56788399999999
 20
133.7812280000002
 30
0.0
 40
0.6
 50
90.0
 51
179.59406800000369
  0
ARC
  8
DETAIL
  6
DASHED
 62
     5
 10
156.56788399999999
 20
133.7812280000002
 30
0.0
 40
0.6
 50
359.59406799999721
 51
90.0
  0
LINE
  8
DETAIL
  6
DASHED
 62
     5
 10
157.167868
 20
133.77697599999999
 30
0.0
 11
157.163588
 21
133.17272399999999
 31
0.0
  0
LINE
  8
DETAIL
  6
DASHED
 62
     5
 10
155.96789999999999
 20
133.78548000000001
 30
0.0
 11
155.96361999999999
 21
133.181228
 31
0.0
  0
ARC
  8
DETAIL
  6
DASHED
 62
     5
 10
165.36810399999999
 20
133.7812280000002
 30
0.0
 40
0.6
 50
90.0
 51
179.59406800000369
  0
ARC
  8
DETAIL
  6
DASHED
 62
     5
 10
165.36810399999999
 20
133.7812280000002
 30
0.0
 40
0.6
 50
359.59406799999721
 51
90.0
  0
LINE
  8
DETAIL
  6
DASHED
 62
     5
 10
164.76383999999999
 20
133.181228
 30
0.0
 11
161.56376
 21
133.181228
 31
0.0
  0
ARC
  8
DETAIL
  6
DASHED
 62
     5
 10
160.967996
 20
133.7812280000002
 30
0.0
 40
0.6
 50
359.59406799999721
 51
90.0
  0
LINE
  8
DETAIL
  6
DASHED
 62
     5
 10
161.56798000000001
 20
133.77697599999999
 30
0.0
 11
161.56376
 21
133.181228
 31
0.0
  0
LINE
  8
DETAIL
  6
DASHED
 62
     5
 10
160.36801199999999
 20
133.78548000000001
 30
0.0
 11
160.36372800000001
 21
133.181228
 31
0.0
  0
ARC
  8
DETAIL
  6
DASHED
 62
     5
 10
160.967996
 20
133.7812280000002
 30
0.0
 40
0.6
 50
90.0
 51
179.59406800000369
  0
ARC
  8
DETAIL
  6
DASHED
 62
     5
 10
161.0006519999998
 20
138.390672
 30
0.0
 40
5.0
 50
18.518713000002769
 51
136.44022200000319
  0
LINE
  8
DETAIL
  6
DASHED
 62
     5
 10
155.99369200000001
 20
137.42612
 30
0.0
 11
157.19366400000001
 21
137.41761999999991
 31
0.0
  0
LINE
  8
DETAIL
  6
DASHED
 62
     5
 10
156.00668400000001
 20
139.25940800000001
 30
0.0
 11
156.2825319999998
 21
140.04576399999999
 31
0.0
  0
LINE
  8
DETAIL
  6
DASHED
 62
     5
 10
156.00668400000001
 20
139.25940800000001
 30
0.0
 11
155.99978400000001
 21
138.285844
 31
0.0
  0
LINE
  8
DETAIL
  6
DASHED
 62
     5
 10
158.99454800000001
 20
138.3511559999998
 30
0.0
 11
159.186924
 21
139.2189080000002
 31
0.0
  0
ARC
  8
DETAIL
  6
DASHED
 62
     5
 10
160.99451199999999
 20
138.362976
 30
0.0
 40
2.0
 50
180.33856800000251
 51
334.66143199999777
  0
ARC
  8
DETAIL
  6
DASHED
 62
     5
 10
160.99451199999999
 20
138.362976
 30
0.0
 40
2.0
 50
0.3385680000024472
 51
154.6614319999978
  0
LINE
  8
DETAIL
  6
DASHED
 62
     5
 10
162.8021
 20
137.50704400000001
 30
0.0
 11
162.99447599999999
 21
138.3747920000001
 31
0.0
  0
LINE
  8
DETAIL
  6
DASHED
 62
     5
 10
166.00643199999999
 20
139.18856000000019
 30
0.0
 11
165.74175199999999
 21
139.97874400000001
 31
0.0
  0
LINE
  8
DETAIL
  6
DASHED
 62
     5
 10
164.79347200000009
 20
137.363776
 30
0.0
 11
165.99344400000001
 21
137.355276
 31
0.0
  0
LINE
  8
DETAIL
  6
CONTINUOUS
 62
     5
 10
72.849360000000047
 20
187.5
 30
0.0
 11
95.849360000000047
 21
187.5
 31
0.0
  0
LINE
  8
DETAIL
  6
CONTINUOUS
 62
     5
 10
71.849360000000047
 20
182.5
 30
0.0
 11
76.849360000000047
 21
182.5
 31
0.0
  0
LINE
  8
DETAIL
  6
CONTINUOUS
 62
     5
 10
33.508420000000001
 20
171.0
 30
0.0
 11
-59.508423999999991
 21
171.0
 31
0.0
  0
LINE
  8
DETAIL
  6
CONTINUOUS
 62
     5
 10
-38.950000000000053
 20
199.5
 30
0.0
 11
-13.0
 21
199.5
 31
0.0
  0
LINE
  8
DETAIL
  6
CONTINUOUS
 62
     5
 10
-44.450000000000053
 20
194.0
 30
0.0
 11
-44.450000000000053
 21
171.0
 31
0.0
  0
ARC
  8
DETAIL
  6
CONTINUOUS
 62
     5
 10
-59.508423999999991
 20
169.0
 30
0.0
 40
2.0
 50
90.0
 51
178.99999999999821
  0
ARC
  8
DETAIL
  6
CONTINUOUS
 62
     5
 10
-38.950000000000053
 20
194.0
 30
0.0
 40
5.5
 50
90.0
 51
180.0
  0
LINE
  8
OUTLINE
  6
CONTINUOUS
 62
     3
 10
0.0
 20
202.40000000000001
 30
0.0
 11
69.034660000000031
 21
202.40000000000001
 31
0.0
  0
LINE
  8
DETAIL
  6
CONTINUOUS
 62
     5
 10
17.5
 20
171.0
 30
0.0
 11
69.034660000000031
 21
171.0
 31
0.0
  0
ARC
  8
DETAIL
  6
CONTINUOUS
 62
     5
 10
33.508420000000001
 20
169.0
 30
0.0
 40
2.0
 50
0.9999999999952606
 51
90.0
  0
LINE
  8
OUTLINE
  6
CONTINUOUS
 62
     3
 10
0.0
 20
202.40000000000001
 30
0.0
 11
0.0
 21
199.5
 31
0.0
  0
LINE
  8
DETAIL
  6
CONTINUOUS
 62
     5
 10
73.849360000000047
 20
186.5
 30
0.0
 11
73.849360000000047
 21
182.5
 31
0.0
  0
LINE
  8
DETAIL
  6
CONTINUOUS
 62
     5
 10
69.034660000000031
 20
202.40000000000001
 30
0.0
 11
69.034660000000031
 21
171.0
 31
0.0
  0
ARC
  8
DETAIL
  6
CONTINUOUS
 62
     5
 10
72.849360000000047
 20
186.5
 30
0.0
 40
1.0
 50
90.0
 51
180.0
  0
ARC
  8
DETAIL
  6
CONTINUOUS
 62
     5
 10
72.849360000000047
 20
186.5
 30
0.0
 40
1.0
 50
0.0
 51
90.0
  0
LINE
  8
DETAIL
  6
CONTINUOUS
 62
     5
 10
162.0006519999998
 20
161.11797999999999
 30
0.0
 11
135.96116000000009
 21
161.11797999999999
 31
0.0
  0
LINE
  8
DETAIL
  6
CONTINUOUS
 62
     5
 10
160.0006519999998
 20
156.11797999999999
 30
0.0
 11
145.0006519999998
 21
156.11797999999999
 31
0.0
  0
LINE
  8
DETAIL
  6
CONTINUOUS
 62
     5
 10
160.0006519999998
 20
170.89526000000001
 30
0.0
 11
103.50008800000001
 21
170.89526000000001
 31
0.0
  0
ARC
  8
DETAIL
  6
CONTINUOUS
 62
     5
 10
90.844391999999971
 20
68.880212000000029
 30
0.0
 40
102.680716
 50
58.168439000002053
 51
83.472361000001058
  0
LINE
  8
DETAIL
  6
CONTINUOUS
 62
     5
 10
76.849360000000047
 20
186.52000000000001
 30
0.0
 11
76.849360000000047
 21
182.5
 31
0.0
  0
LINE
  8
DETAIL
  6
CONTINUOUS
 62
     5
 10
78.849360000000047
 20
186.5
 30
0.0
 11
78.849360000000047
 21
182.5
 31
0.0
  0
LINE
  8
DETAIL
  6
CONTINUOUS
 62
     5
 10
96.849360000000047
 20
186.5
 30
0.0
 11
96.849360000000047
 21
182.5
 31
0.0
  0
LINE
  8
DETAIL
  6
CONTINUOUS
 62
     5
 10
76.849360000000047
 20
182.5
 30
0.0
 11
96.849360000000047
 21
182.5
 31
0.0
  0
ARC
  8
DETAIL
  6
CONTINUOUS
 62
     5
 10
103.50008800000001
 20
171.89526000000001
 30
0.0
 40
1.0
 50
180.9999999999952
 51
270.0
  0
LINE
  8
DETAIL
  6
CONTINUOUS
 62
     5
 10
96.849360000000047
 20
182.5
 30
0.0
 11
100.349436
 21
182.5
 31
0.0
  0
LINE
  8
DETAIL
  6
CONTINUOUS
 62
     5
 10
102.3491320000001
 20
180.53490400000001
 30
0.0
 11
102.50024000000001
 21
171.87780799999999
 31
0.0
  0
ARC
  8
DETAIL
  6
CONTINUOUS
 62
     5
 10
100.349436
 20
180.5
 30
0.0
 40
2.0
 50
0.9999999999952606
 51
90.0
  0
LINE
  8
DETAIL
  6
CONTINUOUS
 62
     5
 10
92.047452000000021
 20
196.24253200000001
 30
0.0
 11
94.233087999999952
 21
187.5
 31
0.0
  0
LINE
  8
DETAIL
  6
CONTINUOUS
 62
     5
 10
91.077312000000006
 20
197.0
 30
0.0
 11
82.642667999999958
 21
197.0
 31
0.0
  0
ARC
  8
DETAIL
  6
CONTINUOUS
 62
     5
 10
82.642667999999958
 20
196.0
 30
0.0
 40
1.0
 50
90.0
 51
166.23413299999919
  0
LINE
  8
DETAIL
  6
CONTINUOUS
 62
     5
 10
79.530664000000002
 20
187.5
 30
0.0
 11
81.671391999999969
 21
196.23795200000001
 31
0.0
  0
ARC
  8
DETAIL
  6
CONTINUOUS
 62
     5
 10
77.849360000000047
 20
186.5
 30
0.0
 40
1.0
 50
90.0
 51
180.0
  0
ARC
  8
DETAIL
  6
CONTINUOUS
 62
     5
 10
77.849360000000047
 20
186.5
 30
0.0
 40
1.0
 50
0.0
 51
90.0
  0
ARC
  8
DETAIL
  6
CONTINUOUS
 62
     5
 10
91.077312000000006
 20
196.0
 30
0.0
 40
1.0
 50
14.03624299999721
 51
90.0
  0
ARC
  8
DETAIL
  6
CONTINUOUS
 62
     5
 10
95.849360000000047
 20
186.5
 30
0.0
 40
1.0
 50
0.0
 51
90.0
  0
LINE
  8
DETAIL
  6
CONTINUOUS
 62
     5
 10
190.00065199999989
 20
159.26206400000001
 30
0.0
 11
183.92168799999999
 21
165.34103200000001
 31
0.0
  0
LINE
  8
DETAIL
  6
CONTINUOUS
 62
     5
 10
182.53278800000001
 20
165.92666
 30
0.0
 11
162.98799600000009
 21
166.1740600000002
 31
0.0
  0
ARC
  8
DETAIL
  6
CONTINUOUS
 62
     5
 10
160.0006519999998
 20
168.89526000000001
 30
0.0
 40
2.0
 50
0.0
 51
90.0
  0
ARC
  8
DETAIL
  6
CONTINUOUS
 62
     5
 10
160.0006519999998
 20
158.11797999999999
 30
0.0
 40
2.0
 50
270.0
 51
0.0
  0
LINE
  8
DETAIL
  6
CONTINUOUS
 62
     5
 10
162.0006519999998
 20
158.11797999999999
 30
0.0
 11
162.0006519999998
 21
168.89526000000001
 31
0.0
  0
ARC
  8
DETAIL
  6
CONTINUOUS
 62
     5
 10
163.0006519999998
 20
167.17398
 30
0.0
 40
1.0
 50
180.0
 51
269.27477599999821
  0
ARC
  8
DETAIL
  6
CONTINUOUS
 62
     5
 10
182.50747200000001
 20
163.92681999999999
 30
0.0
 40
2.0
 50
45.000000000000007
 51
89.274775999998212
  0
LINE
  8
DETAIL
  6
CONTINUOUS
 62
     5
 10
220.00065199999989
 20
159.00026
 30
0.0
 11
190.00065199999989
 21
159.26206400000001
 31
0.0
  0
LINE
  8
DETAIL
  6
DASHED
 62
     5
 10
232.7527
 20
124.926508
 30
0.0
 11
232.7527
 21
125.73885199999999
 31
0.0
  0
LINE
  8
OUTLINE
  6
CONTINUOUS
 62
     3
 10
36.96271200000001
 20
142.0
 30
0.0
 11
49.363519999999987
 21
142.0
 31
0.0
  0
LINE
  8
OUTLINE
  6
CONTINUOUS
 62
     3
 10
-44.450000000000053
 20
171.0
 30
0.0
 11
-59.508423999999991
 21
171.0
 31
0.0
  0
LINE
  8
OUTLINE
  6
CONTINUOUS
 62
     3
 10
-105.0
 20
0.0
 30
0.0
 11
-145.0
 21
0.0
 31
0.0
  0
LINE
  8
DETAIL
  6
CONTINUOUS
 62
     5
 10
20.0
 20
202.40000000000001
 30
0.0
 11
20.0
 21
171.0
 31
0.0
  0
LINE
  8
DETAIL
  6
CONTINUOUS
 62
     5
 10
12.950000000000051
 20
199.5
 30
0.0
 11
-13.0
 21
199.5
 31
0.0
  0
LINE
  8
DETAIL
  6
CONTINUOUS
 62
     5
 10
0.0
 20
202.40000000000001
 30
0.0
 11
69.034660000000031
 21
202.40000000000001
 31
0.0
  0
LINE
  8
DETAIL
  6
CONTINUOUS
 62
     5
 10
0.0
 20
202.40000000000001
 30
0.0
 11
0.0
 21
199.5
 31
0.0
  0
LINE
  8
SIZE
  6
CONTINUOUS
 62
    30
 10
105.0
 20
-20.0
 30
0.0
 11
105.0
 21
-193.585499
 31
0.0
  0
LINE
  8
SIZE
  6
CONTINUOUS
 62
    30
 10
-105.0
 20
-20.0
 30
0.0
 11
-105.0
 21
-193.585499
 31
0.0
  0
LINE
  8
SIZE
  6
CONTINUOUS
 62
    30
 10
93.0
 20
-173.585499
 30
0.0
 11
-93.0
 21
-173.585499
 31
0.0
  0
CIRCLE
  8
SIZE
  6
CONTINUOUS
 62
    30
 10
105.0
 20
-173.585499
 30
0.0
 40
6.0
  0
LINE
  8
SIZE
  6
CONTINUOUS
 62
    30
 10
105.0
 20
-173.585499
 30
0.0
 11
93.0
 21
-173.585499
 31
0.0
  0
CIRCLE
  8
SIZE
  6
CONTINUOUS
 62
    30
 10
-105.0
 20
-173.585499
 30
0.0
 40
6.0
  0
LINE
  8
SIZE
  6
CONTINUOUS
 62
    30
 10
-105.0
 20
-173.585499
 30
0.0
 11
-93.0
 21
-173.585499
 31
0.0
  0
TEXT
  8
SIZE
  6
CONTINUOUS
 62
    30
 10
-68.571428571428555
 20
-148.585499
 30
0.0
 40
64.0
  1
210
 41
0.9
 72
     1
 11
0.0
 21
-148.585499
 31
0.0
  0
POINT
  8
DEFPOINTS
  6
CONTINUOUS
 62
    30
 10
105.0
 20
0.0
 30
0.0
  0
POINT
  8
DEFPOINTS
  6
CONTINUOUS
 62
    30
 10
-105.0
 20
0.0
 30
0.0
  0
POINT
  8
DEFPOINTS
  6
CONTINUOUS
 62
    30
 10
-105.0
 20
-173.585499
 30
0.0
  0
LINE
  8
DETAIL
  6
CONTINUOUS
 62
     5
 10
18.450000000000049
 20
194.0
 30
0.0
 11
18.450000000000049
 21
171.0
 31
0.0
  0
ARC
  8
DETAIL
  6
CONTINUOUS
 62
     5
 10
12.950000000000051
 20
194.0
 30
0.0
 40
5.5
 50
0.0
 51
90.0
  0
LINE
  8
OUTLINE
  6
CONTINUOUS
 62
     3
 10
145.0006519999998
 20
156.11797999999999
 30
0.0
 11
145.0006519999998
 21
60.389380000000017
 31
0.0
  0
LINE
  8
OUTLINE
  6
CONTINUOUS
 62
     3
 10
183.34636
 20
165.91635999999991
 30
0.0
 11
190.00065199999989
 21
60.738452000000002
 31
0.0
  0
LINE
  8
OUTLINE
  6
CONTINUOUS
 62
     3
 10
190.00065199999989
 20
60.738452000000002
 30
0.0
 11
190.00065199999989
 21
159.26206400000001
 31
0.0
  0
LINE
  8
OUTLINE
  6
CONTINUOUS
 62
     3
 10
220.00065199999989
 20
61.000260000000033
 30
0.0
 11
220.00065199999989
 21
159.00026
 31
0.0
  0
LINE
  8
OUTLINE
  6
CONTINUOUS
 62
     3
 10
220.00065199999989
 20
61.000260000000033
 30
0.0
 11
105.461944
 21
60.000695999999998
 31
0.0
  0
ARC
  8
OUTLINE
  6
CONTINUOUS
 62
     3
 10
105.47067199999999
 20
59.000731999999971
 30
0.0
 40
1.0
 50
90.499999999998053
 51
180.9999999999952
  0
LINE
  8
OUTLINE
  6
CONTINUOUS
 62
     3
 10
162.0006519999998
 20
161.11797999999999
 30
0.0
 11
135.96116000000009
 21
161.11797999999999
 31
0.0
  0
LINE
  8
OUTLINE
  6
CONTINUOUS
 62
     3
 10
160.0006519999998
 20
156.11797999999999
 30
0.0
 11
145.0006519999998
 21
156.11797999999999
 31
0.0
  0
LINE
  8
OUTLINE
  6
CONTINUOUS
 62
     3
 10
160.0006519999998
 20
170.89526000000001
 30
0.0
 11
103.50008800000001
 21
170.89526000000001
 31
0.0
  0
ARC
  8
OUTLINE
  6
CONTINUOUS
 62
     3
 10
90.844391999999971
 20
68.880212000000029
 30
0.0
 40
102.680716
 50
58.168439000002053
 51
83.472361000001058
  0
ARC
  8
OUTLINE
  6
CONTINUOUS
 62
     3
 10
103.50008800000001
 20
171.89526000000001
 30
0.0
 40
1.0
 50
180.9999999999952
 51
270.0
  0
LINE
  8
OUTLINE
  6
CONTINUOUS
 62
     3
 10
190.00065199999989
 20
159.26206400000001
 30
0.0
 11
183.92168799999999
 21
165.34103200000001
 31
0.0
  0
LINE
  8
OUTLINE
  6
CONTINUOUS
 62
     3
 10
182.53278800000001
 20
165.92666
 30
0.0
 11
162.98799600000009
 21
166.1740600000002
 31
0.0
  0
ARC
  8
OUTLINE
  6
CONTINUOUS
 62
     3
 10
160.0006519999998
 20
168.89526000000001
 30
0.0
 40
2.0
 50
0.0
 51
90.0
  0
ARC
  8
OUTLINE
  6
CONTINUOUS
 62
     3
 10
160.0006519999998
 20
158.11797999999999
 30
0.0
 40
2.0
 50
270.0
 51
0.0
  0
LINE
  8
OUTLINE
  6
CONTINUOUS
 62
     3
 10
162.0006519999998
 20
158.11797999999999
 30
0.0
 11
162.0006519999998
 21
168.89526000000001
 31
0.0
  0
ARC
  8
OUTLINE
  6
CONTINUOUS
 62
     3
 10
163.0006519999998
 20
167.17398
 30
0.0
 40
1.0
 50
180.0
 51
269.27477599999821
  0
ARC
  8
OUTLINE
  6
CONTINUOUS
 62
     3
 10
182.50747200000001
 20
163.92681999999999
 30
0.0
 40
2.0
 50
45.000000000000007
 51
89.274775999998212
  0
LINE
  8
OUTLINE
  6
CONTINUOUS
 62
     3
 10
220.00065199999989
 20
159.00026
 30
0.0
 11
190.00065199999989
 21
159.26206400000001
 31
0.0
  0
ENDSEC
  0
EOF
