  0
SECTION
  2
HEADER
  9
$ACADVER
  1
AC1009
  9
$DWGCODEPAGE
  3
dos932
  9
$INSBASE
 10
0.0
 20
0.0
 30
0.0
  9
$EXTMIN
 10
-618.59892142075114
 20
-572.29613102075746
 30
-0.0015258207003583
  9
$EXTMAX
 10
1318.3181881768601
 20
745.33081874871823
 30
0.0000000349246037
  9
$LIMMIN
 10
-2970.0
 20
-2100.0
  9
$LIMMAX
 10
2970.0
 20
2100.0
  9
$ORTHOMODE
 70
     1
  9
$REGENMODE
 70
     1
  9
$FILLMODE
 70
     1
  9
$QTEXTMODE
 70
     0
  9
$MIRRTEXT
 70
     0
  9
$LTSCALE
 40
20.0
  9
$ATTMODE
 70
     1
  9
$TEXTSIZE
 40
64.0
  9
$TRACEWID
 40
0.05
  9
$TEXTSTYLE
  7
STANDARD
  9
$CLAYER
  8
SIZE
  9
$CELTYPE
  6
CONTINUOUS
  9
$CECOLOR
 62
     7
  9
$DIMSCALE
 40
1.0
  9
$DIMASZ
 40
12.0
  9
$DIMEXO
 40
20.0
  9
$DIMDLI
 40
200.0
  9
$DIMRND
 40
0.0
  9
$DIMDLE
 40
0.0
  9
$DIMEXE
 40
20.0
  9
$DIMTP
 40
0.0
  9
$DIMTM
 40
0.0
  9
$DIMTXT
 40
64.0
  9
$DIMCEN
 40
0.09
  9
$DIMTSZ
 40
0.0
  9
$DIMTOL
 70
     0
  9
$DIMLIM
 70
     0
  9
$DIMTIH
 70
     0
  9
$DIMTOH
 70
     0
  9
$DIMSE1
 70
     0
  9
$DIMSE2
 70
     0
  9
$DIMTAD
 70
     1
  9
$DIMZIN
 70
     8
  9
$DIMBLK
  1

  9
$DIMASO
 70
     1
  9
$DIMSHO
 70
     0
  9
$DIMPOST
  1

  9
$DIMAPOST
  1

  9
$DIMALT
 70
     0
  9
$DIMALTD
 70
     2
  9
$DIMALTF
 40
25.399999999999999
  9
$DIMLFAC
 40
1.0
  9
$DIMTOFL
 70
     1
  9
$DIMTVP
 40
0.0
  9
$DIMTIX
 70
     1
  9
$DIMSOXD
 70
     0
  9
$DIMSAH
 70
     0
  9
$DIMBLK1
  1

  9
$DIMBLK2
  1

  9
$DIMSTYLE
  2
STANDARD
  9
$DIMCLRD
 70
     7
  9
$DIMCLRE
 70
     7
  9
$DIMCLRT
 70
     7
  9
$DIMTFAC
 40
1.0
  9
$DIMGAP
 40
25.0
  9
$LUNITS
 70
     2
  9
$LUPREC
 70
     4
  9
$SKETCHINC
 40
0.1
  9
$FILLETRAD
 40
3.0
  9
$AUNITS
 70
     1
  9
$AUPREC
 70
     3
  9
$MENU
  1
ACAD
  9
$ELEVATION
 40
0.0
  9
$PELEVATION
 40
0.0
  9
$THICKNESS
 40
0.0
  9
$LIMCHECK
 70
     0
  9
$CHAMFERA
 40
0.0
  9
$CHAMFERB
 40
0.0
  9
$SKPOLY
 70
     0
  9
$TDCREATE
 40
2453019.62301037
  9
$TDUPDATE
 40
2459025.494198449
  9
$TDINDWG
 40
1.7130368171
  9
$TDUSRTIMER
 40
1.7130368171
  9
$USRTIMER
 70
     1
  9
$ANGBASE
 50
0.0
  9
$ANGDIR
 70
     0
  9
$PDMODE
 70
     3
  9
$PDSIZE
 40
-2.0
  9
$PLINEWID
 40
0.0
  9
$SPLFRAME
 70
     0
  9
$SPLINETYPE
 70
     6
  9
$SPLINESEGS
 70
     8
  9
$SURFTAB1
 70
     6
  9
$SURFTAB2
 70
     6
  9
$SURFTYPE
 70
     6
  9
$SURFU
 70
     6
  9
$SURFV
 70
     6
  9
$UCSNAME
  2

  9
$UCSORG
 10
0.0
 20
0.0
 30
0.0
  9
$UCSXDIR
 10
1.0
 20
0.0
 30
0.0
  9
$UCSYDIR
 10
0.0
 20
1.0
 30
0.0
  9
$PUCSNAME
  2

  9
$PUCSORG
 10
0.0
 20
0.0
 30
0.0
  9
$PUCSXDIR
 10
1.0
 20
0.0
 30
0.0
  9
$PUCSYDIR
 10
0.0
 20
1.0
 30
0.0
  9
$USERI1
 70
     0
  9
$USERI2
 70
     0
  9
$USERI3
 70
     0
  9
$USERI4
 70
     0
  9
$USERI5
 70
     0
  9
$USERR1
 40
20.0
  9
$USERR2
 40
0.0
  9
$USERR3
 40
0.0
  9
$USERR4
 40
0.0
  9
$USERR5
 40
0.0
  9
$WORLDVIEW
 70
     1
  9
$SHADEDGE
 70
     3
  9
$SHADEDIF
 70
    70
  9
$TILEMODE
 70
     1
  9
$MAXACTVP
 70
    48
  9
$PINSBASE
 10
0.0
 20
0.0
 30
0.0
  9
$PLIMCHECK
 70
     0
  9
$PEXTMIN
 10
-100000000000000000000.0
 20
-100000000000000000000.0
 30
-100000000000000000000.0
  9
$PEXTMAX
 10
100000000000000000000.0
 20
100000000000000000000.0
 30
100000000000000000000.0
  9
$PLIMMIN
 10
0.0
 20
0.0
  9
$PLIMMAX
 10
12.0
 20
9.0
  9
$UNITMODE
 70
     0
  9
$VISRETAIN
 70
     0
  9
$PLINEGEN
 70
     0
  9
$PSLTSCALE
 70
     0
  9
$TREEDEPTH
 70
  3020
  9
$ATTDIA
 70
     0
  9
$ATTREQ
 70
     1
  9
$BLIPMODE
 70
     1
  9
$COORDS
 70
     1
  9
$DRAGMODE
 70
     2
  9
$OSMODE
 70
     0
  9
$HANDLING
 70
     0
  9
$HANDSEED
  5
ED58
  0
ENDSEC
  0
SECTION
  2
TABLES
  0
TABLE
  2
LTYPE
 70
     2
  0
LTYPE
  2
CONTINUOUS
 70
     0
  3
実線
 72
    65
 73
     0
 40
0.0
  0
LTYPE
  2
DASHDOT
 70
     0
  3
____ _ ____ _ ____ _ ____ _ ____ _ ____ _ ____
 72
    65
 73
     4
 40
5.5
 49
4.0
 49
-0.6
 49
0.3
 49
-0.6
  0
ENDTAB
  0
TABLE
  2
LAYER
 70
    12
  0
LAYER
  2
0
 70
     0
 62
     7
  6
CONTINUOUS
  0
LAYER
  2
BASIS
 70
     0
 62
     6
  6
DASHDOT
  0
LAYER
  2
OUTLINE
 70
     0
 62
     3
  6
CONTINUOUS
  0
LAYER
  2
DETAIL
 70
     0
 62
     5
  6
CONTINUOUS
  0
LAYER
  2
SIZE
 70
     0
 62
    30
  6
CONTINUOUS
  0
LAYER
  2
ARRANGE
 70
     0
 62
     1
  6
CONTINUOUS
  0
LAYER
  2
DEFPOINTS
 70
     0
 62
     7
  6
CONTINUOUS
  0
LAYER
  2
ETC
 70
     0
 62
    61
  6
CONTINUOUS
  0
LAYER
  2
FIX
 70
     0
 62
    11
  6
CONTINUOUS
  0
LAYER
  2
NOTE
 70
     0
 62
     4
  6
CONTINUOUS
  0
LAYER
  2
SERVICESPACE
 70
    64
 62
     2
  6
DASHDOT
  0
LAYER
  2
SYMBOLLINE
 70
    64
 62
    15
  6
CONTINUOUS
  0
ENDTAB
  0
TABLE
  2
STYLE
 70
     1
  0
STYLE
  2
STANDARD
 70
     0
 40
64.0
 41
0.9
 50
0.0
 71
     0
 42
64.0
  3
SIMPLEX.shx
  4
BIGFONT.shx
  0
ENDTAB
  0
TABLE
  2
APPID
 70
    19
  0
APPID
  2
ACAD
 70
     0
  0
APPID
  2
AUTOCAD_POSTSCRIPT_FIGURE
 70
     0
  0
APPID
  2
ACAD_EXEMPT_FROM_CAD_STANDARDS
 70
     0
  0
APPID
  2
ACAD_PSEXT
 70
     0
  0
APPID
  2
ACAUTHENVIRON
 70
     0
  0
APPID
  2
GENIUS_GENOENT_13
 70
     0
  0
APPID
  2
GENIUS_GENCFG_13
 70
     0
  0
APPID
  2
GENIUS_GENCFG0_13
 70
     0
  0
APPID
  2
GENIUS_GENCFG1_13
 70
     0
  0
APPID
  2
GENIUS_GENCFG2_13
 70
     0
  0
APPID
  2
GENIUS_GENCFG3_13
 70
     0
  0
APPID
  2
GENIUS_GENCFG4_13
 70
     0
  0
APPID
  2
GENIUS_GEVCFG0_13
 70
     0
  0
APPID
  2
CONTENTBLOCKICON
 70
     0
  0
APPID
  2
CONTENTBLOCKDESCRIPTION
 70
     0
  0
APPID
  2
ACAD_NAV_VCDISPLAY
 70
     0
  0
APPID
  2
ACAD_MLEADERVER
 70
     0
  0
APPID
  2
ACDBDYNAMICBLOCKTRUENAME
 70
     0
  0
APPID
  2
ACDBDYNAMICBLOCKGUID
 70
     0
  0
ENDTAB
  0
TABLE
  2
DIMSTYLE
 70
     1
  0
DIMSTYLE
  2
STANDARD
 70
     0
  3

  4

  5
_ORIGIN
  6

  7

 40
1.0
 41
12.0
 42
20.0
 43
200.0
 44
20.0
 45
0.0
 46
0.0
 47
0.0
 48
0.0
140
64.0
141
0.09
142
0.0
143
25.399999999999999
144
1.0
145
0.0
146
1.0
147
25.0
 71
     0
 72
     0
 73
     0
 74
     0
 75
     0
 76
     0
 77
     1
 78
     8
170
     0
171
     2
172
     1
173
     0
174
     1
175
     0
176
     7
177
     7
178
     7
  0
ENDTAB
  0
TABLE
  2
VIEW
 70
     1
  0
VIEW
  2
ALL
 70
     0
 40
4282.6198079999986
 10
0.0
 20
41.309904000000003
 41
5940.0
 11
0.0
 21
0.0
 31
1.0
 12
0.0
 22
0.0
 32
0.0
 42
50.0
 43
0.0
 44
0.0
 50
0.0
 71
     0
  0
ENDTAB
  0
TABLE
  2
UCS
 70
     0
  0
ENDTAB
  0
TABLE
  2
VPORT
 70
     1
  0
VPORT
  2
*ACTIVE
 70
     0
 10
0.0
 20
0.0
 11
1.0
 21
1.0
 12
349.85963337805418
 22
86.517343863980386
 13
0.0
 23
0.0
 14
1.0
 24
1.0
 15
0.0
 25
0.0
 16
0.0
 26
0.0
 36
1.0
 17
0.0
 27
0.0
 37
0.0
 40
1326.3625980552399
 41
1.747787610619469
 42
50.0
 43
0.0
 44
0.0
 50
0.0
 51
0.0
 71
     0
 72
  1000
 73
     1
 74
     3
 75
     0
 76
     0
 77
     0
 78
     0
  0
ENDTAB
  0
ENDSEC
  0
SECTION
  2
BLOCKS
  0
BLOCK
  8
0
  2
_ORIGIN
 70
     0
 10
0.0
 20
0.0
 30
0.0
  3
_ORIGIN
  1
_ORIGIN
  0
CIRCLE
  8
0
  6
CONTINUOUS
 62
     7
 10
0.0
 20
0.0
 30
0.0
 40
0.5
  0
LINE
  8
0
  6
CONTINUOUS
 62
     7
 10
0.0
 20
0.0
 30
0.0
 11
-1.0
 21
0.0
 31
0.0
  0
ENDBLK
  8
0
  0
ENDSEC
  0
SECTION
  2
ENTITIES
  0
TEXT
  8
ETC
  6
CONTINUOUS
 62
    61
 10
593.82839199999989
 20
681.25138599999991
 30
0.0
 40
64.0
  1
VD-13ZCC7-M_1
 41
0.9
  0
TEXT
  8
ETC
  6
CONTINUOUS
 62
    61
 10
697.43229400000018
 20
546.68118600000003
 30
0.0
 40
64.0
  1
換気扇
 41
0.9
  0
TEXT
  8
ETC
  6
CONTINUOUS
 62
    61
 10
748.03979699999991
 20
439.76025099999993
 30
0.0
 40
40.0
  1
VD-13ZCC7-M
 41
0.9
  0
CIRCLE
  8
ARRANGE
  6
CONTINUOUS
 62
     1
 10
0.0
 20
0.0
 30
0.0
 40
40.0
  0
POINT
  8
ARRANGE
  6
CONTINUOUS
 62
     1
 10
0.0
 20
0.0
 30
0.0
  0
LINE
  8
BASIS
  6
DASHDOT
 62
     6
 10
0.0
 20
-203.20517000000001
 30
0.0
 11
0.0
 21
163.11772700000009
 31
0.0
  0
LINE
  8
BASIS
  6
DASHDOT
 62
     6
 10
-156.08102000000011
 20
0.0
 30
0.0
 11
156.08102000000011
 21
0.0
 31
0.0
  0
TEXT
  8
NOTE
  6
CONTINUOUS
 62
     4
 10
-46.754785000000084
 20
-310.11642999999998
 30
0.0
 40
64.0
  1
EA
 41
0.9
  0
LINE
  8
SIZE
  6
CONTINUOUS
 62
    30
 10
-49.00000799999998
 20
-240.00065199999989
 30
0.0
 11
-49.00000799999998
 21
-448.87792000000002
 31
0.0
  0
LINE
  8
SIZE
  6
CONTINUOUS
 62
    30
 10
48.99999200000002
 20
-240.00065199999989
 30
0.0
 11
48.99999200000002
 21
-448.87792000000002
 31
0.0
  0
LINE
  8
SIZE
  6
CONTINUOUS
 62
    30
 10
-37.00000799999998
 20
-428.87792000000002
 30
0.0
 11
36.99999200000002
 21
-428.87792000000002
 31
0.0
  0
LINE
  8
SIZE
  6
CONTINUOUS
 62
    30
 10
48.99999200000002
 20
-428.87792000000002
 30
0.0
 11
261.8571350000002
 21
-428.87792000000002
 31
0.0
  0
CIRCLE
  8
SIZE
  6
CONTINUOUS
 62
    30
 10
-49.00000799999998
 20
-428.87792000000002
 30
0.0
 40
6.0
  0
LINE
  8
SIZE
  6
CONTINUOUS
 62
    30
 10
-49.00000799999998
 20
-428.87792000000002
 30
0.0
 11
-37.00000799999998
 21
-428.87792000000002
 31
0.0
  0
CIRCLE
  8
SIZE
  6
CONTINUOUS
 62
    30
 10
48.99999200000002
 20
-428.87792000000002
 30
0.0
 40
6.0
  0
LINE
  8
SIZE
  6
CONTINUOUS
 62
    30
 10
48.99999200000002
 20
-428.87792000000002
 30
0.0
 11
36.99999200000002
 21
-428.87792000000002
 31
0.0
  0
TEXT
  8
SIZE
  6
CONTINUOUS
 62
    30
 10
74.479991571428499
 20
-403.87792000000002
 30
0.0
 40
64.0
  1
φ98
 41
0.9
 72
     1
 11
161.42856299999991
 21
-403.87792000000002
 31
0.0
  0
POINT
  8
DEFPOINTS
  6
CONTINUOUS
 62
    30
 10
-49.00000799999998
 20
-220.00065199999989
 30
0.0
  0
POINT
  8
DEFPOINTS
  6
CONTINUOUS
 62
    30
 10
48.99999200000002
 20
-220.00065199999989
 30
0.0
  0
POINT
  8
DEFPOINTS
  6
CONTINUOUS
 62
    30
 10
48.99999200000002
 20
-428.87792000000002
 30
0.0
  0
LINE
  8
SIZE
  6
CONTINUOUS
 62
    30
 10
-52.539796000000017
 20
-206.87003999999999
 30
0.0
 11
-52.539796000000017
 21
-571.98558600000001
 31
0.0
  0
LINE
  8
SIZE
  6
CONTINUOUS
 62
    30
 10
52.539780000000057
 20
-206.87003999999999
 30
0.0
 11
52.539780000000057
 21
-571.98558600000001
 31
0.0
  0
LINE
  8
SIZE
  6
CONTINUOUS
 62
    30
 10
-40.539796000000017
 20
-551.98558600000001
 30
0.0
 11
40.539780000000057
 21
-551.98558600000001
 31
0.0
  0
LINE
  8
SIZE
  6
CONTINUOUS
 62
    30
 10
52.539780000000057
 20
-551.98558600000001
 30
0.0
 11
309.28263700000019
 21
-551.98558600000001
 31
0.0
  0
CIRCLE
  8
SIZE
  6
CONTINUOUS
 62
    30
 10
-52.539796000000017
 20
-551.98558600000001
 30
0.0
 40
6.0
  0
LINE
  8
SIZE
  6
CONTINUOUS
 62
    30
 10
-52.539796000000017
 20
-551.98558600000001
 30
0.0
 11
-40.539796000000017
 21
-551.98558600000001
 31
0.0
  0
CIRCLE
  8
SIZE
  6
CONTINUOUS
 62
    30
 10
52.539780000000057
 20
-551.98558600000001
 30
0.0
 40
6.0
  0
LINE
  8
SIZE
  6
CONTINUOUS
 62
    30
 10
52.539780000000057
 20
-551.98558600000001
 30
0.0
 11
40.539780000000057
 21
-551.98558600000001
 31
0.0
  0
TEXT
  8
SIZE
  6
CONTINUOUS
 62
    30
 10
78.019780428571295
 20
-526.98558600000001
 30
0.0
 40
64.0
  1
φ105
 41
0.9
 72
     1
 11
186.9112089999999
 21
-526.98558600000001
 31
0.0
  0
POINT
  8
DEFPOINTS
  6
CONTINUOUS
 62
    30
 10
-52.539796000000017
 20
-186.87003999999999
 30
0.0
  0
POINT
  8
DEFPOINTS
  6
CONTINUOUS
 62
    30
 10
52.539780000000057
 20
-186.87003999999999
 30
0.0
  0
POINT
  8
DEFPOINTS
  6
CONTINUOUS
 62
    30
 10
52.539780000000057
 20
-551.98558600000001
 30
0.0
  0
LINE
  8
SIZE
  6
CONTINUOUS
 62
    30
 10
-57.606738999999827
 20
-220.00065199999989
 30
0.0
 11
-421.80994099999998
 21
-220.00065199999989
 31
0.0
  0
LINE
  8
SIZE
  6
CONTINUOUS
 62
    30
 10
-176.08102000000011
 20
0.0
 30
0.0
 11
-421.80994099999998
 21
0.0
 31
0.0
  0
LINE
  8
SIZE
  6
CONTINUOUS
 62
    30
 10
-401.80994099999998
 20
-12.0
 30
0.0
 11
-401.80994099999998
 21
-208.00065199999989
 31
0.0
  0
LINE
  8
SIZE
  6
CONTINUOUS
 62
    30
 10
-401.80994099999998
 20
-220.00065199999989
 30
0.0
 11
-401.80994099999998
 21
-430.11493799999988
 31
0.0
  0
CIRCLE
  8
SIZE
  6
CONTINUOUS
 62
    30
 10
-401.80994099999998
 20
0.0
 30
0.0
 40
6.0
  0
LINE
  8
SIZE
  6
CONTINUOUS
 62
    30
 10
-401.80994099999998
 20
0.0
 30
0.0
 11
-401.80994099999998
 21
-12.0
 31
0.0
  0
CIRCLE
  8
SIZE
  6
CONTINUOUS
 62
    30
 10
-401.80994099999998
 20
-220.00065199999989
 30
0.0
 40
6.0
  0
LINE
  8
SIZE
  6
CONTINUOUS
 62
    30
 10
-401.80994099999998
 20
-220.00065199999989
 30
0.0
 11
-401.80994099999998
 21
-208.00065199999989
 31
0.0
  0
TEXT
  8
SIZE
  6
CONTINUOUS
 62
    30
 10
-426.80994099999998
 20
-405.11493785714282
 30
0.0
 40
64.0
  1
220
 50
90.0
 41
0.9
 72
     1
 11
-426.80994099999998
 21
-331.05779499999989
 31
0.0
  0
POINT
  8
DEFPOINTS
  6
CONTINUOUS
 62
    30
 10
-37.606738999999827
 20
-220.00065199999989
 30
0.0
  0
POINT
  8
DEFPOINTS
  6
CONTINUOUS
 62
    30
 10
-156.08102000000011
 20
0.0
 30
0.0
  0
POINT
  8
DEFPOINTS
  6
CONTINUOUS
 62
    30
 10
-401.80994099999998
 20
0.0
 30
0.0
  0
LINE
  8
SIZE
  6
CONTINUOUS
 62
    30
 10
-147.5
 20
20.0
 30
0.0
 11
-147.5
 21
620.411652
 31
0.0
  0
LINE
  8
SIZE
  6
CONTINUOUS
 62
    30
 10
147.5
 20
20.0
 30
0.0
 11
147.5
 21
620.411652
 31
0.0
  0
LINE
  8
SIZE
  6
CONTINUOUS
 62
    30
 10
-135.5
 20
600.411652
 30
0.0
 11
135.5
 21
600.411652
 31
0.0
  0
CIRCLE
  8
SIZE
  6
CONTINUOUS
 62
    30
 10
-147.5
 20
600.411652
 30
0.0
 40
6.0
  0
LINE
  8
SIZE
  6
CONTINUOUS
 62
    30
 10
-147.5
 20
600.411652
 30
0.0
 11
-135.5
 21
600.411652
 31
0.0
  0
CIRCLE
  8
SIZE
  6
CONTINUOUS
 62
    30
 10
147.5
 20
600.411652
 30
0.0
 40
6.0
  0
LINE
  8
SIZE
  6
CONTINUOUS
 62
    30
 10
147.5
 20
600.411652
 30
0.0
 11
135.5
 21
600.411652
 31
0.0
  0
TEXT
  8
SIZE
  6
CONTINUOUS
 62
    30
 10
-114.37715085714289
 20
625.411652
 30
0.0
 40
64.0
  1
φ295
 41
0.9
 72
     1
 11
-0.0000079999999798
 21
625.411652
 31
0.0
  0
POINT
  8
DEFPOINTS
  6
CONTINUOUS
 62
    30
 10
-147.5
 20
0.0
 30
0.0
  0
POINT
  8
DEFPOINTS
  6
CONTINUOUS
 62
    30
 10
147.5
 20
0.0
 30
0.0
  0
POINT
  8
DEFPOINTS
  6
CONTINUOUS
 62
    30
 10
147.5
 20
600.411652
 30
0.0
  0
LINE
  8
SIZE
  6
CONTINUOUS
 62
    30
 10
-66.30508699999973
 20
-220.00065199999989
 30
0.0
 11
-182.2143430000001
 21
-220.00065199999989
 31
0.0
  0
LINE
  8
SIZE
  6
CONTINUOUS
 62
    30
 10
-66.30508699999973
 20
-190.00065199999989
 30
0.0
 11
-182.2143430000001
 21
-190.00065199999989
 31
0.0
  0
LINE
  8
SIZE
  6
CONTINUOUS
 62
    30
 10
-162.2143430000001
 20
-178.00065199999989
 30
0.0
 11
-162.2143430000001
 21
-166.00065199999989
 31
0.0
  0
LINE
  8
SIZE
  6
CONTINUOUS
 62
    30
 10
-162.2143430000001
 20
-232.00065199999989
 30
0.0
 11
-162.2143430000001
 21
-387.25779499999999
 31
0.0
  0
LINE
  8
SIZE
  6
CONTINUOUS
 62
    30
 10
-162.2143430000001
 20
-190.00065199999989
 30
0.0
 11
-162.2143430000001
 21
-220.00065199999989
 31
0.0
  0
CIRCLE
  8
SIZE
  6
CONTINUOUS
 62
    30
 10
-162.2143430000001
 20
-190.00065199999989
 30
0.0
 40
6.0
  0
LINE
  8
SIZE
  6
CONTINUOUS
 62
    30
 10
-162.2143430000001
 20
-190.00065199999989
 30
0.0
 11
-162.2143430000001
 21
-178.00065199999989
 31
0.0
  0
CIRCLE
  8
SIZE
  6
CONTINUOUS
 62
    30
 10
-162.2143430000001
 20
-220.00065199999989
 30
0.0
 40
6.0
  0
LINE
  8
SIZE
  6
CONTINUOUS
 62
    30
 10
-162.2143430000001
 20
-220.00065199999989
 30
0.0
 11
-162.2143430000001
 21
-232.00065199999989
 31
0.0
  0
TEXT
  8
SIZE
  6
CONTINUOUS
 62
    30
 10
-187.2143430000001
 20
-362.25779442857151
 30
0.0
 40
64.0
  1
30
 50
90.0
 41
0.9
 72
     1
 11
-187.2143430000001
 21
-315.62922300000002
 31
0.0
  0
POINT
  8
DEFPOINTS
  6
CONTINUOUS
 62
    30
 10
-46.30508699999973
 20
-220.00065199999989
 30
0.0
  0
POINT
  8
DEFPOINTS
  6
CONTINUOUS
 62
    30
 10
-46.30508699999973
 20
-190.00065199999989
 30
0.0
  0
LINE
  8
DETAIL
  6
CONTINUOUS
 62
     5
 10
52.539780000000057
 20
-186.87003999999999
 30
0.0
 11
48.99999200000002
 21
-190.00065199999989
 31
0.0
  0
ARC
  8
DETAIL
  6
CONTINUOUS
 62
     5
 10
-0.0000079999999798
 20
252.44146799999999
 30
0.0
 40
442.44211999999999
 50
263.18006100001003
 51
276.81993899998997
  0
LINE
  8
DETAIL
  6
CONTINUOUS
 62
     5
 10
-52.539796000000017
 20
-186.87003999999999
 30
0.0
 11
-53.607770999999957
 21
-102.5
 31
0.0
  0
LINE
  8
DETAIL
  6
CONTINUOUS
 62
     5
 10
-49.00000799999998
 20
-190.00065199999989
 30
0.0
 11
48.99999200000002
 21
-190.00065199999989
 31
0.0
  0
LINE
  8
DETAIL
  6
CONTINUOUS
 62
     5
 10
-49.00000799999998
 20
-220.00065199999989
 30
0.0
 11
48.99999200000002
 21
-220.00065199999989
 31
0.0
  0
LINE
  8
DETAIL
  6
CONTINUOUS
 62
     5
 10
-49.00000799999998
 20
-190.00065199999989
 30
0.0
 11
-52.539796000000017
 21
-186.87003999999999
 31
0.0
  0
LINE
  8
DETAIL
  6
CONTINUOUS
 62
     5
 10
-49.00000799999998
 20
-220.00065199999989
 30
0.0
 11
-49.00000799999998
 21
-190.00065199999989
 31
0.0
  0
LINE
  8
DETAIL
  6
CONTINUOUS
 62
     5
 10
48.99999200000002
 20
-220.00065199999989
 30
0.0
 11
48.99999200000002
 21
-190.00065199999989
 31
0.0
  0
LINE
  8
DETAIL
  6
CONTINUOUS
 62
     5
 10
52.539780000000057
 20
-186.87003999999999
 30
0.0
 11
53.607754999999997
 21
-102.5
 31
0.0
  0
ARC
  8
DETAIL
  6
CONTINUOUS
 62
     5
 10
0.0
 20
0.0
 30
0.0
 40
142.0
 50
292.01946800000599
 51
86.962973000007636
  0
CIRCLE
  8
FIX
  6
CONTINUOUS
 62
    11
 10
0.0
 20
132.0
 30
0.0
 40
2.5
  0
CIRCLE
  8
FIX
  6
CONTINUOUS
 62
    11
 10
132.0
 20
0.0
 30
0.0
 40
2.5
  0
CIRCLE
  8
FIX
  6
CONTINUOUS
 62
    11
 10
-132.0
 20
0.0
 30
0.0
 40
2.5
  0
LINE
  8
NOTE
  6
CONTINUOUS
 62
     4
 10
-4.8146529999999066
 20
132.0
 30
0.0
 11
4.8146529999999066
 21
132.0
 31
0.0
  0
LINE
  8
NOTE
  6
CONTINUOUS
 62
     4
 10
0.0
 20
137.60990899999999
 30
0.0
 11
0.0
 21
126.390091
 31
0.0
  0
LINE
  8
NOTE
  6
CONTINUOUS
 62
     4
 10
127.18534700000011
 20
0.0
 30
0.0
 11
136.81465299999991
 21
0.0
 31
0.0
  0
LINE
  8
NOTE
  6
CONTINUOUS
 62
     4
 10
132.0
 20
5.609909000000016
 30
0.0
 11
132.0
 21
-5.609909000000016
 31
0.0
  0
LINE
  8
NOTE
  6
CONTINUOUS
 62
     4
 10
-127.18534700000011
 20
0.0
 30
0.0
 11
-136.81465299999991
 21
0.0
 31
0.0
  0
LINE
  8
NOTE
  6
CONTINUOUS
 62
     4
 10
-132.0
 20
5.609909000000016
 30
0.0
 11
-132.0
 21
-5.609909000000016
 31
0.0
  0
CIRCLE
  8
DETAIL
  6
CONTINUOUS
 62
     5
 10
0.0
 20
132.0
 30
0.0
 40
2.5
  0
CIRCLE
  8
DETAIL
  6
CONTINUOUS
 62
     5
 10
132.0
 20
0.0
 30
0.0
 40
2.5
  0
CIRCLE
  8
DETAIL
  6
CONTINUOUS
 62
     5
 10
-132.0
 20
0.0
 30
0.0
 40
2.5
  0
LINE
  8
DETAIL
  6
CONTINUOUS
 62
     5
 10
-73.0
 20
102.5
 30
0.0
 11
73.0
 21
102.5
 31
0.0
  0
LINE
  8
DETAIL
  6
CONTINUOUS
 62
     5
 10
-103.0
 20
-102.5
 30
0.0
 11
103.0
 21
-102.5
 31
0.0
  0
LINE
  8
DETAIL
  6
CONTINUOUS
 62
     5
 10
103.0
 20
-102.5
 30
0.0
 11
103.0
 21
72.5
 31
0.0
  0
LINE
  8
DETAIL
  6
CONTINUOUS
 62
     5
 10
-103.0
 20
-102.5
 30
0.0
 11
-103.0
 21
72.5
 31
0.0
  0
ARC
  8
DETAIL
  6
CONTINUOUS
 62
     5
 10
-73.0
 20
72.5
 30
0.0
 40
30.0
 50
90.0
 51
180.0
  0
ARC
  8
DETAIL
  6
CONTINUOUS
 62
     5
 10
73.0
 20
72.5
 30
0.0
 40
30.0
 50
0.0
 51
90.0
  0
CIRCLE
  8
DETAIL
  6
CONTINUOUS
 62
     5
 10
13.0
 20
13.0
 30
0.0
 40
31.5
  0
LINE
  8
DETAIL
  6
CONTINUOUS
 62
     5
 10
-103.0
 20
-72.5
 30
0.0
 11
103.0
 21
-72.5
 31
0.0
  0
LINE
  8
SIZE
  6
CONTINUOUS
 62
    30
 10
384.16971899999999
 20
306.93749800000001
 30
0.0
 11
120.3146179999999
 21
96.126962000000049
 31
0.0
  0
LINE
  8
SIZE
  6
CONTINUOUS
 62
    30
 10
-120.3146179999999
 20
-96.126962000000049
 30
0.0
 11
-129.68978300000001
 21
-103.6173739999999
 31
0.0
  0
TEXT
  8
SIZE
  6
CONTINUOUS
 62
    30
 10
179.31580657913179
 20
175.26620982231111
 30
0.0
 40
64.0
  1
φ284
 50
38.623559514905892
 41
0.9
 72
     1
 11
269.74598374319982
 21
247.51657207628449
 31
0.0
  0
LINE
  8
SIZE
  6
CONTINUOUS
 62
    30
 10
-110.939453
 20
-88.636549000000059
 30
0.0
 11
110.939453
 21
88.636549000000059
 31
0.0
  0
CIRCLE
  8
SIZE
  6
CONTINUOUS
 62
    30
 10
-110.939453
 20
-88.636549000000059
 30
0.0
 40
6.0
  0
LINE
  8
SIZE
  6
CONTINUOUS
 62
    30
 10
-110.939453
 20
-88.636549000000059
 30
0.0
 11
-120.31461796991989
 21
-96.126961657977176
 31
0.0
  0
CIRCLE
  8
SIZE
  6
CONTINUOUS
 62
    30
 10
110.939453
 20
88.636549000000059
 30
0.0
 40
6.0
  0
LINE
  8
SIZE
  6
CONTINUOUS
 62
    30
 10
110.939453
 20
88.636549000000059
 30
0.0
 11
120.31461796992021
 21
96.126961657977176
 31
0.0
  0
POINT
  8
DEFPOINTS
  6
CONTINUOUS
 62
    30
 10
110.939453
 20
88.636549000000059
 30
0.0
  0
POINT
  8
DEFPOINTS
  6
CONTINUOUS
 62
    30
 10
-110.939453
 20
-88.636549000000059
 30
0.0
  0
LINE
  8
SIZE
  6
CONTINUOUS
 62
    30
 10
-93.0
 20
102.5
 30
0.0
 11
-549.33808499999986
 21
102.5
 31
0.0
  0
LINE
  8
SIZE
  6
CONTINUOUS
 62
    30
 10
-123.0
 20
-102.5
 30
0.0
 11
-549.33808499999986
 21
-102.5
 31
0.0
  0
LINE
  8
SIZE
  6
CONTINUOUS
 62
    30
 10
-529.33808499999986
 20
90.5
 30
0.0
 11
-529.33808499999986
 21
-90.5
 31
0.0
  0
CIRCLE
  8
SIZE
  6
CONTINUOUS
 62
    30
 10
-529.33808499999986
 20
102.5
 30
0.0
 40
6.0
  0
LINE
  8
SIZE
  6
CONTINUOUS
 62
    30
 10
-529.33808499999986
 20
102.5
 30
0.0
 11
-529.33808499999986
 21
90.5
 31
0.0
  0
CIRCLE
  8
SIZE
  6
CONTINUOUS
 62
    30
 10
-529.33808499999986
 20
-102.5
 30
0.0
 40
6.0
  0
LINE
  8
SIZE
  6
CONTINUOUS
 62
    30
 10
-529.33808499999986
 20
-102.5
 30
0.0
 11
-529.33808499999986
 21
-90.5
 31
0.0
  0
TEXT
  8
SIZE
  6
CONTINUOUS
 62
    30
 10
-554.33808499999986
 20
-74.05714285714285
 30
0.0
 40
64.0
  1
205
 50
90.0
 41
0.9
 72
     1
 11
-554.33808499999986
 21
0.0
 31
0.0
  0
POINT
  8
DEFPOINTS
  6
CONTINUOUS
 62
    30
 10
-73.0
 20
102.5
 30
0.0
  0
POINT
  8
DEFPOINTS
  6
CONTINUOUS
 62
    30
 10
-103.0
 20
-102.5
 30
0.0
  0
POINT
  8
DEFPOINTS
  6
CONTINUOUS
 62
    30
 10
-529.33808499999986
 20
-102.5
 30
0.0
  0
LINE
  8
SIZE
  6
CONTINUOUS
 62
    30
 10
-123.0
 20
-102.5
 30
0.0
 11
-549.33808499999986
 21
-102.5
 31
0.0
  0
LINE
  8
SIZE
  6
CONTINUOUS
 62
    30
 10
-57.606738999999827
 20
-220.00065199999989
 30
0.0
 11
-549.33808499999986
 21
-220.00065199999989
 31
0.0
  0
LINE
  8
SIZE
  6
CONTINUOUS
 62
    30
 10
-529.33808499999986
 20
-114.5
 30
0.0
 11
-529.33808499999986
 21
-208.00065199999989
 31
0.0
  0
LINE
  8
SIZE
  6
CONTINUOUS
 62
    30
 10
-529.33808499999986
 20
-220.00065199999989
 30
0.0
 11
-529.33808499999986
 21
-408.17208099999988
 31
0.0
  0
CIRCLE
  8
SIZE
  6
CONTINUOUS
 62
    30
 10
-529.33808499999986
 20
-102.5
 30
0.0
 40
6.0
  0
LINE
  8
SIZE
  6
CONTINUOUS
 62
    30
 10
-529.33808499999986
 20
-102.5
 30
0.0
 11
-529.33808499999986
 21
-114.5
 31
0.0
  0
CIRCLE
  8
SIZE
  6
CONTINUOUS
 62
    30
 10
-529.33808499999986
 20
-220.00065199999989
 30
0.0
 40
6.0
  0
LINE
  8
SIZE
  6
CONTINUOUS
 62
    30
 10
-529.33808499999986
 20
-220.00065199999989
 30
0.0
 11
-529.33808499999986
 21
-208.00065199999989
 31
0.0
  0
TEXT
  8
SIZE
  6
CONTINUOUS
 62
    30
 10
-554.33808499999986
 20
-383.17208028571429
 30
0.0
 40
64.0
  1
118
 50
90.0
 41
0.9
 72
     1
 11
-554.33808499999986
 21
-320.086366
 31
0.0
  0
POINT
  8
DEFPOINTS
  6
CONTINUOUS
 62
    30
 10
-103.0
 20
-102.5
 30
0.0
  0
POINT
  8
DEFPOINTS
  6
CONTINUOUS
 62
    30
 10
-37.606738999999827
 20
-220.00065199999989
 30
0.0
  0
POINT
  8
DEFPOINTS
  6
CONTINUOUS
 62
    30
 10
-529.33808499999986
 20
-220.00065199999989
 30
0.0
  0
LINE
  8
SIZE
  6
CONTINUOUS
 62
    30
 10
-103.0
 20
92.5
 30
0.0
 11
-103.0
 21
260.411652
 31
0.0
  0
LINE
  8
SIZE
  6
CONTINUOUS
 62
    30
 10
103.0
 20
92.5
 30
0.0
 11
103.0
 21
260.411652
 31
0.0
  0
LINE
  8
SIZE
  6
CONTINUOUS
 62
    30
 10
-91.0
 20
240.411652
 30
0.0
 11
91.0
 21
240.411652
 31
0.0
  0
CIRCLE
  8
SIZE
  6
CONTINUOUS
 62
    30
 10
-103.0
 20
240.411652
 30
0.0
 40
6.0
  0
LINE
  8
SIZE
  6
CONTINUOUS
 62
    30
 10
-103.0
 20
240.411652
 30
0.0
 11
-91.0
 21
240.411652
 31
0.0
  0
CIRCLE
  8
SIZE
  6
CONTINUOUS
 62
    30
 10
103.0
 20
240.411652
 30
0.0
 40
6.0
  0
LINE
  8
SIZE
  6
CONTINUOUS
 62
    30
 10
103.0
 20
240.411652
 30
0.0
 11
91.0
 21
240.411652
 31
0.0
  0
TEXT
  8
SIZE
  6
CONTINUOUS
 62
    30
 10
-72.685714285714283
 20
265.411652
 30
0.0
 40
64.0
  1
206
 41
0.9
 72
     1
 11
0.0
 21
265.411652
 31
0.0
  0
POINT
  8
DEFPOINTS
  6
CONTINUOUS
 62
    30
 10
-103.0
 20
72.5
 30
0.0
  0
POINT
  8
DEFPOINTS
  6
CONTINUOUS
 62
    30
 10
103.0
 20
72.5
 30
0.0
  0
POINT
  8
DEFPOINTS
  6
CONTINUOUS
 62
    30
 10
103.0
 20
240.411652
 30
0.0
  0
LINE
  8
DETAIL
  6
CONTINUOUS
 62
     5
 10
130.0
 20
-30.0
 30
0.0
 11
130.0
 21
30.0
 31
0.0
  0
LINE
  8
DETAIL
  6
CONTINUOUS
 62
     5
 10
-130.0
 20
-30.0
 30
0.0
 11
-130.0
 21
30.0
 31
0.0
  0
LINE
  8
DETAIL
  6
CONTINUOUS
 62
     5
 10
-130.0
 20
30.0
 30
0.0
 11
-103.0
 21
30.0
 31
0.0
  0
LINE
  8
DETAIL
  6
CONTINUOUS
 62
     5
 10
-130.0
 20
-30.0
 30
0.0
 11
-103.0
 21
-30.0
 31
0.0
  0
LINE
  8
DETAIL
  6
CONTINUOUS
 62
     5
 10
103.0
 20
-30.0
 30
0.0
 11
130.0
 21
-30.0
 31
0.0
  0
LINE
  8
DETAIL
  6
CONTINUOUS
 62
     5
 10
103.0
 20
30.0
 30
0.0
 11
130.0
 21
30.0
 31
0.0
  0
LINE
  8
SIZE
  6
CONTINUOUS
 62
    30
 10
-130.0
 20
50.0
 30
0.0
 11
-130.0
 21
380.411652
 31
0.0
  0
LINE
  8
SIZE
  6
CONTINUOUS
 62
    30
 10
130.0
 20
50.0
 30
0.0
 11
130.0
 21
380.411652
 31
0.0
  0
LINE
  8
SIZE
  6
CONTINUOUS
 62
    30
 10
-118.0
 20
360.411652
 30
0.0
 11
118.0
 21
360.411652
 31
0.0
  0
LINE
  8
SIZE
  6
CONTINUOUS
 62
    30
 10
130.0
 20
360.411652
 30
0.0
 11
691.20000000000027
 21
360.411652
 31
0.0
  0
CIRCLE
  8
SIZE
  6
CONTINUOUS
 62
    30
 10
-130.0
 20
360.411652
 30
0.0
 40
6.0
  0
LINE
  8
SIZE
  6
CONTINUOUS
 62
    30
 10
-130.0
 20
360.411652
 30
0.0
 11
-118.0
 21
360.411652
 31
0.0
  0
CIRCLE
  8
SIZE
  6
CONTINUOUS
 62
    30
 10
130.0
 20
360.411652
 30
0.0
 40
6.0
  0
LINE
  8
SIZE
  6
CONTINUOUS
 62
    30
 10
130.0
 20
360.411652
 30
0.0
 11
118.0
 21
360.411652
 31
0.0
  0
TEXT
  8
SIZE
  6
CONTINUOUS
 62
    30
 10
184.55428571428561
 20
385.411652
 30
0.0
 40
64.0
  1
260（据付前）
 41
0.9
 72
     1
 11
416.59999999999991
 21
385.411652
 31
0.0
  0
POINT
  8
DEFPOINTS
  6
CONTINUOUS
 62
    30
 10
-130.0
 20
30.0
 30
0.0
  0
POINT
  8
DEFPOINTS
  6
CONTINUOUS
 62
    30
 10
130.0
 20
30.0
 30
0.0
  0
POINT
  8
DEFPOINTS
  6
CONTINUOUS
 62
    30
 10
130.0
 20
360.411652
 30
0.0
  0
LINE
  8
SIZE
  6
CONTINUOUS
 62
    30
 10
-132.0
 20
25.60990900000002
 30
0.0
 11
-132.0
 21
500.411652
 31
0.0
  0
LINE
  8
SIZE
  6
CONTINUOUS
 62
    30
 10
132.0
 20
25.60990900000002
 30
0.0
 11
132.0
 21
500.411652
 31
0.0
  0
LINE
  8
SIZE
  6
CONTINUOUS
 62
    30
 10
-120.0
 20
480.411652
 30
0.0
 11
120.0
 21
480.411652
 31
0.0
  0
CIRCLE
  8
SIZE
  6
CONTINUOUS
 62
    30
 10
-132.0
 20
480.411652
 30
0.0
 40
6.0
  0
LINE
  8
SIZE
  6
CONTINUOUS
 62
    30
 10
-132.0
 20
480.411652
 30
0.0
 11
-120.0
 21
480.411652
 31
0.0
  0
CIRCLE
  8
SIZE
  6
CONTINUOUS
 62
    30
 10
132.0
 20
480.411652
 30
0.0
 40
6.0
  0
LINE
  8
SIZE
  6
CONTINUOUS
 62
    30
 10
132.0
 20
480.411652
 30
0.0
 11
120.0
 21
480.411652
 31
0.0
  0
TEXT
  8
SIZE
  6
CONTINUOUS
 62
    30
 10
-75.428571428571416
 20
505.411652
 30
0.0
 40
64.0
  1
264
 41
0.9
 72
     1
 11
0.0
 21
505.411652
 31
0.0
  0
POINT
  8
DEFPOINTS
  6
CONTINUOUS
 62
    30
 10
-132.0
 20
5.609909000000016
 30
0.0
  0
POINT
  8
DEFPOINTS
  6
CONTINUOUS
 62
    30
 10
132.0
 20
5.609909000000016
 30
0.0
  0
POINT
  8
DEFPOINTS
  6
CONTINUOUS
 62
    30
 10
132.0
 20
480.411652
 30
0.0
  0
TEXT
  8
NOTE
  6
CONTINUOUS
 62
     4
 10
239.22091800000001
 20
-149.735063
 30
0.0
 40
64.0
  1
4-φ5
 41
0.9
  0
LINE
  8
NOTE
  6
CONTINUOUS
 62
     4
 10
490.96997400000009
 20
-162.48155499999999
 30
0.0
 11
227.2368299999998
 21
-162.48155499999999
 31
0.0
  0
LINE
  8
NOTE
  6
CONTINUOUS
 62
     4
 10
227.2368299999998
 20
-162.48155499999999
 30
0.0
 11
132.0
 21
0.0
 31
0.0
  0
LINE
  8
NOTE
  6
CONTINUOUS
 62
     4
 10
132.0
 20
0.0
 30
0.0
 11
135.99351900000011
 21
-16.789884000000029
 31
0.0
  0
LINE
  8
NOTE
  6
CONTINUOUS
 62
     4
 10
132.0
 20
0.0
 30
0.0
 11
144.698296
 21
-11.68767200000002
 31
0.0
  0
LINE
  8
DETAIL
  6
CONTINUOUS
 62
     5
 10
-7.5
 20
144.5
 30
0.0
 11
7.5
 21
144.5
 31
0.0
  0
LINE
  8
DETAIL
  6
CONTINUOUS
 62
     5
 10
7.5
 20
102.5
 30
0.0
 11
7.5
 21
144.5
 31
0.0
  0
LINE
  8
DETAIL
  6
CONTINUOUS
 62
     5
 10
-7.5
 20
102.5
 30
0.0
 11
-7.5
 21
144.5
 31
0.0
  0
ARC
  8
DETAIL
  6
CONTINUOUS
 62
     5
 10
0.0
 20
0.0
 30
0.0
 40
142.0
 50
93.027594000002949
 51
247.98052500000151
  0
LINE
  8
SIZE
  6
CONTINUOUS
 62
    30
 10
-93.0
 20
102.5
 30
0.0
 11
-549.33808499999986
 21
102.5
 31
0.0
  0
LINE
  8
SIZE
  6
CONTINUOUS
 62
    30
 10
-27.5
 20
144.5
 30
0.0
 11
-549.33808499999986
 21
144.5
 31
0.0
  0
LINE
  8
SIZE
  6
CONTINUOUS
 62
    30
 10
-529.33808499999986
 20
90.5
 30
0.0
 11
-529.33808499999986
 21
78.5
 31
0.0
  0
LINE
  8
SIZE
  6
CONTINUOUS
 62
    30
 10
-529.33808499999986
 20
156.5
 30
0.0
 11
-529.33808499999986
 21
731.96285699999999
 31
0.0
  0
LINE
  8
SIZE
  6
CONTINUOUS
 62
    30
 10
-529.33808499999986
 20
102.5
 30
0.0
 11
-529.33808499999986
 21
144.5
 31
0.0
  0
CIRCLE
  8
SIZE
  6
CONTINUOUS
 62
    30
 10
-529.33808499999986
 20
102.5
 30
0.0
 40
6.0
  0
LINE
  8
SIZE
  6
CONTINUOUS
 62
    30
 10
-529.33808499999986
 20
102.5
 30
0.0
 11
-529.33808499999986
 21
90.5
 31
0.0
  0
CIRCLE
  8
SIZE
  6
CONTINUOUS
 62
    30
 10
-529.33808499999986
 20
144.5
 30
0.0
 40
6.0
  0
LINE
  8
SIZE
  6
CONTINUOUS
 62
    30
 10
-529.33808499999986
 20
144.5
 30
0.0
 11
-529.33808499999986
 21
156.5
 31
0.0
  0
TEXT
  8
SIZE
  6
CONTINUOUS
 62
    30
 10
-554.33808499999986
 20
211.05428614285711
 30
0.0
 40
64.0
  1
42（最大寸法）
 50
90.0
 41
0.9
 72
     1
 11
-554.33808499999986
 21
450.23142899999988
 31
0.0
  0
POINT
  8
DEFPOINTS
  6
CONTINUOUS
 62
    30
 10
-73.0
 20
102.5
 30
0.0
  0
POINT
  8
DEFPOINTS
  6
CONTINUOUS
 62
    30
 10
-7.5
 20
144.5
 30
0.0
  0
POINT
  8
DEFPOINTS
  6
CONTINUOUS
 62
    30
 10
-529.33808499999986
 20
144.5
 30
0.0
  0
LINE
  8
SIZE
  6
CONTINUOUS
 62
    30
 10
-6.1780499999999847
 20
44.489274000000023
 30
0.0
 11
-302.2143430000001
 21
44.489274000000023
 31
0.0
  0
LINE
  8
SIZE
  6
CONTINUOUS
 62
    30
 10
-7.0
 20
-18.5
 30
0.0
 11
-302.2143430000001
 21
-18.5
 31
0.0
  0
LINE
  8
SIZE
  6
CONTINUOUS
 62
    30
 10
-282.2143430000001
 20
-30.5
 30
0.0
 11
-282.2143430000001
 21
-42.5
 31
0.0
  0
LINE
  8
SIZE
  6
CONTINUOUS
 62
    30
 10
-282.2143430000001
 20
56.489274000000023
 30
0.0
 11
-282.2143430000001
 21
349.90688599999999
 31
0.0
  0
LINE
  8
SIZE
  6
CONTINUOUS
 62
    30
 10
-282.2143430000001
 20
-18.5
 30
0.0
 11
-282.2143430000001
 21
44.489274000000023
 31
0.0
  0
CIRCLE
  8
SIZE
  6
CONTINUOUS
 62
    30
 10
-282.2143430000001
 20
-18.5
 30
0.0
 40
6.0
  0
LINE
  8
SIZE
  6
CONTINUOUS
 62
    30
 10
-282.2143430000001
 20
-18.5
 30
0.0
 11
-282.2143430000001
 21
-30.5
 31
0.0
  0
CIRCLE
  8
SIZE
  6
CONTINUOUS
 62
    30
 10
-282.2143430000001
 20
44.489274000000023
 30
0.0
 40
6.0
  0
LINE
  8
SIZE
  6
CONTINUOUS
 62
    30
 10
-282.2143430000001
 20
44.489274000000023
 30
0.0
 11
-282.2143430000001
 21
56.489274000000023
 31
0.0
  0
TEXT
  8
SIZE
  6
CONTINUOUS
 62
    30
 10
-307.2143430000001
 20
162.5297425714285
 30
0.0
 40
64.0
  1
φ63
 50
90.0
 41
0.9
 72
     1
 11
-307.2143430000001
 21
249.47831400000001
 31
0.0
  0
POINT
  8
DEFPOINTS
  6
CONTINUOUS
 62
    30
 10
13.821950000000021
 20
44.489274000000023
 30
0.0
  0
POINT
  8
DEFPOINTS
  6
CONTINUOUS
 62
    30
 10
13.0
 20
-18.5
 30
0.0
  0
POINT
  8
DEFPOINTS
  6
CONTINUOUS
 62
    30
 10
-282.2143430000001
 20
-18.5
 30
0.0
  0
CIRCLE
  8
OUTLINE
  6
CONTINUOUS
 62
     3
 10
0.0
 20
0.0
 30
0.0
 40
147.5
  0
ARC
  8
DETAIL
  6
CONTINUOUS
 62
     5
 10
0.0
 20
0.0
 30
0.0
 40
147.5
 50
291.12669099999488
 51
248.87330199999269
  0
LINE
  8
DETAIL
  6
CONTINUOUS
 62
     5
 10
-30.0
 20
-162.00065199999989
 30
0.0
 11
30.0
 21
-162.00065199999989
 31
0.0
  0
LINE
  8
DETAIL
  6
CONTINUOUS
 62
     5
 10
-30.0
 20
-162.00065199999989
 30
0.0
 11
-30.0
 21
-102.5
 31
0.0
  0
LINE
  8
DETAIL
  6
CONTINUOUS
 62
     5
 10
30.0
 20
-162.00065199999989
 30
0.0
 11
30.0
 21
-102.5
 31
0.0
  0
LINE
  8
SIZE
  6
CONTINUOUS
 62
    30
 10
-66.30508699999973
 20
-220.00065199999989
 30
0.0
 11
-301.80994099999998
 21
-220.00065199999989
 31
0.0
  0
LINE
  8
SIZE
  6
CONTINUOUS
 62
    30
 10
-50.0
 20
-162.00065199999989
 30
0.0
 11
-301.80994099999998
 21
-162.00065199999989
 31
0.0
  0
LINE
  8
SIZE
  6
CONTINUOUS
 62
    30
 10
-281.80994099999998
 20
-150.00065199999989
 30
0.0
 11
-281.80994099999998
 21
-138.00065199999989
 31
0.0
  0
LINE
  8
SIZE
  6
CONTINUOUS
 62
    30
 10
-281.80994099999998
 20
-232.00065199999989
 30
0.0
 11
-281.80994099999998
 21
-387.25779499999999
 31
0.0
  0
LINE
  8
SIZE
  6
CONTINUOUS
 62
    30
 10
-281.80994099999998
 20
-162.00065199999989
 30
0.0
 11
-281.80994099999998
 21
-220.00065199999989
 31
0.0
  0
CIRCLE
  8
SIZE
  6
CONTINUOUS
 62
    30
 10
-281.80994099999998
 20
-162.00065199999989
 30
0.0
 40
6.0
  0
LINE
  8
SIZE
  6
CONTINUOUS
 62
    30
 10
-281.80994099999998
 20
-162.00065199999989
 30
0.0
 11
-281.80994099999998
 21
-150.00065199999989
 31
0.0
  0
CIRCLE
  8
SIZE
  6
CONTINUOUS
 62
    30
 10
-281.80994099999998
 20
-220.00065199999989
 30
0.0
 40
6.0
  0
LINE
  8
SIZE
  6
CONTINUOUS
 62
    30
 10
-281.80994099999998
 20
-220.00065199999989
 30
0.0
 11
-281.80994099999998
 21
-232.00065199999989
 31
0.0
  0
TEXT
  8
SIZE
  6
CONTINUOUS
 62
    30
 10
-306.80994099999998
 20
-362.25779442857151
 30
0.0
 40
64.0
  1
58
 50
90.0
 41
0.9
 72
     1
 11
-306.80994099999998
 21
-315.62922300000002
 31
0.0
  0
POINT
  8
DEFPOINTS
  6
CONTINUOUS
 62
    30
 10
-46.30508699999973
 20
-220.00065199999989
 30
0.0
  0
POINT
  8
DEFPOINTS
  6
CONTINUOUS
 62
    30
 10
-30.0
 20
-162.00065199999989
 30
0.0
  0
POINT
  8
DEFPOINTS
  6
CONTINUOUS
 62
    30
 10
-281.80994099999998
 20
-162.00065199999989
 30
0.0
  0
LINE
  8
DETAIL
  6
CONTINUOUS
 62
     5
 10
96.93787199999997
 20
-32.184660000000008
 30
0.0
 11
78.337872000000061
 21
0.0314879999999675
 31
0.0
  0
LINE
  8
DETAIL
  6
CONTINUOUS
 62
     5
 10
33.11180000000013
 20
-69.034660000000031
 30
0.0
 11
96.93787199999997
 21
-32.184660000000008
 31
0.0
  0
LINE
  8
DETAIL
  6
CONTINUOUS
 62
     5
 10
14.511800000000219
 20
-36.818512000000062
 30
0.0
 11
78.337872000000061
 21
0.0314879999999675
 31
0.0
  0
LINE
  8
DETAIL
  6
CONTINUOUS
 62
     5
 10
33.11180000000013
 20
-69.034660000000031
 30
0.0
 11
14.511800000000219
 21
-36.818512000000062
 31
0.0
  0
LINE
  8
OUTLINE
  6
CONTINUOUS
 62
     3
 10
52.539780000000057
 20
-186.87003999999999
 30
0.0
 11
48.99999200000002
 21
-190.00065199999989
 31
0.0
  0
ARC
  8
OUTLINE
  6
CONTINUOUS
 62
     3
 10
-0.0000079999999798
 20
252.44146799999999
 30
0.0
 40
442.44211999999999
 50
263.18006100001003
 51
276.81993899998997
  0
LINE
  8
OUTLINE
  6
CONTINUOUS
 62
     3
 10
-52.539796000000017
 20
-186.87003999999999
 30
0.0
 11
-53.163645906251531
 21
-137.58588864398379
 31
0.0
  0
LINE
  8
OUTLINE
  6
CONTINUOUS
 62
     3
 10
-49.00000799999998
 20
-190.00065199999989
 30
0.0
 11
48.99999200000002
 21
-190.00065199999989
 31
0.0
  0
LINE
  8
OUTLINE
  6
CONTINUOUS
 62
     3
 10
-49.00000799999998
 20
-220.00065199999989
 30
0.0
 11
48.99999200000002
 21
-220.00065199999989
 31
0.0
  0
LINE
  8
OUTLINE
  6
CONTINUOUS
 62
     3
 10
-49.00000799999998
 20
-190.00065199999989
 30
0.0
 11
-52.539796000000017
 21
-186.87003999999999
 31
0.0
  0
LINE
  8
OUTLINE
  6
CONTINUOUS
 62
     3
 10
-49.00000799999998
 20
-220.00065199999989
 30
0.0
 11
-49.00000799999998
 21
-190.00065199999989
 31
0.0
  0
LINE
  8
OUTLINE
  6
CONTINUOUS
 62
     3
 10
48.99999200000002
 20
-220.00065199999989
 30
0.0
 11
48.99999200000002
 21
-190.00065199999989
 31
0.0
  0
LINE
  8
OUTLINE
  6
CONTINUOUS
 62
     3
 10
52.539780000000057
 20
-186.87003999999999
 30
0.0
 11
53.163628779635928
 21
-137.58589526176391
 31
0.0
  0
ENDSEC
  0
EOF
