  0
SECTION
  2
HEADER
  9
$ACADVER
  1
AC1009
  9
$DWGCODEPAGE
  3
ansi_932
  9
$INSBASE
 10
0.0
 20
0.0
 30
0.0
  9
$EXTMIN
 10
-693.2759813308393
 20
-824.1157409999997
 30
0.0
  9
$EXTMAX
 10
1960.199730675179
 20
1066.668347807705
 30
0.0
  9
$LIMMIN
 10
-2970.0
 20
-2100.0
  9
$LIMMAX
 10
2970.0
 20
2100.0
  9
$ORTHOMODE
 70
     1
  9
$REGENMODE
 70
     1
  9
$FILLMODE
 70
     1
  9
$QTEXTMODE
 70
     0
  9
$MIRRTEXT
 70
     0
  9
$DRAGMODE
 70
     2
  9
$LTSCALE
 40
20.0
  9
$OSMODE
 70
    37
  9
$ATTMODE
 70
     1
  9
$TEXTSIZE
 40
64.0
  9
$TRACEWID
 40
0.05
  9
$TEXTSTYLE
  7
STANDARD
  9
$CLAYER
  8
SIZE
  9
$CELTYPE
  6
CONTINUOUS
  9
$CECOLOR
 62
    30
  9
$DIMSCALE
 40
0.0
  9
$DIMASZ
 40
12.0
  9
$DIMEXO
 40
20.0
  9
$DIMDLI
 40
200.0
  9
$DIMRND
 40
0.0
  9
$DIMDLE
 40
0.0
  9
$DIMEXE
 40
30.0
  9
$DIMTP
 40
0.0
  9
$DIMTM
 40
0.0
  9
$DIMTXT
 40
64.0
  9
$DIMCEN
 40
0.09
  9
$DIMTSZ
 40
0.0
  9
$DIMTOL
 70
     0
  9
$DIMLIM
 70
     0
  9
$DIMTIH
 70
     0
  9
$DIMTOH
 70
     0
  9
$DIMSE1
 70
     0
  9
$DIMSE2
 70
     0
  9
$DIMTAD
 70
     1
  9
$DIMZIN
 70
     8
  9
$DIMBLK
  1

  9
$DIMASO
 70
     1
  9
$DIMSHO
 70
     0
  9
$DIMPOST
  1

  9
$DIMAPOST
  1

  9
$DIMALT
 70
     0
  9
$DIMALTD
 70
     2
  9
$DIMALTF
 40
25.4
  9
$DIMLFAC
 40
1.0
  9
$DIMTOFL
 70
     1
  9
$DIMTVP
 40
0.0
  9
$DIMTIX
 70
     0
  9
$DIMSOXD
 70
     0
  9
$DIMSAH
 70
     1
  9
$DIMBLK1
  1
ORIGIN
  9
$DIMBLK2
  1
ORIGIN
  9
$DIMSTYLE
  2
STANDARD
  9
$DIMCLRD
 70
     0
  9
$DIMCLRE
 70
     0
  9
$DIMCLRT
 70
     0
  9
$DIMTFAC
 40
1.0
  9
$DIMGAP
 40
20.0
  9
$LUNITS
 70
     2
  9
$LUPREC
 70
     4
  9
$SKETCHINC
 40
0.1
  9
$FILLETRAD
 40
5.0
  9
$AUNITS
 70
     1
  9
$AUPREC
 70
     3
  9
$MENU
  1
ACAD
  9
$ELEVATION
 40
0.0
  9
$PELEVATION
 40
0.0
  9
$THICKNESS
 40
0.0
  9
$LIMCHECK
 70
     0
  9
$CHAMFERA
 40
0.0
  9
$CHAMFERB
 40
0.0
  9
$SKPOLY
 70
     0
  9
$TDCREATE
 40
2451367.695555556
  9
$TDUPDATE
 40
2457485.59170382
  9
$TDINDWG
 40
0.0303765394
  9
$TDUSRTIMER
 40
0.0303761806
  9
$USRTIMER
 70
     1
  9
$ANGBASE
 50
0.0
  9
$ANGDIR
 70
     0
  9
$PDMODE
 70
     3
  9
$PDSIZE
 40
-2.0
  9
$PLINEWID
 40
0.0
  9
$COORDS
 70
     1
  9
$SPLFRAME
 70
     0
  9
$SPLINETYPE
 70
     6
  9
$SPLINESEGS
 70
     8
  9
$ATTDIA
 70
     0
  9
$ATTREQ
 70
     1
  9
$HANDLING
 70
     1
  9
$HANDSEED
  5
C2C
  9
$SURFTAB1
 70
     6
  9
$SURFTAB2
 70
     6
  9
$SURFTYPE
 70
     6
  9
$SURFU
 70
     6
  9
$SURFV
 70
     6
  9
$UCSNAME
  2

  9
$UCSORG
 10
0.0
 20
0.0
 30
0.0
  9
$UCSXDIR
 10
1.0
 20
0.0
 30
0.0
  9
$UCSYDIR
 10
0.0
 20
1.0
 30
0.0
  9
$PUCSNAME
  2

  9
$PUCSORG
 10
0.0
 20
0.0
 30
0.0
  9
$PUCSXDIR
 10
1.0
 20
0.0
 30
0.0
  9
$PUCSYDIR
 10
0.0
 20
1.0
 30
0.0
  9
$USERI1
 70
     0
  9
$USERI2
 70
     0
  9
$USERI3
 70
     0
  9
$USERI4
 70
     0
  9
$USERI5
 70
     0
  9
$USERR1
 40
20.0
  9
$USERR2
 40
0.0
  9
$USERR3
 40
0.0
  9
$USERR4
 40
0.0
  9
$USERR5
 40
0.0
  9
$WORLDVIEW
 70
     1
  9
$SHADEDGE
 70
     3
  9
$SHADEDIF
 70
    70
  9
$TILEMODE
 70
     1
  9
$MAXACTVP
 70
    48
  9
$PLIMCHECK
 70
     0
  9
$PEXTMIN
 10
1.000000000000000E+20
 20
1.000000000000000E+20
 30
1.000000000000000E+20
  9
$PEXTMAX
 10
-1.000000000000000E+20
 20
-1.000000000000000E+20
 30
-1.000000000000000E+20
  9
$PLIMMIN
 10
0.0
 20
0.0
  9
$PLIMMAX
 10
12.0
 20
9.0
  9
$UNITMODE
 70
     0
  9
$VISRETAIN
 70
     1
  9
$PLINEGEN
 70
     0
  9
$PSLTSCALE
 70
     1
  0
ENDSEC
  0
SECTION
  2
TABLES
  0
TABLE
  2
VPORT
 70
     1
  0
VPORT
  2
*ACTIVE
 70
     0
 10
0.0
 20
0.0
 11
1.0
 21
1.0
 12
603.1387724937834
 22
121.2767481945645
 13
0.0
 23
0.0
 14
50.0
 24
50.0
 15
400.0
 25
400.0
 16
0.0
 26
0.0
 36
1.0
 17
0.0
 27
0.0
 37
0.0
 40
1904.410297114858
 41
1.710526315789473
 42
50.0
 43
0.0
 44
0.0
 50
0.0
 51
0.0
 71
     0
 72
   500
 73
     1
 74
     0
 75
     0
 76
     0
 77
     0
 78
     2
  0
ENDTAB
  0
TABLE
  2
LTYPE
 70
     7
  0
LTYPE
  2
CONTINUOUS
 70
     0
  3
実線
 72
    65
 73
     0
 40
0.0
  0
LTYPE
  2
DASHDOT
 70
     0
  3
____ _ ____ _ ____ _ ____ _ ____ _ ____ _ ____
 72
    65
 73
     4
 40
5.5
 49
4.0
 49
-0.6
 49
0.3
 49
-0.6
  0
LTYPE
  2
DASHED
 70
     0
  3
_ _ _ _ _ _ _ _ _ _ _ _ _ _ _ _ _ _ _ _ _ _ _
 72
    65
 73
     2
 40
1.999999999999999
 49
1.199999999999999
 49
-0.8
  0
LTYPE
  2
DOT
 70
     0
  3
...............................................
 72
    65
 73
     2
 40
0.8
 49
0.5
 49
-0.3
  0
LTYPE
  2
DASHDOT1
 70
     0
  3
____ _ ____ _ ____ _ ____ _ ____ _ ____ _ ____
 72
    65
 73
     4
 40
2.0
 49
1.5
 49
-0.2
 49
0.1
 49
-0.2
  0
LTYPE
  2
DIVIDE
 70
     0
  3
_____ _ _ _____ _ _ _____ _ _ _____ _ _ ____
 72
    65
 73
     6
 40
6.4
 49
4.0
 49
-0.6
 49
0.3
 49
-0.6
 49
0.3
 49
-0.6
  0
LTYPE
  2
DIVIDE1
 70
     0
  3
_____ _ _ _____ _ _ _____ _ _ _____ _ _ ____
 72
    65
 73
     6
 40
3.2
 49
2.0
 49
-0.3
 49
0.15
 49
-0.3
 49
0.15
 49
-0.3
  0
ENDTAB
  0
TABLE
  2
LAYER
 70
    12
  0
LAYER
  2
0
 70
     0
 62
     7
  6
CONTINUOUS
  0
LAYER
  2
OUTLINE
 70
     0
 62
     3
  6
CONTINUOUS
  0
LAYER
  2
SIZE
 70
     0
 62
    30
  6
CONTINUOUS
  0
LAYER
  2
DETAIL
 70
     0
 62
     5
  6
CONTINUOUS
  0
LAYER
  2
BASIS
 70
     0
 62
     6
  6
DASHDOT
  0
LAYER
  2
NOTE
 70
     0
 62
     4
  6
CONTINUOUS
  0
LAYER
  2
DEFPOINTS
 70
     0
 62
     7
  6
CONTINUOUS
  0
LAYER
  2
FIX
 70
     0
 62
    11
  6
CONTINUOUS
  0
LAYER
  2
ARRANGE
 70
     0
 62
     1
  6
CONTINUOUS
  0
LAYER
  2
ETC
 70
     0
 62
    61
  6
CONTINUOUS
  0
LAYER
  2
SERVICESPACE
 70
     0
 62
     2
  6
DASHDOT
  0
LAYER
  2
SYMBOLLINE
 70
     0
 62
    15
  6
CONTINUOUS
  0
ENDTAB
  0
TABLE
  2
STYLE
 70
     1
  0
STYLE
  2
STANDARD
 70
     0
 40
0.0
 41
0.9
 50
0.0
 71
     0
 42
64.0
  3
SIMPLEX
  4
BIGFONT
  0
ENDTAB
  0
TABLE
  2
VIEW
 70
     1
  0
VIEW
  2
ALL
 70
     0
 40
4282.619807999997
 10
0.0
 20
41.30990399999999
 41
5940.0
 11
0.0
 21
0.0
 31
1.0
 12
0.0
 22
0.0
 32
0.0
 42
50.0
 43
0.0
 44
0.0
 50
0.0
 71
     0
  0
ENDTAB
  0
TABLE
  2
UCS
 70
     0
  0
ENDTAB
  0
TABLE
  2
APPID
 70
     1
  0
APPID
  2
ACAD
 70
     0
  0
ENDTAB
  0
TABLE
  2
DIMSTYLE
 70
     1
  0
DIMSTYLE
  2
STANDARD
 70
     0
  3

  4

  5

  6

  7

 40
1.0
 41
0.18
 42
0.0625
 43
0.38
 44
0.18
 45
0.0
 46
0.0
 47
0.0
 48
0.0
140
0.18
141
0.09
142
0.0
143
25.4
144
1.0
145
0.0
146
1.0
147
0.09
 71
     0
 72
     0
 73
     1
 74
     1
 75
     0
 76
     0
 77
     0
 78
     0
170
     0
171
     2
172
     0
173
     0
174
     0
175
     0
176
     0
177
     0
178
     0
  0
ENDTAB
  0
ENDSEC
  0
SECTION
  2
BLOCKS
  0
BLOCK
  8
0
  2
$MODEL_SPACE
 70
     0
 10
0.0
 20
0.0
 30
0.0
  3
$MODEL_SPACE
  1

  0
ENDBLK
  5
98D
  8
0
  0
BLOCK
 67
     1
  8
0
  2
$PAPER_SPACE
 70
     0
 10
0.0
 20
0.0
 30
0.0
  3
$PAPER_SPACE
  1

  0
ENDBLK
  5
989
 67
     1
  8
0
  0
BLOCK
  8
0
  2
_SMALL
 70
     0
 10
0.0
 20
0.0
 30
0.0
  3
_SMALL
  1

  0
CIRCLE
  5
9AD
  8
0
  6
BYBLOCK
 62
     0
 10
0.0
 20
0.0
 30
0.0
 40
0.25
  0
ENDBLK
  5
9AE
  8
0
 62
     8
  0
BLOCK
  8
0
  2
_OPEN30
 70
     0
 10
0.0
 20
0.0
 30
0.0
  3
_OPEN30
  1

  0
LINE
  5
9B1
  8
0
  6
BYBLOCK
 62
     0
 10
-1.0
 20
0.26794919
 30
0.0
 11
0.0
 21
0.0
 31
0.0
  0
LINE
  5
9B2
  8
0
  6
BYBLOCK
 62
     0
 10
0.0
 20
0.0
 30
0.0
 11
-1.0
 21
-0.26794919
 31
0.0
  0
LINE
  5
9B3
  8
0
  6
BYBLOCK
 62
     0
 10
0.0
 20
0.0
 30
0.0
 11
-1.0
 21
0.0
 31
0.0
  0
ENDBLK
  5
9B4
  8
0
 62
     8
  0
BLOCK
  8
0
  2
*D2
 70
     1
 10
0.0
 20
0.0
 30
0.0
  3
*D2
  1

  0
LINE
  5
9B7
  8
SIZE
  6
CONTINUOUS
 62
     0
 10
-92.0
 20
200.054428
 30
0.0
 11
-91.99999999999999
 21
590.7011901071108
 31
0.0
  0
LINE
  5
9B8
  8
SIZE
  6
CONTINUOUS
 62
     0
 10
0.0000000000000012
 20
242.0163899999999
 30
0.0
 11
0.0000000000000226
 21
590.7011901071108
 31
0.0
  0
LINE
  5
9B9
  8
SIZE
  6
CONTINUOUS
 62
     0
 10
0.0000000000000207
 20
560.7011901071108
 30
0.0
 11
-91.99999999999999
 21
560.7011901071108
 31
0.0
  0
LINE
  5
9BA
  8
SIZE
  6
CONTINUOUS
 62
     0
 10
-91.99999999999999
 20
560.7011901071108
 30
0.0
 11
-310.5901250778479
 21
560.7011901071108
 31
0.0
  0
INSERT
  5
9BB
  8
SIZE
  6
CONTINUOUS
 62
     0
  2
_SMALL
 10
0.0000000000000207
 20
560.7011901071108
 30
0.0
 41
40.0
 42
40.0
 43
40.0
  0
INSERT
  5
9BC
  8
SIZE
  6
CONTINUOUS
 62
     0
  2
_SMALL
 10
-91.99999999999999
 20
560.7011901071108
 30
0.0
 41
40.0
 42
40.0
 43
40.0
 50
180.0
  0
TEXT
  5
9BD
  8
SIZE
  6
CONTINUOUS
 62
     0
 10
-290.5901250778479
 20
580.7011901071108
 30
0.0
 40
64.0
  1
92
 41
0.9
  0
POINT
  5
9BE
  8
DEFPOINTS
  6
CONTINUOUS
 62
     0
 10
-92.0
 20
180.054428
 30
0.0
  0
POINT
  5
9BF
  8
DEFPOINTS
  6
CONTINUOUS
 62
     0
 10
0.0
 20
222.01639
 30
0.0
  0
POINT
  5
9C0
  8
DEFPOINTS
  6
CONTINUOUS
 62
     0
 10
0.0000000000000207
 20
560.7011901071108
 30
0.0
  0
ENDBLK
  5
9C1
  8
0
 62
    30
  0
BLOCK
  8
0
  2
*D3
 70
     1
 10
0.0
 20
0.0
 30
0.0
  3
*D3
  1

  0
LINE
  5
9C4
  8
SIZE
  6
CONTINUOUS
 62
     0
 10
-112.0
 20
180.054428
 30
0.0
 11
-654.7327946831884
 21
180.054428
 31
0.0
  0
LINE
  5
9C5
  8
SIZE
  6
CONTINUOUS
 62
     0
 10
-205.000007
 20
0.0544280000000057
 30
0.0
 11
-654.7327946831884
 21
0.0544280000001331
 31
0.0
  0
LINE
  5
9C6
  8
SIZE
  6
CONTINUOUS
 62
     0
 10
-624.7327946831884
 20
180.054428
 30
0.0
 11
-624.7327946831884
 21
0.0544280000001246
 31
0.0
  0
INSERT
  5
9C7
  8
SIZE
  6
CONTINUOUS
 62
     0
  2
_SMALL
 10
-624.7327946831884
 20
180.054428
 30
0.0
 41
40.0
 42
40.0
 43
40.0
 50
90.0
  0
INSERT
  5
9C8
  8
SIZE
  6
CONTINUOUS
 62
     0
  2
_SMALL
 10
-624.7327946831884
 20
0.0544280000001246
 30
0.0
 41
40.0
 42
40.0
 43
40.0
 50
270.0
  0
TEXT
  5
9C9
  8
SIZE
  6
CONTINUOUS
 62
     0
 10
-644.7327946831884
 20
21.48131695074777
 30
0.0
 40
64.0
  1
180
 50
90.0
 41
0.9
  0
POINT
  5
9CA
  8
DEFPOINTS
  6
CONTINUOUS
 62
     0
 10
-92.0
 20
180.054428
 30
0.0
  0
POINT
  5
9CB
  8
DEFPOINTS
  6
CONTINUOUS
 62
     0
 10
-185.000007
 20
0.054428
 30
0.0
  0
POINT
  5
9CC
  8
DEFPOINTS
  6
CONTINUOUS
 62
     0
 10
-624.7327946831884
 20
0.0544280000001246
 30
0.0
  0
ENDBLK
  5
9CD
  8
0
 62
    30
  0
BLOCK
  8
0
  2
_ORIGIN
 70
     0
 10
0.0
 20
0.0
 30
0.0
  3
_ORIGIN
  1

  0
CIRCLE
  5
9D0
  8
0
  6
BYBLOCK
 62
     0
 10
0.0
 20
0.0
 30
0.0
 40
0.5
  0
LINE
  5
9D1
  8
0
  6
BYBLOCK
 62
     0
 10
0.0
 20
0.0
 30
0.0
 11
-1.0
 21
0.0
 31
0.0
  0
ENDBLK
  5
9D2
  8
0
  0
BLOCK
  8
0
  2
*D5
 70
     1
 10
0.0
 20
0.0
 30
0.0
  3
*D5
  1

  0
LINE
  5
9D5
  8
0
  6
BYBLOCK
 62
     0
 10
-65.0
 20
214.4544139999999
 30
0.0
 11
-64.99999999999999
 21
456.9149216288978
 31
0.0
  0
LINE
  5
9D6
  8
0
  6
BYBLOCK
 62
     0
 10
17.0
 20
214.454414
 30
0.0
 11
17.00000000000001
 21
456.9149216288978
 31
0.0
  0
LINE
  5
9D7
  8
0
  6
BYBLOCK
 62
     0
 10
5.000000000000014
 20
426.9149216288978
 30
0.0
 11
-52.99999999999998
 21
426.9149216288978
 31
0.0
  0
LINE
  5
9D8
  8
0
  6
BYBLOCK
 62
     0
 10
-64.99999999999999
 20
426.9149216288978
 30
0.0
 11
-322.9850142201848
 21
426.9149216288978
 31
0.0
  0
INSERT
  5
9D9
  8
0
  6
BYBLOCK
 62
     0
  2
_ORIGIN
 10
17.00000000000001
 20
426.9149216288978
 30
0.0
 41
12.0
 42
12.0
 43
12.0
  0
INSERT
  5
9DA
  8
0
  6
BYBLOCK
 62
     0
  2
_ORIGIN
 10
-64.99999999999999
 20
426.9149216288978
 30
0.0
 41
12.0
 42
12.0
 43
12.0
 50
180.0
  0
TEXT
  5
9DB
  8
0
  6
BYBLOCK
 62
     0
 10
-302.9850142201848
 20
446.9149216288977
 30
0.0
 40
64.0
  1
%%c82
 41
0.9
  0
POINT
  5
9DC
  8
DEFPOINTS
  6
BYBLOCK
 62
     0
 10
-65.0
 20
194.4544139999999
 30
0.0
  0
POINT
  5
9DD
  8
DEFPOINTS
  6
BYBLOCK
 62
     0
 10
17.0
 20
194.4544139999999
 30
0.0
  0
POINT
  5
9DE
  8
DEFPOINTS
  6
BYBLOCK
 62
     0
 10
17.00000000000001
 20
426.9149216288978
 30
0.0
  0
ENDBLK
  5
9DF
  8
0
  0
BLOCK
  8
0
  2
_NONE
 70
     0
 10
0.0
 20
0.0
 30
0.0
  3
_NONE
  1

  0
ENDBLK
  5
9E2
  8
0
 62
    30
  0
BLOCK
  8
0
  2
*D7
 70
     1
 10
0.0
 20
0.0
 30
0.0
  3
*D7
  1

  0
LINE
  5
9E5
  8
SIZE
  6
CONTINUOUS
 62
     0
 10
-92.0
 20
200.054428
 30
0.0
 11
-91.99999999999999
 21
561.7004237085092
 31
0.0
  0
LINE
  5
9E6
  8
SIZE
  6
CONTINUOUS
 62
     0
 10
0.0000000000000012
 20
242.0163899999999
 30
0.0
 11
0.0000000000000208
 21
561.7004237085092
 31
0.0
  0
LINE
  5
9E7
  8
SIZE
  6
CONTINUOUS
 62
     0
 10
-11.99999999999998
 20
531.7004237085092
 30
0.0
 11
-79.99999999999999
 21
531.7004237085092
 31
0.0
  0
LINE
  5
9E8
  8
SIZE
  6
CONTINUOUS
 62
     0
 10
-91.99999999999999
 20
531.7004237085092
 30
0.0
 11
-282.5018215999879
 21
531.7004237085092
 31
0.0
  0
INSERT
  5
9E9
  8
SIZE
  6
CONTINUOUS
 62
     0
  2
_ORIGIN
 10
0.000000000000019
 20
531.7004237085092
 30
0.0
 41
12.0
 42
12.0
 43
12.0
  0
INSERT
  5
9EA
  8
SIZE
  6
CONTINUOUS
 62
     0
  2
_ORIGIN
 10
-91.99999999999999
 20
531.7004237085092
 30
0.0
 41
12.0
 42
12.0
 43
12.0
 50
180.0
  0
TEXT
  5
9EB
  8
SIZE
  6
CONTINUOUS
 62
     0
 10
-262.5018215999879
 20
551.7004237085092
 30
0.0
 40
64.0
  1
92
 41
0.9
  0
POINT
  5
9EC
  8
DEFPOINTS
  6
CONTINUOUS
 62
     0
 10
-92.0
 20
180.054428
 30
0.0
  0
POINT
  5
9ED
  8
DEFPOINTS
  6
CONTINUOUS
 62
     0
 10
0.0
 20
222.01639
 30
0.0
  0
POINT
  5
9EE
  8
DEFPOINTS
  6
CONTINUOUS
 62
     0
 10
0.000000000000019
 20
531.7004237085092
 30
0.0
  0
ENDBLK
  5
9EF
  8
0
 62
    30
  0
BLOCK
  8
0
  2
*D8
 70
     1
 10
0.0
 20
0.0
 30
0.0
  3
*D8
  1

  0
LINE
  5
9F2
  8
SIZE
  6
CONTINUOUS
 62
     0
 10
-112.0
 20
180.054428
 30
0.0
 11
-639.2759813308392
 21
180.054428
 31
0.0
  0
LINE
  5
9F3
  8
SIZE
  6
CONTINUOUS
 62
     0
 10
-185.000007
 20
0.0544280000000057
 30
0.0
 11
-639.2759813308392
 21
0.0544280000001344
 31
0.0
  0
LINE
  5
9F4
  8
SIZE
  6
CONTINUOUS
 62
     0
 10
-609.2759813308394
 20
168.0544280000001
 30
0.0
 11
-609.2759813308394
 21
12.05442800000011
 31
0.0
  0
INSERT
  5
9F5
  8
SIZE
  6
CONTINUOUS
 62
     0
  2
_ORIGIN
 10
-609.2759813308394
 20
180.054428
 30
0.0
 41
12.0
 42
12.0
 43
12.0
 50
90.0
  0
INSERT
  5
9F6
  8
SIZE
  6
CONTINUOUS
 62
     0
  2
_ORIGIN
 10
-609.2759813308394
 20
0.0544280000001259
 30
0.0
 41
12.0
 42
12.0
 43
12.0
 50
270.0
  0
TEXT
  5
9F7
  8
SIZE
  6
CONTINUOUS
 62
     0
 10
-629.2759813308394
 20
21.48299942857148
 30
0.0
 40
64.0
  1
180
 50
90.0
 41
0.9
  0
POINT
  5
9F8
  8
DEFPOINTS
  6
CONTINUOUS
 62
     0
 10
-92.0
 20
180.054428
 30
0.0
  0
POINT
  5
9F9
  8
DEFPOINTS
  6
CONTINUOUS
 62
     0
 10
-165.000007
 20
0.054428
 30
0.0
  0
POINT
  5
9FA
  8
DEFPOINTS
  6
CONTINUOUS
 62
     0
 10
-609.2759813308394
 20
0.0544280000001259
 30
0.0
  0
ENDBLK
  5
9FB
  8
0
 62
    30
  0
ENDSEC
  0
SECTION
  2
ENTITIES
  0
LINE
  5
9FC
  8
BASIS
  6
DASHDOT
 62
     6
 10
0.0
 20
221.961962
 30
0.0
 11
0.0
 21
-58.665206
 31
0.0
  0
LINE
  5
9FD
  8
BASIS
  6
DASHDOT
 62
     6
 10
-24.0
 20
213.7921979999999
 30
0.0
 11
-24.0
 21
170.0080609999999
 31
0.0
  0
LINE
  5
9FE
  8
BASIS
  6
DASHDOT
 62
     6
 10
97.61995200000001
 20
111.0544279999999
 30
0.0
 11
-94.18729799999986
 21
111.0544279999999
 31
0.0
  0
LINE
  5
9FF
  8
DETAIL
  6
CONTINUOUS
 62
     5
 10
-54.63746999999999
 20
199.3999859999999
 30
0.0
 11
-53.46896199999999
 21
201.4238879999999
 31
0.0
  0
LINE
  5
A00
  8
DETAIL
  6
CONTINUOUS
 62
     5
 10
-60.0
 20
199.3999859999999
 30
0.0
 11
-24.0
 21
199.3999859999999
 31
0.0
  0
LINE
  5
A01
  8
DETAIL
  6
CONTINUOUS
 62
     5
 10
-24.0
 20
201.4239019999999
 30
0.0
 11
-53.46895299999999
 21
201.4239019999999
 31
0.0
  0
LINE
  5
A02
  8
DETAIL
  6
CONTINUOUS
 62
     5
 10
-30.672234
 20
202.4290719999999
 30
0.0
 11
-30.820821
 21
201.4239019999999
 31
0.0
  0
LINE
  5
A03
  8
DETAIL
  6
CONTINUOUS
 62
     5
 10
-28.852012
 20
204.0
 30
0.0
 11
-24.0
 21
204.0
 31
0.0
  0
ARC
  5
A04
  8
DETAIL
  6
CONTINUOUS
 62
     5
 10
-28.852012
 20
202.1599859999999
 30
0.0
 40
1.840000999999999
 50
90.0
 51
171.5908889999997
  0
ARC
  5
A05
  8
DETAIL
  6
CONTINUOUS
 62
     5
 10
-19.147988
 20
202.1599859999999
 30
0.0
 40
1.840000999999999
 50
8.409111000000266
 51
90.0
  0
LINE
  5
A06
  8
DETAIL
  6
CONTINUOUS
 62
     5
 10
-19.147988
 20
204.0
 30
0.0
 11
-24.0
 21
204.0
 31
0.0
  0
LINE
  5
A07
  8
DETAIL
  6
CONTINUOUS
 62
     5
 10
-17.327766
 20
202.4290719999999
 30
0.0
 11
-17.179179
 21
201.4239019999999
 31
0.0
  0
LINE
  5
A08
  8
DETAIL
  6
CONTINUOUS
 62
     5
 10
-24.0
 20
201.4239019999999
 30
0.0
 11
-1.919999999999999
 21
201.4239019999999
 31
0.0
  0
LINE
  5
A09
  8
DETAIL
  6
CONTINUOUS
 62
     5
 10
-1.919999999999999
 20
199.3999859999999
 30
0.0
 11
-24.0
 21
199.3999859999999
 31
0.0
  0
LINE
  5
A0A
  8
DETAIL
  6
CONTINUOUS
 62
     5
 10
0.0
 20
56.0
 30
0.0
 11
-45.0
 21
56.0
 31
0.0
  0
LINE
  5
A0B
  8
DETAIL
  6
CONTINUOUS
 62
     5
 10
0.0
 20
166.0
 30
0.0
 11
-45.0
 21
166.0
 31
0.0
  0
LINE
  5
A0C
  8
DETAIL
  6
CONTINUOUS
 62
     5
 10
-63.0
 20
74.0
 30
0.0
 11
-63.0
 21
147.9999999999998
 31
0.0
  0
LINE
  5
A0D
  8
DETAIL
  6
CONTINUOUS
 62
     5
 10
63.0
 20
74.0
 30
0.0
 11
63.0
 21
147.9999999999998
 31
0.0
  0
LINE
  5
A0E
  8
DETAIL
  6
CONTINUOUS
 62
     5
 10
0.0
 20
166.0
 30
0.0
 11
45.0
 21
166.0
 31
0.0
  0
LINE
  5
A0F
  8
DETAIL
  6
CONTINUOUS
 62
     5
 10
0.0
 20
56.0
 30
0.0
 11
45.0
 21
56.0
 31
0.0
  0
LINE
  5
A10
  8
DETAIL
  6
CONTINUOUS
 62
     5
 10
12.0
 20
199.399986
 30
0.0
 11
-24.0
 21
199.3999859999999
 31
0.0
  0
LINE
  5
A11
  8
DETAIL
  6
CONTINUOUS
 62
     5
 10
-24.0
 20
201.4239019999999
 30
0.0
 11
5.468952999999999
 21
201.4239019999999
 31
0.0
  0
LINE
  5
A12
  8
DETAIL
  6
CONTINUOUS
 62
     5
 10
6.637469999999999
 20
199.3999859999999
 30
0.0
 11
5.468962
 21
201.4238879999999
 31
0.0
  0
CIRCLE
  5
A13
  8
DETAIL
  6
CONTINUOUS
 62
     5
 10
0.0
 20
111.0
 30
0.0
 40
49.0
  0
CIRCLE
  5
A14
  8
DETAIL
  6
CONTINUOUS
 62
     5
 10
0.0
 20
111.0
 30
0.0
 40
52.5
  0
CIRCLE
  5
A15
  8
FIX
  6
CONTINUOUS
 62
    11
 10
141.5
 20
0.054427999999973
 30
0.0
 40
2.5
  0
CIRCLE
  5
A16
  8
FIX
  6
CONTINUOUS
 62
    11
 10
-85.0
 20
0.0
 30
0.0
 40
2.5
  0
CIRCLE
  5
A17
  8
FIX
  6
CONTINUOUS
 62
    11
 10
-85.0
 20
0.054427999999973
 30
0.0
 40
2.5
  0
CIRCLE
  5
A18
  8
FIX
  6
CONTINUOUS
 62
    11
 10
-141.5
 20
0.054427999999973
 30
0.0
 40
2.5
  0
LINE
  5
A19
  8
DETAIL
  6
CONTINUOUS
 62
     5
 10
159.4999999999996
 20
173.9999999999998
 30
0.0
 11
159.4999999999996
 21
170.4999999999998
 31
0.0
  0
LINE
  5
A1A
  8
DETAIL
  6
CONTINUOUS
 62
     5
 10
-87.5
 20
170.4999999999998
 30
0.0
 11
-122.5
 21
170.4999999999998
 31
0.0
  0
LINE
  5
A1B
  8
DETAIL
  6
CONTINUOUS
 62
     5
 10
-87.5
 20
173.9999999999998
 30
0.0
 11
-122.5
 21
173.9999999999998
 31
0.0
  0
LINE
  5
A1C
  8
DETAIL
  6
CONTINUOUS
 62
     5
 10
129.0
 20
170.4999999999998
 30
0.0
 11
159.4999999999996
 21
170.4999999999998
 31
0.0
  0
CIRCLE
  5
A1D
  8
FIX
  6
CONTINUOUS
 62
    11
 10
-105.0
 20
174.0544279999998
 30
0.0
 40
7.5
  0
CIRCLE
  5
A1E
  8
FIX
  6
CONTINUOUS
 62
    11
 10
142.5
 20
174.0544279999998
 30
0.0
 40
7.5
  0
TEXT
  5
A1F
  8
NOTE
  6
CONTINUOUS
 62
     4
 10
-426.8686149999999
 20
-77.715946
 30
0.0
 40
64.0
  1
EL
 41
0.9
  0
LINE
  5
A20
  8
NOTE
  6
CONTINUOUS
 62
     4
 10
-318.210382
 20
-101.96771
 30
0.0
 11
-437.015794
 21
-101.96771
 31
0.0
  0
LINE
  5
A21
  8
SIZE
  6
CONTINUOUS
 62
    30
 10
-28.0
 20
285.333892
 30
0.0
 11
-311.7986009999999
 21
285.333892
 31
0.0
  0
LINE
  5
A22
  8
NOTE
  6
CONTINUOUS
 62
     4
 10
142.5
 20
173.9999999999998
 30
0.0
 11
342.358272
 21
438.6142619999999
 31
0.0
  0
POINT
  5
A23
  8
ARRANGE
  6
CONTINUOUS
 62
     1
 10
0.0
 20
0.0
 30
0.0
  0
CIRCLE
  5
A24
  8
ARRANGE
  6
CONTINUOUS
 62
     1
 10
0.0
 20
0.0
 30
0.0
 40
40.0
  0
LINE
  5
A25
  8
SIZE
  6
CONTINUOUS
 62
    30
 10
952.251555
 20
-23.99999999999999
 30
0.0
 11
952.251555
 21
-159.4714529999999
 31
0.0
  0
ARC
  5
A26
  8
DETAIL
  6
CONTINUOUS
 62
     5
 10
-45.0
 20
147.9999999999998
 30
0.0
 40
18.0
 50
90.0
 51
180.0
  0
ARC
  5
A27
  8
DETAIL
  6
CONTINUOUS
 62
     5
 10
-45.0
 20
74.0
 30
0.0
 40
18.0
 50
180.0
 51
270.0
  0
ARC
  5
A28
  8
DETAIL
  6
CONTINUOUS
 62
     5
 10
45.0
 20
147.9999999999998
 30
0.0
 40
18.0
 50
0.0
 51
90.0
  0
ARC
  5
A29
  8
DETAIL
  6
CONTINUOUS
 62
     5
 10
45.0
 20
74.0
 30
0.0
 40
18.0
 50
270.0
 51
0.0
  0
CIRCLE
  5
A2A
  8
FIX
  6
CONTINUOUS
 62
    11
 10
-142.5
 20
174.0544279999998
 30
0.0
 40
7.5
  0
LINE
  5
A2B
  8
DETAIL
  6
CONTINUOUS
 62
     5
 10
-129.0
 20
170.4999999999998
 30
0.0
 11
-159.4999999999996
 21
170.4999999999998
 31
0.0
  0
LINE
  5
A2C
  8
DETAIL
  6
CONTINUOUS
 62
     5
 10
-159.4999999999996
 20
173.9999999999998
 30
0.0
 11
-159.4999999999996
 21
170.4999999999998
 31
0.0
  0
LINE
  5
A2D
  8
OUTLINE
  6
CONTINUOUS
 62
     3
 10
165.0000069999998
 20
0.054427999999973
 30
0.0
 11
-165.0000069999998
 21
0.054427999999973
 31
0.0
  0
LINE
  5
A2E
  8
DETAIL
  6
CONTINUOUS
 62
     5
 10
135.1349129999997
 20
-20.0
 30
0.0
 11
-135.1349129999997
 21
-20.0
 31
0.0
  0
LINE
  5
A2F
  8
DETAIL
  6
CONTINUOUS
 62
     5
 10
-165.0
 20
-8.553879
 30
0.0
 11
-165.0
 21
0.0
 31
0.0
  0
LINE
  5
A30
  8
DETAIL
  6
CONTINUOUS
 62
     5
 10
165.0
 20
-8.553879
 30
0.0
 11
165.0
 21
0.0
 31
0.0
  0
LINE
  5
A31
  8
DETAIL
  6
CONTINUOUS
 62
     5
 10
165.0
 20
-6.0
 30
0.0
 11
126.5
 21
-6.0
 31
0.0
  0
LINE
  5
A32
  8
DETAIL
  6
CONTINUOUS
 62
     5
 10
-126.5
 20
-20.0
 30
0.0
 11
-126.5
 21
0.0
 31
0.0
  0
LINE
  5
A33
  8
DETAIL
  6
CONTINUOUS
 62
     5
 10
126.5
 20
-20.0
 30
0.0
 11
126.5
 21
0.0
 31
0.0
  0
LINE
  5
A34
  8
DETAIL
  6
CONTINUOUS
 62
     5
 10
165.000007
 20
0.0
 30
0.0
 11
-165.000007
 21
0.0
 31
0.0
  0
LINE
  5
A35
  8
DETAIL
  6
CONTINUOUS
 62
     5
 10
-121.5
 20
-20.0
 30
0.0
 11
-121.5
 21
0.0
 31
0.0
  0
LINE
  5
A36
  8
DETAIL
  6
CONTINUOUS
 62
     5
 10
-126.5
 20
-6.0
 30
0.0
 11
-165.0
 21
-6.0
 31
0.0
  0
LINE
  5
A37
  8
DETAIL
  6
CONTINUOUS
 62
     5
 10
121.5
 20
-6.0
 30
0.0
 11
-121.5
 21
-6.0
 31
0.0
  0
LINE
  5
A38
  8
DETAIL
  6
CONTINUOUS
 62
     5
 10
159.4999999999996
 20
173.9999999999998
 30
0.0
 11
125.5
 21
173.9999999999998
 31
0.0
  0
CIRCLE
  5
A39
  8
FIX
  6
CONTINUOUS
 62
    11
 10
85.0
 20
0.054427999999973
 30
0.0
 40
2.5
  0
LINE
  5
A3A
  8
DETAIL
  6
CONTINUOUS
 62
     5
 10
-87.5
 20
173.9999999999998
 30
0.0
 11
-87.5
 21
119.5
 31
0.0
  0
LINE
  5
A3B
  8
DETAIL
  6
CONTINUOUS
 62
     5
 10
-122.5
 20
173.9999999999998
 30
0.0
 11
-122.5
 21
119.5
 31
0.0
  0
LINE
  5
A3C
  8
DETAIL
  6
CONTINUOUS
 62
     5
 10
-125.5
 20
173.9999999999998
 30
0.0
 11
-125.5
 21
0.0
 31
0.0
  0
LINE
  5
A3D
  8
DETAIL
  6
CONTINUOUS
 62
     5
 10
125.5
 20
166.0
 30
0.0
 11
90.0
 21
166.0
 31
0.0
  0
LINE
  5
A3E
  8
DETAIL
  6
CONTINUOUS
 62
     5
 10
125.5
 20
159.0
 30
0.0
 11
90.0
 21
159.0
 31
0.0
  0
LINE
  5
A3F
  8
DETAIL
  6
CONTINUOUS
 62
     5
 10
90.0
 20
173.9999999999998
 30
0.0
 11
90.0
 21
119.5
 31
0.0
  0
ARC
  5
A40
  8
DETAIL
  6
CONTINUOUS
 62
     5
 10
39.5
 20
143.0
 30
0.0
 40
35.0
 50
0.0
 51
90.0
  0
LINE
  5
A41
  8
DETAIL
  6
CONTINUOUS
 62
     5
 10
74.5
 20
79.0
 30
0.0
 11
74.5
 21
143.0
 31
0.0
  0
ARC
  5
A42
  8
DETAIL
  6
CONTINUOUS
 62
     5
 10
39.5
 20
79.0
 30
0.0
 40
35.0
 50
270.0
 51
0.0
  0
LINE
  5
A43
  8
DETAIL
  6
CONTINUOUS
 62
     5
 10
39.5
 20
44.0
 30
0.0
 11
0.0
 21
44.0
 31
0.0
  0
LINE
  5
A44
  8
DETAIL
  6
CONTINUOUS
 62
     5
 10
-39.5
 20
44.0
 30
0.0
 11
0.0
 21
44.0
 31
0.0
  0
ARC
  5
A45
  8
DETAIL
  6
CONTINUOUS
 62
     5
 10
-39.5
 20
79.0
 30
0.0
 40
35.0
 50
180.0
 51
270.0
  0
LINE
  5
A46
  8
DETAIL
  6
CONTINUOUS
 62
     5
 10
-74.5
 20
79.0
 30
0.0
 11
-74.5
 21
143.0
 31
0.0
  0
ARC
  5
A47
  8
DETAIL
  6
CONTINUOUS
 62
     5
 10
-39.5
 20
143.0
 30
0.0
 40
35.0
 50
90.0
 51
180.0
  0
LINE
  5
A48
  8
DETAIL
  6
CONTINUOUS
 62
     5
 10
-39.5
 20
177.9999999999998
 30
0.0
 11
40.62939536970953
 21
177.9999999999998
 31
0.0
  0
LINE
  5
A49
  8
DETAIL
  6
CONTINUOUS
 62
     5
 10
125.5
 20
166.0
 30
0.0
 11
125.5
 21
0.0
 31
0.0
  0
LINE
  5
A4A
  8
DETAIL
  6
CONTINUOUS
 62
     5
 10
121.5
 20
-20.0
 30
0.0
 11
121.5
 21
0.0
 31
0.0
  0
LINE
  5
A4B
  8
DETAIL
  6
CONTINUOUS
 62
     5
 10
129.0
 20
170.4999999999998
 30
0.0
 11
129.0
 21
22.5
 31
0.0
  0
LINE
  5
A4C
  8
DETAIL
  6
CONTINUOUS
 62
     5
 10
125.5
 20
166.0
 30
0.0
 11
125.5
 21
173.9999999999998
 31
0.0
  0
CIRCLE
  5
A4D
  8
FIX
  6
CONTINUOUS
 62
    11
 10
105.0
 20
174.0544279999998
 30
0.0
 40
7.5
  0
LINE
  5
A4E
  8
DETAIL
  6
CONTINUOUS
 62
     5
 10
122.5
 20
173.9999999999998
 30
0.0
 11
122.5
 21
166.0
 31
0.0
  0
LINE
  5
A4F
  8
DETAIL
  6
CONTINUOUS
 62
     5
 10
122.5
 20
173.9999999999998
 30
0.0
 11
90.0
 21
173.9999999999998
 31
0.0
  0
LINE
  5
A50
  8
DETAIL
  6
CONTINUOUS
 62
     5
 10
-125.5
 20
173.9999999999998
 30
0.0
 11
-159.4999999999996
 21
173.9999999999998
 31
0.0
  0
LINE
  5
A51
  8
DETAIL
  6
CONTINUOUS
 62
     5
 10
-125.5
 20
166.0
 30
0.0
 11
-122.5
 21
166.0
 31
0.0
  0
LINE
  5
A52
  8
NOTE
  6
CONTINUOUS
 62
     4
 10
1013.871
 20
-317.4440029999999
 30
0.0
 11
579.848149
 21
-317.4440029999999
 31
0.0
  0
LINE
  5
A53
  8
NOTE
  6
CONTINUOUS
 62
     4
 10
1318.957
 20
438.6142619999999
 30
0.0
 11
342.358272
 21
438.6142619999999
 31
0.0
  0
LINE
  5
A54
  8
SIZE
  6
CONTINUOUS
 62
    30
 10
641.8533039999998
 20
166.0
 30
0.0
 11
641.8533039999998
 21
387.736451
 31
0.0
  0
LINE
  5
A55
  8
SIZE
  6
CONTINUOUS
 62
    30
 10
544.578103
 20
1.999999999999996
 30
0.0
 11
544.578103
 21
-200.3735189999999
 31
0.0
  0
LINE
  5
A56
  8
DETAIL
  6
CONTINUOUS
 62
     5
 10
-129.0
 20
170.4999999999998
 30
0.0
 11
-129.0
 21
22.5
 31
0.0
  0
LINE
  5
A57
  8
SIZE
  6
CONTINUOUS
 62
    30
 10
-360.745361
 20
160.0
 30
0.0
 11
-360.745361
 21
378.396057
 31
0.0
  0
LINE
  5
A58
  8
SIZE
  6
CONTINUOUS
 62
    30
 10
-497.3996679999999
 20
165.4999999999998
 30
0.0
 11
-497.3996679999999
 21
412.580374
 31
0.0
  0
LINE
  5
A59
  8
DETAIL
  6
CONTINUOUS
 62
     5
 10
-87.5
 20
119.5
 30
0.0
 11
-125.5
 21
119.5
 31
0.0
  0
LINE
  5
A5A
  8
OUTLINE
  6
CONTINUOUS
 62
     3
 10
125.5
 20
166.0544279999998
 30
0.0
 11
92.0
 21
166.0544279999998
 31
0.0
  0
LINE
  5
A5B
  8
OUTLINE
  6
CONTINUOUS
 62
     3
 10
125.5
 20
166.0544279999998
 30
0.0
 11
125.5
 21
0.054427999999973
 31
0.0
  0
LINE
  5
A5C
  8
OUTLINE
  6
CONTINUOUS
 62
     3
 10
-125.5
 20
166.0544279999998
 30
0.0
 11
-92.0
 21
166.0544279999998
 31
0.0
  0
LINE
  5
A5D
  8
OUTLINE
  6
CONTINUOUS
 62
     3
 10
-125.5
 20
166.0544279999998
 30
0.0
 11
-125.5
 21
0.054427999999973
 31
0.0
  0
TEXT
  5
A5E
  8
NOTE
  6
CONTINUOUS
 62
     4
 10
355.0546549999999
 20
475.67042
 30
0.0
 40
64.0
  1
AH 4-φ15×22
 41
0.9
  0
TEXT
  5
A5F
  8
NOTE
  6
CONTINUOUS
 62
     4
 10
614.8202079999999
 20
-281.668457
 30
0.0
 40
64.0
  1
8-φ5×8
 41
0.9
  0
LINE
  5
A60
  8
DETAIL
  6
CONTINUOUS
 62
     5
 10
-125.5
 20
22.5
 30
0.0
 11
-129.0
 21
22.5
 31
0.0
  0
LINE
  5
A61
  8
DETAIL
  6
CONTINUOUS
 62
     5
 10
129.0
 20
22.5
 30
0.0
 11
125.5
 21
22.5
 31
0.0
  0
LINE
  5
A62
  8
DETAIL
  6
CONTINUOUS
 62
     5
 10
-125.5
 20
173.9999999999998
 30
0.0
 11
-125.5
 21
180.0
 31
0.0
  0
LINE
  5
A63
  8
DETAIL
  6
CONTINUOUS
 62
     5
 10
-122.5
 20
173.9999999999998
 30
0.0
 11
-122.5
 21
179.9999999999995
 31
0.0
  0
LINE
  5
A64
  8
DETAIL
  6
CONTINUOUS
 62
     5
 10
125.5
 20
173.9999999999998
 30
0.0
 11
125.5
 21
180.0
 31
0.0
  0
LINE
  5
A65
  8
DETAIL
  6
CONTINUOUS
 62
     5
 10
122.5
 20
173.9999999999998
 30
0.0
 11
122.5
 21
179.9999999999995
 31
0.0
  0
LINE
  5
A66
  8
DETAIL
  6
CONTINUOUS
 62
     5
 10
90.0
 20
119.5
 30
0.0
 11
125.5
 21
119.5
 31
0.0
  0
LINE
  5
A67
  8
DETAIL
  6
CONTINUOUS
 62
     5
 10
-88.25803
 20
119.5
 30
0.0
 11
-84.32452099999998
 21
-3.565388999999999
 31
0.0
  0
TEXT
  5
A68
  8
NOTE
  6
CONTINUOUS
 62
     4
 10
-48.60721199999989
 20
68.99893299999997
 30
0.0
 40
64.0
  1
RA
 41
0.9
  0
LINE
  5
A69
  8
NOTE
  6
CONTINUOUS
 62
     4
 10
141.5
 20
0.0
 30
0.0
 11
579.848149
 21
-317.4440029999999
 31
0.0
  0
LINE
  5
A6A
  8
SIZE
  6
CONTINUOUS
 62
    30
 10
-105.0
 20
-238.629761
 30
0.0
 11
-338.280364
 21
-238.629761
 31
0.0
  0
LINE
  5
A6B
  8
NOTE
  6
CONTINUOUS
 62
     4
 10
-105.0
 20
166.0
 30
0.0
 11
-318.210382
 21
-101.96771
 31
0.0
  0
TEXT
  5
A6C
  8
NOTE
  6
CONTINUOUS
 62
     4
 10
984.5810119999999
 20
473.19098
 30
0.0
 40
64.0
  1
(2点吊り)
 41
0.9
  0
LINE
  5
A6D
  8
SIZE
  6
BYBLOCK
 62
    30
 10
-105.0
 20
125.9999999999999
 30
0.0
 11
-105.0
 21
-268.629761
 31
0.0
  0
LINE
  5
A6E
  8
SIZE
  6
BYBLOCK
 62
    30
 10
0.0
 20
-78.66520599999998
 30
0.0
 11
0.0
 21
-268.629761
 31
0.0
  0
LINE
  5
A6F
  8
SIZE
  6
BYBLOCK
 62
    30
 10
2.0
 20
-238.629761
 30
0.0
 11
4.0
 21
-238.629761
 31
0.0
  0
LINE
  5
A70
  8
SIZE
  6
BYBLOCK
 62
    30
 10
-107.0
 20
-238.629761
 30
0.0
 11
-109.0
 21
-238.629761
 31
0.0
  0
LINE
  5
A71
  8
SIZE
  6
BYBLOCK
 62
    30
 10
0.0
 20
-238.629761
 30
0.0
 11
-105.0
 21
-238.629761
 31
0.0
  0
TEXT
  5
A72
  8
SIZE
  6
BYBLOCK
 62
    30
 10
-319.6330849999998
 20
-206.629761
 30
0.0
 40
64.0
  1
105
 41
0.9
  0
LINE
  5
A73
  8
SIZE
  6
BYBLOCK
 62
    30
 10
185.0
 20
0.0
 30
0.0
 11
982.251555
 21
0.0
 31
0.0
  0
LINE
  5
A74
  8
SIZE
  6
BYBLOCK
 62
    30
 10
0.852012
 20
203.9999869999997
 30
0.0
 11
982.251555
 21
203.9999869999997
 31
0.0
  0
LINE
  5
A75
  8
SIZE
  6
BYBLOCK
 62
    30
 10
952.251555
 20
1.999999999999996
 30
0.0
 11
952.251555
 21
201.9999869999998
 31
0.0
  0
TEXT
  5
A76
  8
SIZE
  6
BYBLOCK
 62
    30
 10
920.251555
 20
26.57142199999999
 30
0.0
 40
64.0
  1
204
 50
90.0
 41
0.9
  0
LINE
  5
A77
  8
SIZE
  6
BYBLOCK
 62
    30
 10
-125.5
 20
-20.0
 30
0.0
 11
-125.5
 21
-568.9165649999999
 31
0.0
  0
LINE
  5
A78
  8
SIZE
  6
BYBLOCK
 62
    30
 10
125.5
 20
-20.0
 30
0.0
 11
125.5
 21
-568.9165649999999
 31
0.0
  0
LINE
  5
A79
  8
SIZE
  6
BYBLOCK
 62
    30
 10
-123.5
 20
-538.916565
 30
0.0
 11
123.5
 21
-538.916565
 31
0.0
  0
TEXT
  5
A7A
  8
SIZE
  6
BYBLOCK
 62
    30
 10
-94.35428599999999
 20
-506.916565
 30
0.0
 40
64.0
  1
□251
 41
0.9
  0
LINE
  5
A7B
  8
SIZE
  6
BYBLOCK
 62
    30
 10
185.000007
 20
0.0
 30
0.0
 11
574.578103
 21
0.0
 31
0.0
  0
LINE
  5
A7C
  8
SIZE
  6
BYBLOCK
 62
    30
 10
117.6199519999999
 20
111.0
 30
0.0
 11
574.578103
 21
111.0
 31
0.0
  0
LINE
  5
A7D
  8
SIZE
  6
BYBLOCK
 62
    30
 10
544.578103
 20
1.999999999999996
 30
0.0
 11
544.578103
 21
55.5
 31
0.0
  0
LINE
  5
A7E
  8
SIZE
  6
BYBLOCK
 62
    30
 10
544.578103
 20
109.0
 30
0.0
 11
544.578103
 21
55.5
 31
0.0
  0
TEXT
  5
A7F
  8
SIZE
  6
BYBLOCK
 62
    30
 10
512.578103
 20
-168.320266
 30
0.0
 40
64.0
  1
111
 50
90.0
 41
0.9
  0
LINE
  5
A80
  8
SIZE
  6
BYBLOCK
 62
    30
 10
65.0
 20
56.0
 30
0.0
 11
671.8533039999998
 21
56.0
 31
0.0
  0
LINE
  5
A81
  8
SIZE
  6
BYBLOCK
 62
    30
 10
65.0
 20
166.0
 30
0.0
 11
671.8533039999998
 21
166.0
 31
0.0
  0
LINE
  5
A82
  8
SIZE
  6
BYBLOCK
 62
    30
 10
641.8533039999998
 20
168.0
 30
0.0
 11
641.8533039999998
 21
170.0
 31
0.0
  0
LINE
  5
A83
  8
SIZE
  6
BYBLOCK
 62
    30
 10
641.8533039999998
 20
54.0
 30
0.0
 11
641.8533039999998
 21
52.0
 31
0.0
  0
LINE
  5
A84
  8
SIZE
  6
BYBLOCK
 62
    30
 10
641.8533039999998
 20
166.0
 30
0.0
 11
641.8533039999998
 21
56.0
 31
0.0
  0
TEXT
  5
A85
  8
SIZE
  6
BYBLOCK
 62
    30
 10
609.8533039999998
 20
235.1204629999999
 30
0.0
 40
64.0
  1
110
 50
90.0
 41
0.9
  0
LINE
  5
A86
  8
SIZE
  6
BYBLOCK
 62
    30
 10
181.4999999999995
 20
0.0
 30
0.0
 11
827.249132
 21
0.0
 31
0.0
  0
LINE
  5
A87
  8
SIZE
  6
BYBLOCK
 62
    30
 10
145.5
 20
166.0
 30
0.0
 11
827.249132
 21
166.0
 31
0.0
  0
LINE
  5
A88
  8
SIZE
  6
BYBLOCK
 62
    30
 10
797.249132
 20
1.999999999999996
 30
0.0
 11
797.249132
 21
82.99999999999999
 31
0.0
  0
LINE
  5
A89
  8
SIZE
  6
BYBLOCK
 62
    30
 10
797.249132
 20
164.0
 30
0.0
 11
797.249132
 21
82.99999999999999
 31
0.0
  0
TEXT
  5
A8A
  8
SIZE
  6
BYBLOCK
 62
    30
 10
765.249132
 20
15.8
 30
0.0
 40
64.0
  1
166
 50
90.0
 41
0.9
  0
LINE
  5
A8B
  8
SIZE
  6
BYBLOCK
 62
    30
 10
-20.0
 20
58.5
 30
0.0
 11
-527.399668
 21
58.5
 31
0.0
  0
LINE
  5
A8C
  8
SIZE
  6
BYBLOCK
 62
    30
 10
-20.0
 20
163.4999999999995
 30
0.0
 11
-527.399668
 21
163.4999999999995
 31
0.0
  0
LINE
  5
A8D
  8
SIZE
  6
BYBLOCK
 62
    30
 10
-497.3996679999999
 20
165.4999999999998
 30
0.0
 11
-497.3996679999999
 21
167.4999999999996
 31
0.0
  0
LINE
  5
A8E
  8
SIZE
  6
BYBLOCK
 62
    30
 10
-497.3996679999999
 20
56.5
 30
0.0
 11
-497.3996679999999
 21
54.5
 31
0.0
  0
LINE
  5
A8F
  8
SIZE
  6
BYBLOCK
 62
    30
 10
-497.3996679999999
 20
163.4999999999995
 30
0.0
 11
-497.3996679999999
 21
58.5
 31
0.0
  0
TEXT
  5
A90
  8
SIZE
  6
BYBLOCK
 62
    30
 10
-529.399668
 20
196.9808149999999
 30
0.0
 40
64.0
  1
φ105
 50
90.0
 41
0.9
  0
LINE
  5
A91
  8
SIZE
  6
BYBLOCK
 62
    30
 10
-20.0
 20
62.0
 30
0.0
 11
-390.745361
 21
62.0
 31
0.0
  0
LINE
  5
A92
  8
SIZE
  6
BYBLOCK
 62
    30
 10
-20.0
 20
160.0
 30
0.0
 11
-390.745361
 21
160.0
 31
0.0
  0
LINE
  5
A93
  8
SIZE
  6
BYBLOCK
 62
    30
 10
-360.745361
 20
162.0
 30
0.0
 11
-360.745361
 21
164.0
 31
0.0
  0
LINE
  5
A94
  8
SIZE
  6
BYBLOCK
 62
    30
 10
-360.745361
 20
60.0
 30
0.0
 11
-360.745361
 21
58.0
 31
0.0
  0
LINE
  5
A95
  8
SIZE
  6
BYBLOCK
 62
    30
 10
-360.745361
 20
160.0
 30
0.0
 11
-360.745361
 21
62.0
 31
0.0
  0
TEXT
  5
A96
  8
SIZE
  6
BYBLOCK
 62
    30
 10
-392.745361
 20
199.241793
 30
0.0
 40
64.0
  1
φ98
 50
90.0
 41
0.9
  0
LINE
  5
A97
  8
SIZE
  6
BYBLOCK
 62
    30
 10
105.0
 20
213.9999999999998
 30
0.0
 11
105.0
 21
771.402397
 31
0.0
  0
LINE
  5
A98
  8
SIZE
  6
BYBLOCK
 62
    30
 10
-105.0
 20
213.9999999999998
 30
0.0
 11
-105.0
 21
771.402397
 31
0.0
  0
LINE
  5
A99
  8
SIZE
  6
BYBLOCK
 62
    30
 10
103.0
 20
741.402397
 30
0.0
 11
0.0
 21
741.402397
 31
0.0
  0
LINE
  5
A9A
  8
SIZE
  6
BYBLOCK
 62
    30
 10
-103.0
 20
741.402397
 30
0.0
 11
0.0
 21
741.402397
 31
0.0
  0
TEXT
  5
A9B
  8
SIZE
  6
BYBLOCK
 62
    30
 10
-68.57142900000001
 20
773.4023969999996
 30
0.0
 40
64.0
  1
210
 41
0.9
  0
LINE
  5
A9C
  8
SIZE
  6
BYBLOCK
 62
    30
 10
63.0
 20
168.0
 30
0.0
 11
63.0
 21
647.92236
 31
0.0
  0
LINE
  5
A9D
  8
SIZE
  6
BYBLOCK
 62
    30
 10
-63.0
 20
168.0
 30
0.0
 11
-63.0
 21
647.92236
 31
0.0
  0
LINE
  5
A9E
  8
SIZE
  6
BYBLOCK
 62
    30
 10
-65.0
 20
617.92236
 30
0.0
 11
-67.0
 21
617.92236
 31
0.0
  0
LINE
  5
A9F
  8
SIZE
  6
BYBLOCK
 62
    30
 10
65.0
 20
617.92236
 30
0.0
 11
67.0
 21
617.92236
 31
0.0
  0
LINE
  5
AA0
  8
SIZE
  6
BYBLOCK
 62
    30
 10
-63.0
 20
617.92236
 30
0.0
 11
63.0
 21
617.92236
 31
0.0
  0
TEXT
  5
AA1
  8
SIZE
  6
BYBLOCK
 62
    30
 10
-67.2
 20
649.9223600000001
 30
0.0
 40
64.0
  1
126
 41
0.9
  0
LINE
  5
AA2
  8
SIZE
  6
BYBLOCK
 62
    30
 10
185.000007
 20
0.0
 30
0.0
 11
982.251555
 21
0.0
 31
0.0
  0
LINE
  5
AA3
  8
SIZE
  6
BYBLOCK
 62
    30
 10
155.134913
 20
-20.0
 30
0.0
 11
982.251555
 21
-20.0
 31
0.0
  0
LINE
  5
AA4
  8
SIZE
  6
BYBLOCK
 62
    30
 10
952.251555
 20
-21.99999999999999
 30
0.0
 11
952.251555
 21
-23.99999999999999
 31
0.0
  0
LINE
  5
AA5
  8
SIZE
  6
BYBLOCK
 62
    30
 10
952.251555
 20
1.999999999999996
 30
0.0
 11
952.251555
 21
3.999999999999997
 31
0.0
  0
LINE
  5
AA6
  8
SIZE
  6
BYBLOCK
 62
    30
 10
952.251555
 20
-20.0
 30
0.0
 11
952.251555
 21
0.0
 31
0.0
  0
TEXT
  5
AA7
  8
SIZE
  6
BYBLOCK
 62
    30
 10
920.251555
 20
-145.8836049999999
 30
0.0
 40
64.0
  1
20
 50
90.0
 41
0.9
  0
LINE
  5
AA8
  8
SIZE
  6
BYBLOCK
 62
    30
 10
142.5
 20
214.6961539999998
 30
0.0
 11
142.5
 21
898.743338
 31
0.0
  0
LINE
  5
AA9
  8
SIZE
  6
BYBLOCK
 62
    30
 10
-142.5
 20
214.6961539999998
 30
0.0
 11
-142.5
 21
898.743338
 31
0.0
  0
LINE
  5
AAA
  8
SIZE
  6
BYBLOCK
 62
    30
 10
140.5
 20
868.7433379999997
 30
0.0
 11
0.0
 21
868.7433379999997
 31
0.0
  0
LINE
  5
AAB
  8
SIZE
  6
BYBLOCK
 62
    30
 10
-140.5
 20
868.7433379999997
 30
0.0
 11
0.0
 21
868.7433379999997
 31
0.0
  0
TEXT
  5
AAC
  8
SIZE
  6
BYBLOCK
 62
    30
 10
-74.05714300000002
 20
900.7433379999999
 30
0.0
 40
64.0
  1
285
 41
0.9
  0
LINE
  5
AAD
  8
SIZE
  6
BYBLOCK
 62
    30
 10
165.000007
 20
-26.265141
 30
0.0
 11
165.000007
 21
-824.1701689999998
 31
0.0
  0
LINE
  5
AAE
  8
SIZE
  6
BYBLOCK
 62
    30
 10
-165.000007
 20
-26.265141
 30
0.0
 11
-165.000007
 21
-824.1701689999998
 31
0.0
  0
LINE
  5
AAF
  8
SIZE
  6
BYBLOCK
 62
    30
 10
163.000007
 20
-794.1701689999999
 30
0.0
 11
0.0
 21
-794.1701689999999
 31
0.0
  0
LINE
  5
AB0
  8
SIZE
  6
BYBLOCK
 62
    30
 10
-163.000007
 20
-794.1701689999999
 30
0.0
 11
0.0
 21
-794.1701689999999
 31
0.0
  0
TEXT
  5
AB1
  8
SIZE
  6
BYBLOCK
 62
    30
 10
-106.6971429999999
 20
-762.1701689999999
 30
0.0
 40
64.0
  1
□330
 41
0.9
  0
LINE
  5
AB2
  8
SIZE
  6
BYBLOCK
 62
    30
 10
0.0
 20
241.9619619999999
 30
0.0
 11
0.0
 21
315.333892
 31
0.0
  0
LINE
  5
AB3
  8
SIZE
  6
BYBLOCK
 62
    30
 10
-24.0
 20
233.7377699999999
 30
0.0
 11
-24.0
 21
315.333892
 31
0.0
  0
LINE
  5
AB4
  8
SIZE
  6
BYBLOCK
 62
    30
 10
-26.0
 20
285.333892
 30
0.0
 11
-28.0
 21
285.333892
 31
0.0
  0
LINE
  5
AB5
  8
SIZE
  6
BYBLOCK
 62
    30
 10
2.0
 20
285.333892
 30
0.0
 11
4.0
 21
285.333892
 31
0.0
  0
LINE
  5
AB6
  8
SIZE
  6
BYBLOCK
 62
    30
 10
-24.0
 20
285.333892
 30
0.0
 11
0.0
 21
285.333892
 31
0.0
  0
TEXT
  5
AB7
  8
SIZE
  6
BYBLOCK
 62
    30
 10
-279.7759189999998
 20
317.333892
 30
0.0
 40
64.0
  1
24
 41
0.9
  0
LINE
  5
AB8
  8
SIZE
  6
BYBLOCK
 62
    30
 10
-141.5
 20
-40.054428
 30
0.0
 11
-141.5
 21
-695.195414
 31
0.0
  0
LINE
  5
AB9
  8
SIZE
  6
BYBLOCK
 62
    30
 10
141.5
 20
-40.054428
 30
0.0
 11
141.5
 21
-695.195414
 31
0.0
  0
LINE
  5
ABA
  8
SIZE
  6
BYBLOCK
 62
    30
 10
-139.5
 20
-665.195414
 30
0.0
 11
0.0
 21
-665.195414
 31
0.0
  0
LINE
  5
ABB
  8
SIZE
  6
BYBLOCK
 62
    30
 10
139.5
 20
-665.195414
 30
0.0
 11
0.0
 21
-665.195414
 31
0.0
  0
TEXT
  5
ABC
  8
SIZE
  6
BYBLOCK
 62
    30
 10
-79.80383499999998
 20
-633.1954139999999
 30
0.0
 40
64.0
  1
283
 41
0.9
  0
LINE
  5
ABD
  8
SIZE
  6
BYBLOCK
 62
    30
 10
-85.0
 20
-40.054428
 30
0.0
 11
-85.0
 21
-424.7814359999998
 31
0.0
  0
LINE
  5
ABE
  8
SIZE
  6
BYBLOCK
 62
    30
 10
85.0
 20
-40.054428
 30
0.0
 11
85.0
 21
-424.7814359999998
 31
0.0
  0
LINE
  5
ABF
  8
SIZE
  6
BYBLOCK
 62
    30
 10
-83.0
 20
-394.781436
 30
0.0
 11
0.0
 21
-394.781436
 31
0.0
  0
LINE
  5
AC0
  8
SIZE
  6
BYBLOCK
 62
    30
 10
83.0
 20
-394.781436
 30
0.0
 11
0.0
 21
-394.781436
 31
0.0
  0
TEXT
  5
AC1
  8
SIZE
  6
BYBLOCK
 62
    30
 10
-68.57142900000001
 20
-362.781436
 30
0.0
 40
64.0
  1
170
 41
0.9
  0
CIRCLE
  5
AC2
  8
SIZE
  6
CONTINUOUS
 62
    30
 10
85.0
 20
-394.781436
 30
0.0
 40
6.0
  0
CIRCLE
  5
AC3
  8
SIZE
  6
CONTINUOUS
 62
    30
 10
-85.0
 20
-394.781436
 30
0.0
 40
6.0
  0
CIRCLE
  5
AC4
  8
SIZE
  6
CONTINUOUS
 62
    30
 10
141.5
 20
-665.195414
 30
0.0
 40
6.0
  0
CIRCLE
  5
AC5
  8
SIZE
  6
CONTINUOUS
 62
    30
 10
-141.5
 20
-665.195414
 30
0.0
 40
6.0
  0
CIRCLE
  5
AC6
  8
SIZE
  6
CONTINUOUS
 62
    30
 10
0.0
 20
285.333892
 30
0.0
 40
6.0
  0
CIRCLE
  5
AC7
  8
SIZE
  6
CONTINUOUS
 62
    30
 10
-24.0
 20
285.333892
 30
0.0
 40
6.0
  0
CIRCLE
  5
AC8
  8
SIZE
  6
CONTINUOUS
 62
    30
 10
-165.000007
 20
-794.1701689999999
 30
0.0
 40
6.0
  0
CIRCLE
  5
AC9
  8
SIZE
  6
CONTINUOUS
 62
    30
 10
165.000007
 20
-794.1701689999999
 30
0.0
 40
6.0
  0
CIRCLE
  5
ACA
  8
SIZE
  6
CONTINUOUS
 62
    30
 10
-142.5
 20
868.7433379999997
 30
0.0
 40
6.0
  0
CIRCLE
  5
ACB
  8
SIZE
  6
CONTINUOUS
 62
    30
 10
142.5
 20
868.7433379999997
 30
0.0
 40
6.0
  0
CIRCLE
  5
ACC
  8
SIZE
  6
CONTINUOUS
 62
    30
 10
952.251555
 20
0.0
 30
0.0
 40
6.0
  0
CIRCLE
  5
ACD
  8
SIZE
  6
CONTINUOUS
 62
    30
 10
952.251555
 20
-20.0
 30
0.0
 40
6.0
  0
CIRCLE
  5
ACE
  8
SIZE
  6
CONTINUOUS
 62
    30
 10
63.0
 20
617.92236
 30
0.0
 40
6.0
  0
CIRCLE
  5
ACF
  8
SIZE
  6
CONTINUOUS
 62
    30
 10
-63.0
 20
617.92236
 30
0.0
 40
6.0
  0
CIRCLE
  5
AD0
  8
SIZE
  6
CONTINUOUS
 62
    30
 10
-105.0
 20
741.402397
 30
0.0
 40
6.0
  0
CIRCLE
  5
AD1
  8
SIZE
  6
CONTINUOUS
 62
    30
 10
105.0
 20
741.402397
 30
0.0
 40
6.0
  0
CIRCLE
  5
AD2
  8
SIZE
  6
CONTINUOUS
 62
    30
 10
-360.745361
 20
62.0
 30
0.0
 40
6.0
  0
CIRCLE
  5
AD3
  8
SIZE
  6
CONTINUOUS
 62
    30
 10
-360.745361
 20
160.0
 30
0.0
 40
6.0
  0
CIRCLE
  5
AD4
  8
SIZE
  6
CONTINUOUS
 62
    30
 10
-497.3996679999999
 20
58.5
 30
0.0
 40
6.0
  0
CIRCLE
  5
AD5
  8
SIZE
  6
CONTINUOUS
 62
    30
 10
-497.3996679999999
 20
163.4999999999995
 30
0.0
 40
6.0
  0
CIRCLE
  5
AD6
  8
SIZE
  6
CONTINUOUS
 62
    30
 10
797.249132
 20
166.0
 30
0.0
 40
6.0
  0
CIRCLE
  5
AD7
  8
SIZE
  6
CONTINUOUS
 62
    30
 10
797.249132
 20
0.0
 30
0.0
 40
6.0
  0
CIRCLE
  5
AD8
  8
SIZE
  6
CONTINUOUS
 62
    30
 10
641.8533039999998
 20
56.0
 30
0.0
 40
6.0
  0
CIRCLE
  5
AD9
  8
SIZE
  6
CONTINUOUS
 62
    30
 10
641.8533039999998
 20
166.0
 30
0.0
 40
6.0
  0
CIRCLE
  5
ADA
  8
SIZE
  6
CONTINUOUS
 62
    30
 10
544.578103
 20
111.0
 30
0.0
 40
6.0
  0
CIRCLE
  5
ADB
  8
SIZE
  6
CONTINUOUS
 62
    30
 10
544.578103
 20
0.0
 30
0.0
 40
6.0
  0
CIRCLE
  5
ADC
  8
SIZE
  6
CONTINUOUS
 62
    30
 10
125.5
 20
-538.916565
 30
0.0
 40
6.0
  0
CIRCLE
  5
ADD
  8
SIZE
  6
CONTINUOUS
 62
    30
 10
-125.5
 20
-538.916565
 30
0.0
 40
6.0
  0
CIRCLE
  5
ADE
  8
SIZE
  6
CONTINUOUS
 62
    30
 10
952.251555
 20
203.9999869999997
 30
0.0
 40
6.0
  0
CIRCLE
  5
ADF
  8
SIZE
  6
CONTINUOUS
 62
    30
 10
952.251555
 20
0.0
 30
0.0
 40
6.0
  0
CIRCLE
  5
AE0
  8
SIZE
  6
CONTINUOUS
 62
    30
 10
-105.0
 20
-238.629761
 30
0.0
 40
6.0
  0
CIRCLE
  5
AE1
  8
SIZE
  6
CONTINUOUS
 62
    30
 10
0.0
 20
-238.629761
 30
0.0
 40
6.0
  0
LINE
  5
AE2
  8
NOTE
  6
CONTINUOUS
 62
     4
 10
105.0
 20
154.0544279999998
 30
0.0
 11
105.0
 21
194.0544279999998
 31
0.0
  0
LINE
  5
AE3
  8
NOTE
  6
CONTINUOUS
 62
     4
 10
85.0
 20
174.0544279999998
 30
0.0
 11
125.0
 21
174.0544279999998
 31
0.0
  0
LINE
  5
AE4
  8
NOTE
  6
CONTINUOUS
 62
     4
 10
-142.5
 20
154.0544279999998
 30
0.0
 11
-142.5
 21
194.0544279999998
 31
0.0
  0
LINE
  5
AE5
  8
NOTE
  6
CONTINUOUS
 62
     4
 10
-122.5
 20
174.0544279999998
 30
0.0
 11
-162.5
 21
174.0544279999998
 31
0.0
  0
LINE
  5
AE6
  8
NOTE
  6
CONTINUOUS
 62
     4
 10
-105.0
 20
154.0544279999998
 30
0.0
 11
-105.0
 21
194.0544279999998
 31
0.0
  0
LINE
  5
AE7
  8
NOTE
  6
CONTINUOUS
 62
     4
 10
-85.0
 20
174.0544279999998
 30
0.0
 11
-125.0
 21
174.0544279999998
 31
0.0
  0
LINE
  5
AE8
  8
NOTE
  6
CONTINUOUS
 62
     4
 10
142.5
 20
154.0544279999998
 30
0.0
 11
142.5
 21
194.0544279999998
 31
0.0
  0
LINE
  5
AE9
  8
NOTE
  6
CONTINUOUS
 62
     4
 10
122.5
 20
174.0544279999998
 30
0.0
 11
162.5
 21
174.0544279999998
 31
0.0
  0
LINE
  5
AEA
  8
NOTE
  6
CONTINUOUS
 62
     4
 10
-105.0
 20
146.0544279999998
 30
0.0
 11
-105.0
 21
186.0544279999998
 31
0.0
  0
LINE
  5
AEB
  8
NOTE
  6
CONTINUOUS
 62
     4
 10
-85.0
 20
166.0544279999998
 30
0.0
 11
-125.0
 21
166.0544279999998
 31
0.0
  0
LINE
  5
AEC
  8
NOTE
  6
CONTINUOUS
 62
     4
 10
-141.5
 20
-19.94557199999995
 30
0.0
 11
-141.5
 21
20.05442800000003
 31
0.0
  0
LINE
  5
AED
  8
NOTE
  6
CONTINUOUS
 62
     4
 10
-161.5
 20
0.054427999999973
 30
0.0
 11
-121.5
 21
0.054427999999973
 31
0.0
  0
LINE
  5
AEE
  8
NOTE
  6
CONTINUOUS
 62
     4
 10
-85.0
 20
-19.94557199999995
 30
0.0
 11
-85.0
 21
20.05442800000003
 31
0.0
  0
LINE
  5
AEF
  8
NOTE
  6
CONTINUOUS
 62
     4
 10
-105.0
 20
0.054427999999973
 30
0.0
 11
-65.0
 21
0.054427999999973
 31
0.0
  0
LINE
  5
AF0
  8
NOTE
  6
CONTINUOUS
 62
     4
 10
85.0
 20
-19.94557199999995
 30
0.0
 11
85.0
 21
20.05442800000003
 31
0.0
  0
LINE
  5
AF1
  8
NOTE
  6
CONTINUOUS
 62
     4
 10
65.0
 20
0.054427999999973
 30
0.0
 11
105.0
 21
0.054427999999973
 31
0.0
  0
LINE
  5
AF2
  8
NOTE
  6
CONTINUOUS
 62
     4
 10
141.5
 20
-19.94557199999995
 30
0.0
 11
141.5
 21
20.05442800000003
 31
0.0
  0
LINE
  5
AF3
  8
NOTE
  6
CONTINUOUS
 62
     4
 10
121.5
 20
0.054427999999973
 30
0.0
 11
161.5
 21
0.054427999999973
 31
0.0
  0
LINE
  5
AF8
  8
DETAIL
  6
CONTINUOUS
 62
     5
 10
-122.5
 20
180.0
 30
0.0
 11
-125.5
 21
180.0
 31
0.0
  0
LINE
  5
AF9
  8
DETAIL
  6
CONTINUOUS
 62
     5
 10
92.0
 20
179.9999999999995
 30
0.0
 11
-92.0
 21
179.9999999999995
 31
0.0
  0
LINE
  5
AFA
  8
DETAIL
  6
CONTINUOUS
 62
     5
 10
122.5
 20
180.0
 30
0.0
 11
125.5
 21
180.0
 31
0.0
  0
LINE
  5
AFB
  8
DETAIL
  6
CONTINUOUS
 62
     5
 10
-92.0
 20
180.0
 30
0.0
 11
-92.0
 21
173.9999999999998
 31
0.0
  0
LINE
  5
AFC
  8
DETAIL
  6
CONTINUOUS
 62
     5
 10
92.0
 20
180.0
 30
0.0
 11
92.0
 21
173.9999999999998
 31
0.0
  0
LINE
  5
AFD
  8
OUTLINE
  6
CONTINUOUS
 62
     3
 10
92.0
 20
180.0544279999998
 30
0.0
 11
-92.0
 21
180.0544279999998
 31
0.0
  0
LINE
  5
AFE
  8
OUTLINE
  6
CONTINUOUS
 62
     3
 10
-92.0
 20
180.0544279999998
 30
0.0
 11
-92.0
 21
166.0544279999998
 31
0.0
  0
LINE
  5
AFF
  8
OUTLINE
  6
CONTINUOUS
 62
     3
 10
92.0
 20
180.0544279999998
 30
0.0
 11
92.0
 21
166.0544279999998
 31
0.0
  0
LINE
  5
B00
  8
DETAIL
  6
CONTINUOUS
 62
     5
 10
-65.0
 20
179.3583979900026
 30
0.0
 11
-65.0
 21
194.3999859999999
 31
0.0
  0
LINE
  5
B01
  8
DETAIL
  6
CONTINUOUS
 62
     5
 10
17.0
 20
179.3583979900026
 30
0.0
 11
17.0
 21
194.3999859999999
 31
0.0
  0
ARC
  5
B02
  8
DETAIL
  6
CONTINUOUS
 62
     5
 10
-60.0
 20
194.3999859999999
 30
0.0
 40
5.0
 50
90.0
 51
180.0
  0
ARC
  5
B03
  8
DETAIL
  6
CONTINUOUS
 62
     5
 10
12.0
 20
194.3999859999999
 30
0.0
 40
5.0
 50
0.0
 51
90.0
  0
LINE
  5
B04
  8
SIZE
  6
CONTINUOUS
 62
    30
 10
-92.0
 20
200.0
 30
0.0
 11
-91.99999999999999
 21
561.6459957085092
 31
0.0
  0
LINE
  5
B05
  8
SIZE
  6
CONTINUOUS
 62
    30
 10
0.0000000000000012
 20
241.9619619999999
 30
0.0
 11
0.0000000000000208
 21
561.6459957085092
 31
0.0
  0
LINE
  5
B06
  8
SIZE
  6
CONTINUOUS
 62
    30
 10
-11.99999999999998
 20
531.6459957085092
 30
0.0
 11
-79.99999999999999
 21
531.6459957085092
 31
0.0
  0
LINE
  5
B07
  8
SIZE
  6
CONTINUOUS
 62
    30
 10
-91.99999999999999
 20
531.6459957085092
 30
0.0
 11
-282.5018215999879
 21
531.6459957085092
 31
0.0
  0
TEXT
  5
B0A
  8
SIZE
  6
CONTINUOUS
 62
    30
 10
-262.5018215999879
 20
551.6459957085092
 30
0.0
 40
64.0
  1
92
 41
0.9
  0
LINE
  5
B0B
  8
SIZE
  6
CONTINUOUS
 62
    30
 10
-65.0
 20
214.3999859999999
 30
0.0
 11
-64.99999999999999
 21
456.8604936288978
 31
0.0
  0
LINE
  5
B0C
  8
SIZE
  6
CONTINUOUS
 62
    30
 10
17.0
 20
214.399986
 30
0.0
 11
17.00000000000001
 21
456.8604936288978
 31
0.0
  0
LINE
  5
B0D
  8
SIZE
  6
CONTINUOUS
 62
    30
 10
5.000000000000014
 20
426.8604936288978
 30
0.0
 11
-52.99999999999998
 21
426.8604936288978
 31
0.0
  0
LINE
  5
B0E
  8
SIZE
  6
CONTINUOUS
 62
    30
 10
-64.99999999999999
 20
426.8604936288978
 30
0.0
 11
-322.9850142201848
 21
426.8604936288978
 31
0.0
  0
TEXT
  5
B11
  8
SIZE
  6
CONTINUOUS
 62
    30
 10
-302.9850142201848
 20
446.8604936288977
 30
0.0
 40
64.0
  1
%%c82
 41
0.9
  0
LINE
  5
B12
  8
SIZE
  6
CONTINUOUS
 62
    30
 10
-112.0
 20
180.0
 30
0.0
 11
-639.2759813308392
 21
180.0
 31
0.0
  0
LINE
  5
B13
  8
SIZE
  6
CONTINUOUS
 62
    30
 10
-185.000007
 20
0.0000000000000057
 30
0.0
 11
-639.2759813308392
 21
0.0000000000001344
 31
0.0
  0
LINE
  5
B14
  8
SIZE
  6
CONTINUOUS
 62
    30
 10
-609.2759813308394
 20
168.0000000000001
 30
0.0
 11
-609.2759813308394
 21
12.00000000000011
 31
0.0
  0
TEXT
  5
B17
  8
SIZE
  6
CONTINUOUS
 62
    30
 10
-629.2759813308394
 20
21.42857142857148
 30
0.0
 40
64.0
  1
180
 50
90.0
 41
0.9
  0
ARC
  5
B18
  8
DETAIL
  6
CONTINUOUS
 62
     5
 10
-160.6531314213121
 20
-8.553881335530326
 30
0.0
 40
4.3468685786884
 50
179.9999692285954
 51
234.4804047329644
  0
ARC
  5
B19
  8
DETAIL
  6
CONTINUOUS
 62
     5
 10
-143.85271285375
 20
14.98232634828118
 30
0.0
 40
33.26411492374198
 50
234.4803248995992
 51
253.5286705122074
  0
ARC
  5
B1A
  8
DETAIL
  6
CONTINUOUS
 62
     5
 10
-132.5220951578414
 20
53.30392730153911
 30
0.0
 40
73.22569643633464
 50
253.5285971813862
 51
263.0177691889361
  0
ARC
  5
B1B
  8
DETAIL
  6
CONTINUOUS
 62
     5
 10
-125.0001446984815
 20
114.7216893356997
 30
0.0
 40
135.1023578846433
 50
263.0177138406474
 51
265.6978882188735
  0
LINE
  5
B1C
  8
NOTE
  6
CONTINUOUS
 62
     4
 10
-118.9408599999999
 20
129.0623969999997
 30
0.0
 11
-105.0
 21
166.5544279999998
 31
0.0
  0
LINE
  5
B1D
  8
NOTE
  6
CONTINUOUS
 62
     4
 10
-105.0
 20
166.5544279999998
 30
0.0
 11
-135.8191549999999
 21
141.0558069999999
 31
0.0
  0
LINE
  5
B1E
  8
NOTE
  6
CONTINUOUS
 62
     4
 10
178.984085
 20
-13.90778499999998
 30
0.0
 11
141.5
 21
0.054427999999973
 31
0.0
  0
LINE
  5
B1F
  8
NOTE
  6
CONTINUOUS
 62
     4
 10
141.5
 20
0.054427999999973
 30
0.0
 11
166.9810629999998
 21
-30.779245
 31
0.0
  0
ARC
  5
B20
  8
DETAIL
  6
CONTINUOUS
 62
     5
 10
160.6531314213121
 20
-8.553881335530326
 30
0.0
 40
4.3468685786884
 50
305.5195952670356
 51
0.000030771404604
  0
ARC
  5
B21
  8
DETAIL
  6
CONTINUOUS
 62
     5
 10
143.85271285375
 20
14.98232634828118
 30
0.0
 40
33.26411492374198
 50
286.4713294877921
 51
305.5196751004007
  0
ARC
  5
B22
  8
DETAIL
  6
CONTINUOUS
 62
     5
 10
132.5220951578414
 20
53.30392730153911
 30
0.0
 40
73.22569643633464
 50
276.9822308110639
 51
286.4714028186138
  0
ARC
  5
B23
  8
DETAIL
  6
CONTINUOUS
 62
     5
 10
125.0001446984815
 20
114.7216893356997
 30
0.0
 40
135.1023578846433
 50
274.3021117811264
 51
276.9822861593524
  0
LINE
  5
B24
  8
NOTE
  6
CONTINUOUS
 62
     4
 10
174.7997149999998
 20
197.6495219999999
 30
0.0
 11
142.5
 21
174.0544279999998
 31
0.0
  0
LINE
  5
B25
  8
NOTE
  6
CONTINUOUS
 62
     4
 10
142.5
 20
174.0544279999998
 30
0.0
 11
158.674827
 21
210.6382359999997
 31
0.0
  0
LINE
  5
B26
  8
OUTLINE
  6
CONTINUOUS
 62
     3
 10
92.0
 20
166.0544279999998
 30
0.0
 11
125.5
 21
166.0
 31
0.0
  0
LINE
  5
B27
  8
OUTLINE
  6
CONTINUOUS
 62
     3
 10
-164.9999999999998
 20
0.0
 30
0.0
 11
165.0
 21
0.0
 31
0.0
  0
TEXT
  5
B44
  8
ETC
  6
CONTINUOUS
 62
    61
 10
1318.274457982771
 20
898.3175631136264
 30
0.0
 40
64.0
  1
VD-13ZF7_3
 41
0.9
  0
TEXT
  5
B45
  8
ETC
  6
CONTINUOUS
 62
    61
 10
1471.311286429318
 20
598.835858872649
 30
0.0
 40
50.0
  1
VD-13ZF7-BL
 41
0.9
  0
TEXT
  5
B46
  8
ETC
  6
CONTINUOUS
 62
    61
 10
1471.311286429318
 20
395.7149256515607
 30
0.0
 40
50.0
  1
VD-15ZF7-BL
 41
0.9
  0
TEXT
  5
B47
  8
ETC
  6
CONTINUOUS
 62
    61
 10
1469.194626238483
 20
492.4391795663644
 30
0.0
 40
50.0
  1
VD-15ZF7
 41
0.9
  0
TEXT
  5
B48
  8
ETC
  6
CONTINUOUS
 62
    61
 10
1317.569582982772
 20
795.1685631136253
 30
0.0
 40
64.0
  1
換気扇
 41
0.9
  0
TEXT
  5
B49
  8
ETC
  6
CONTINUOUS
 62
    61
 10
1469.194626238483
 20
695.5601127874528
 30
0.0
 40
50.0
  1
VD-13ZF7
 41
0.9
  0
CIRCLE
  5
B4A
  8
SIZE
  6
BYBLOCK
 62
    30
 10
0.000000000000019
 20
531.6459957085092
 30
0.0
 40
6.0
  0
LINE
  5
B4B
  8
SIZE
  6
BYBLOCK
 62
    30
 10
0.000000000000019
 20
531.6459957085092
 30
0.0
 11
-11.99999999999998
 21
531.6459957085092
 31
0.0
  0
CIRCLE
  5
B4C
  8
SIZE
  6
BYBLOCK
 62
    30
 10
-609.2759813308394
 20
0.0000000000001259
 30
0.0
 40
6.0
  0
LINE
  5
B4D
  8
SIZE
  6
BYBLOCK
 62
    30
 10
-609.2759813308394
 20
0.0000000000001259
 30
0.0
 11
-609.2759813308394
 21
12.00000000000012
 31
0.0
  0
CIRCLE
  5
B4E
  8
SIZE
  6
BYBLOCK
 62
    30
 10
-609.2759813308394
 20
180.0
 30
0.0
 40
6.0
  0
LINE
  5
B4F
  8
SIZE
  6
BYBLOCK
 62
    30
 10
-609.2759813308394
 20
180.0
 30
0.0
 11
-609.2759813308394
 21
168.0
 31
0.0
  0
CIRCLE
  5
B50
  8
SIZE
  6
BYBLOCK
 62
    30
 10
-64.99999999999999
 20
426.8604936288978
 30
0.0
 40
6.0
  0
LINE
  5
B51
  8
SIZE
  6
BYBLOCK
 62
    30
 10
-64.99999999999999
 20
426.8604936288978
 30
0.0
 11
-52.99999999999998
 21
426.8604936288978
 31
0.0
  0
CIRCLE
  5
B52
  8
SIZE
  6
BYBLOCK
 62
    30
 10
-91.99999999999999
 20
531.6459957085092
 30
0.0
 40
6.0
  0
LINE
  5
B53
  8
SIZE
  6
BYBLOCK
 62
    30
 10
-91.99999999999999
 20
531.6459957085092
 30
0.0
 11
-79.99999999999999
 21
531.6459957085092
 31
0.0
  0
CIRCLE
  5
B54
  8
SIZE
  6
BYBLOCK
 62
    30
 10
17.00000000000001
 20
426.8604936288978
 30
0.0
 40
6.0
  0
LINE
  5
B55
  8
SIZE
  6
BYBLOCK
 62
    30
 10
17.00000000000001
 20
426.8604936288978
 30
0.0
 11
5.00000000000001
 21
426.8604936288978
 31
0.0
  0
ENDSEC
  0
EOF
