  0
SECTION
  2
HEADER
  9
$ACADVER
  1
AC1009
  9
$INSBASE
 10
0.0
 20
0.0
 30
0.0
  9
$EXTMIN
 10
-1076.23603
 20
-715.13707099999999
 30
0.0
  9
$EXTMAX
 10
2119.772939638699
 20
1179.9958981553721
 30
0.0
  9
$LIMMIN
 10
-2970.0
 20
-2100.0
  9
$LIMMAX
 10
2970.0
 20
2100.0
  9
$ORTHOMODE
 70
     0
  9
$REGENMODE
 70
     1
  9
$FILLMODE
 70
     1
  9
$QTEXTMODE
 70
     0
  9
$MIRRTEXT
 70
     0
  9
$DRAGMODE
 70
     2
  9
$LTSCALE
 40
20.0
  9
$OSMODE
 70
    37
  9
$ATTMODE
 70
     1
  9
$TEXTSIZE
 40
64.0
  9
$TRACEWID
 40
0.05
  9
$TEXTSTYLE
  7
STANDARD
  9
$CLAYER
  8
SIZE
  9
$CELTYPE
  6
CONTINUOUS
  9
$CECOLOR
 62
    30
  9
$DIMSCALE
 40
0.0
  9
$DIMASZ
 40
12.0
  9
$DIMEXO
 40
20.0
  9
$DIMDLI
 40
200.0
  9
$DIMRND
 40
0.0
  9
$DIMDLE
 40
0.0
  9
$DIMEXE
 40
30.0
  9
$DIMTP
 40
0.0
  9
$DIMTM
 40
0.0
  9
$DIMTXT
 40
64.0
  9
$DIMCEN
 40
0.09
  9
$DIMTSZ
 40
0.0
  9
$DIMTOL
 70
     0
  9
$DIMLIM
 70
     0
  9
$DIMTIH
 70
     0
  9
$DIMTOH
 70
     0
  9
$DIMSE1
 70
     0
  9
$DIMSE2
 70
     0
  9
$DIMTAD
 70
     1
  9
$DIMZIN
 70
     8
  9
$DIMBLK
  1

  9
$DIMASO
 70
     1
  9
$DIMSHO
 70
     0
  9
$DIMPOST
  1

  9
$DIMAPOST
  1

  9
$DIMALT
 70
     0
  9
$DIMALTD
 70
     2
  9
$DIMALTF
 40
25.399999999999999
  9
$DIMLFAC
 40
1.0
  9
$DIMTOFL
 70
     1
  9
$DIMTVP
 40
0.0
  9
$DIMTIX
 70
     0
  9
$DIMSOXD
 70
     0
  9
$DIMSAH
 70
     1
  9
$DIMBLK1
  1
ORIGIN
  9
$DIMBLK2
  1
ORIGIN
  9
$DIMSTYLE
  2
STANDARD
  9
$DIMCLRD
 70
     0
  9
$DIMCLRE
 70
     0
  9
$DIMCLRT
 70
     0
  9
$DIMTFAC
 40
1.0
  9
$DIMGAP
 40
20.0
  9
$LUNITS
 70
     2
  9
$LUPREC
 70
     4
  9
$SKETCHINC
 40
0.1
  9
$FILLETRAD
 40
5.0
  9
$AUNITS
 70
     1
  9
$AUPREC
 70
     3
  9
$MENU
  1
ACAD
  9
$ELEVATION
 40
0.0
  9
$PELEVATION
 40
0.0
  9
$THICKNESS
 40
0.0
  9
$LIMCHECK
 70
     0
  9
$BLIPMODE
 70
     0
  9
$CHAMFERA
 40
0.0
  9
$CHAMFERB
 40
0.0
  9
$SKPOLY
 70
     0
  9
$TDCREATE
 40
2451367.691793981
  9
$TDUPDATE
 40
2454155.6442509368
  9
$TDINDWG
 40
0.0594153356
  9
$TDUSRTIMER
 40
0.059415162
  9
$USRTIMER
 70
     1
  9
$ANGBASE
 50
0.0
  9
$ANGDIR
 70
     0
  9
$PDMODE
 70
     3
  9
$PDSIZE
 40
-2.0
  9
$PLINEWID
 40
0.0
  9
$COORDS
 70
     0
  9
$SPLFRAME
 70
     0
  9
$SPLINETYPE
 70
     6
  9
$SPLINESEGS
 70
     8
  9
$ATTDIA
 70
     0
  9
$ATTREQ
 70
     1
  9
$HANDLING
 70
 22529
  9
$HANDSEED
  5
1137
  9
$SURFTAB1
 70
     6
  9
$SURFTAB2
 70
     6
  9
$SURFTYPE
 70
     6
  9
$SURFU
 70
     6
  9
$SURFV
 70
     6
  9
$UCSNAME
  2

  9
$UCSORG
 10
0.0
 20
0.0
 30
0.0
  9
$UCSXDIR
 10
1.0
 20
0.0
 30
0.0
  9
$UCSYDIR
 10
0.0
 20
1.0
 30
0.0
  9
$PUCSNAME
  2

  9
$PUCSORG
 10
0.0
 20
0.0
 30
0.0
  9
$PUCSXDIR
 10
1.0
 20
0.0
 30
0.0
  9
$PUCSYDIR
 10
0.0
 20
1.0
 30
0.0
  9
$USERI1
 70
     0
  9
$USERI2
 70
     0
  9
$USERI3
 70
     0
  9
$USERI4
 70
     0
  9
$USERI5
 70
     0
  9
$USERR1
 40
20.0
  9
$USERR2
 40
0.0
  9
$USERR3
 40
0.0
  9
$USERR4
 40
0.0
  9
$USERR5
 40
0.0
  9
$WORLDVIEW
 70
     1
  9
$SHADEDGE
 70
     3
  9
$SHADEDIF
 70
    70
  9
$TILEMODE
 70
     1
  9
$MAXACTVP
 70
    48
  9
$PLIMCHECK
 70
     0
  9
$PEXTMIN
 10
1.0000000000000000E+020
 20
1.0000000000000000E+020
 30
1.0000000000000000E+020
  9
$PEXTMAX
 10
-1.0000000000000000E+020
 20
-1.0000000000000000E+020
 30
-1.0000000000000000E+020
  9
$PLIMMIN
 10
0.0
 20
0.0
  9
$PLIMMAX
 10
12.0
 20
9.0
  9
$UNITMODE
 70
     0
  9
$VISRETAIN
 70
     1
  9
$PLINEGEN
 70
     0
  9
$PSLTSCALE
 70
     1
  0
ENDSEC
  0
SECTION
  2
TABLES
  0
TABLE
  2
VPORT
 70
     3
  0
VPORT
  2
*ACTIVE
 70
     0
 10
0.0
 20
0.0
 11
1.0
 21
1.0
 12
515.12631626940265
 22
232.43072984241741
 13
0.0
 23
0.0
 14
50.0
 24
50.0
 15
400.0
 25
400.0
 16
0.0
 26
0.0
 36
1.0
 17
0.0
 27
0.0
 37
0.0
 40
2027.196580514214
 41
1.710526315789473
 42
50.0
 43
0.0
 44
0.0
 50
0.0
 51
0.0
 71
     0
 72
   500
 73
     1
 74
     0
 75
     0
 76
     0
 77
     0
 78
     2
  0
ENDTAB
  0
TABLE
  2
LTYPE
 70
     8
  0
LTYPE
  2
CONTINUOUS
 70
     0
  3
Ä└É³
 72
    65
 73
     0
 40
0.0
  0
LTYPE
  2
DASHDOT
 70
     0
  3
____ _ ____ _ ____ _ ____ _ ____ _ ____ _ ____
 72
    65
 73
     4
 40
5.5
 49
4.0
 49
-0.6
 49
0.3
 49
-0.6
  0
LTYPE
  2
DASHED
 70
     0
  3
_ _ _ _ _ _ _ _ _ _ _ _ _ _ _ _ _ _ _ _ _ _ _
 72
    65
 73
     2
 40
2.0
 49
1.1999999999999991
 49
-0.8
  0
LTYPE
  2
DOT
 70
     0
  3
...............................................
 72
    65
 73
     2
 40
0.8
 49
0.5
 49
-0.3
  0
LTYPE
  2
DASHDOT1
 70
     0
  3
____ _ ____ _ ____ _ ____ _ ____ _ ____ _ ____
 72
    65
 73
     4
 40
2.0
 49
1.5
 49
-0.2
 49
0.1
 49
-0.2
  0
LTYPE
  2
DIVIDE
 70
     0
  3
_____ _ _ _____ _ _ _____ _ _ _____ _ _ ____
 72
    65
 73
     6
 40
6.4000000000000004
 49
4.0
 49
-0.6
 49
0.3
 49
-0.6
 49
0.3
 49
-0.6
  0
LTYPE
  2
DIVIDE1
 70
     0
  3
_____ _ _ _____ _ _ _____ _ _ _____ _ _ ____
 72
    65
 73
     6
 40
3.2000000000000002
 49
2.0
 49
-0.3
 49
0.15
 49
-0.3
 49
0.15
 49
-0.3
  0
LTYPE
  2
DASHED2
 70
     0
  3
Dashed (.5x) _ _ _ _ _ _ _ _ _ _ _ _ _ _ _ _ _
 72
    65
 73
     2
 40
0.375
 49
0.25
 49
-0.125
  0
ENDTAB
  0
TABLE
  2
LAYER
 70
    12
  0
LAYER
  2
0
 70
     0
 62
     7
  6
CONTINUOUS
  0
LAYER
  2
SIZE
 70
     0
 62
    30
  6
CONTINUOUS
  0
LAYER
  2
OUTLINE
 70
     0
 62
     3
  6
CONTINUOUS
  0
LAYER
  2
DETAIL
 70
     0
 62
     5
  6
CONTINUOUS
  0
LAYER
  2
BASIS
 70
     0
 62
     6
  6
DASHDOT
  0
LAYER
  2
NOTE
 70
     0
 62
     4
  6
CONTINUOUS
  0
LAYER
  2
DEFPOINTS
 70
     0
 62
     7
  6
CONTINUOUS
  0
LAYER
  2
FIX
 70
     0
 62
    11
  6
CONTINUOUS
  0
LAYER
  2
ARRANGE
 70
     0
 62
     1
  6
CONTINUOUS
  0
LAYER
  2
ETC
 70
     0
 62
    61
  6
CONTINUOUS
  0
LAYER
  2
SERVICESPACE
 70
     0
 62
     2
  6
DASHDOT
  0
LAYER
  2
SYMBOLLINE
 70
     0
 62
    15
  6
CONTINUOUS
  0
ENDTAB
  0
TABLE
  2
STYLE
 70
     1
  0
STYLE
  2
STANDARD
 70
     0
 40
0.0
 41
0.9
 50
0.0
 71
     0
 42
64.0
  3
SIMPLEX
  4
BIGFONT
  0
ENDTAB
  0
TABLE
  2
VIEW
 70
     1
  0
VIEW
  2
ALL
 70
     0
 40
4282.6198079999967
 10
0.0
 20
41.309903999999989
 41
5940.0
 11
0.0
 21
0.0
 31
1.0
 12
0.0
 22
0.0
 32
0.0
 42
50.0
 43
0.0
 44
0.0
 50
0.0
 71
     0
  0
ENDTAB
  0
TABLE
  2
UCS
 70
     0
  0
ENDTAB
  0
TABLE
  2
APPID
 70
     1
  0
APPID
  2
ACAD
 70
     0
  0
ENDTAB
  0
TABLE
  2
DIMSTYLE
 70
     2
  0
DIMSTYLE
  2
STANDARD
 70
     0
  3

  4

  5

  6

  7

 40
1.0
 41
0.18
 42
0.0625
 43
0.38
 44
0.18
 45
0.0
 46
0.0
 47
0.0
 48
0.0
140
0.18
141
0.09
142
0.0
143
25.399999999999999
144
1.0
145
0.0
146
1.0
147
0.09
 71
     0
 72
     0
 73
     1
 74
     1
 75
     0
 76
     0
 77
     0
 78
     0
170
     0
171
     2
172
     0
173
     0
174
     0
175
     0
176
     0
177
     0
178
     0
  0
DIMSTYLE
  2
ISO-25
 70
     0
  3

  4

  5

  6

  7

 40
1.0
 41
2.5
 42
0.625
 43
3.75
 44
1.25
 45
0.0
 46
0.0
 47
0.0
 48
0.0
140
2.5
141
2.5
142
0.0
143
0.03937007874016
144
1.0
145
0.0
146
1.0
147
0.625
 71
     0
 72
     0
 73
     0
 74
     0
 75
     0
 76
     0
 77
     1
 78
     8
170
     0
171
     3
172
     1
173
     0
174
     0
175
     0
176
     0
177
     0
178
     0
  0
ENDTAB
  0
ENDSEC
  0
SECTION
  2
BLOCKS
  0
BLOCK
  8
0
  2
$MODEL_SPACE
 70
     0
 10
0.0
 20
0.0
 30
0.0
  3
$MODEL_SPACE
  1

  0
ENDBLK
  5
CF7
  8
0
  0
BLOCK
 67
     1
  8
0
  2
$PAPER_SPACE
 70
     0
 10
0.0
 20
0.0
 30
0.0
  3
$PAPER_SPACE
  1

  0
ENDBLK
  5
CF3
 67
     1
  8
0
  0
BLOCK
  8
0
 62
     8
  2
_SMALL
 70
     0
 10
0.0
 20
0.0
 30
0.0
  3
_SMALL
  1

  0
CIRCLE
  5
D17
  8
0
  6
BYBLOCK
 62
     0
 10
0.0
 20
0.0
 30
0.0
 40
0.25
  0
ENDBLK
  5
D18
  8
0
 62
     8
  0
BLOCK
  8
0
 62
     8
  2
_OPEN30
 70
     0
 10
0.0
 20
0.0
 30
0.0
  3
_OPEN30
  1

  0
LINE
  5
D1B
  8
0
  6
BYBLOCK
 62
     0
 10
-1.0
 20
0.26794919
 30
0.0
 11
0.0
 21
0.0
 31
0.0
  0
LINE
  5
D1C
  8
0
  6
BYBLOCK
 62
     0
 10
0.0
 20
0.0
 30
0.0
 11
-1.0
 21
-0.26794919
 31
0.0
  0
LINE
  5
D1D
  8
0
  6
BYBLOCK
 62
     0
 10
0.0
 20
0.0
 30
0.0
 11
-1.0
 21
0.0
 31
0.0
  0
ENDBLK
  5
D1E
  8
0
 62
     8
  0
BLOCK
  8
0
  2
_ORIGIN
 70
     0
 10
0.0
 20
0.0
 30
0.0
  3
_ORIGIN
  1

  0
CIRCLE
  5
DA3
  8
0
  6
BYBLOCK
 62
     0
 10
0.0
 20
0.0
 30
0.0
 40
0.5
  0
LINE
  5
DA4
  8
0
  6
BYBLOCK
 62
     0
 10
0.0
 20
0.0
 30
0.0
 11
-1.0
 21
0.0
 31
0.0
  0
ENDBLK
  5
DA5
  8
0
  0
BLOCK
  8
0
 62
    30
  2
_NONE
 70
     0
 10
0.0
 20
0.0
 30
0.0
  3
_NONE
  1

  0
ENDBLK
  5
DB6
  8
0
 62
    30
  0
BLOCK
  8
0
  2
DOT1
 70
     0
 10
0.0
 20
0.0
 30
0.0
  3
DOT1
  1

  0
CIRCLE
  5
E24
  8
SIZE
  6
CONTINUOUS
 62
     7
 10
0.0
 20
0.0
 30
0.0
 40
3.0
  0
ENDBLK
  5
E25
  8
0
  0
ENDSEC
  0
SECTION
  2
ENTITIES
  0
LINE
  5
E26
  8
BASIS
  6
DASHDOT
 62
     6
 10
-12.0
 20
213.7921979999999
 30
0.0
 11
-12.0
 21
149.9034879999999
 31
0.0
  0
LINE
  5
E27
  8
DETAIL
  6
CONTINUOUS
 62
     5
 10
-42.63747
 20
199.4544139999999
 30
0.0
 11
-41.468961999999991
 21
201.47831599999989
 31
0.0
  0
LINE
  5
E28
  8
DETAIL
  6
CONTINUOUS
 62
     5
 10
-48.0
 20
199.4544139999999
 30
0.0
 11
-12.0
 21
199.4544139999999
 31
0.0
  0
LINE
  5
E29
  8
DETAIL
  6
CONTINUOUS
 62
     5
 10
-12.0
 20
201.47832999999989
 30
0.0
 11
-41.468952999999992
 21
201.47832999999989
 31
0.0
  0
LINE
  5
E2A
  8
DETAIL
  6
CONTINUOUS
 62
     5
 10
-18.672234
 20
202.48349999999991
 30
0.0
 11
-18.820820999999992
 21
201.47832999999989
 31
0.0
  0
LINE
  5
E2B
  8
DETAIL
  6
CONTINUOUS
 62
     5
 10
-16.852011999999991
 20
204.054428
 30
0.0
 11
-12.0
 21
204.054428
 31
0.0
  0
ARC
  5
E2C
  8
DETAIL
  6
CONTINUOUS
 62
     5
 10
-16.852011999999991
 20
202.21441399999989
 30
0.0
 40
1.8400009999999991
 50
90.0
 51
171.59088899999981
  0
ARC
  5
E2D
  8
DETAIL
  6
CONTINUOUS
 62
     5
 10
-7.147987999999998
 20
202.21441399999989
 30
0.0
 40
1.8400009999999991
 50
8.4091109999999976
 51
90.0
  0
LINE
  5
E2E
  8
DETAIL
  6
CONTINUOUS
 62
     5
 10
-7.147987999999998
 20
204.054428
 30
0.0
 11
-12.0
 21
204.054428
 31
0.0
  0
LINE
  5
E2F
  8
DETAIL
  6
CONTINUOUS
 62
     5
 10
-5.3277659999999987
 20
202.48349999999991
 30
0.0
 11
-5.1791790000000004
 21
201.47832999999989
 31
0.0
  0
LINE
  5
E30
  8
DETAIL
  6
CONTINUOUS
 62
     5
 10
-12.0
 20
201.47832999999989
 30
0.0
 11
10.08
 21
201.47832999999989
 31
0.0
  0
LINE
  5
E31
  8
DETAIL
  6
CONTINUOUS
 62
     5
 10
10.08
 20
199.4544139999999
 30
0.0
 11
-12.0
 21
199.4544139999999
 31
0.0
  0
LINE
  5
E32
  8
DETAIL
  6
CONTINUOUS
 62
     5
 10
23.999999999999989
 20
199.4544139999999
 30
0.0
 11
-12.0
 21
199.4544139999999
 31
0.0
  0
LINE
  5
E33
  8
DETAIL
  6
CONTINUOUS
 62
     5
 10
-12.0
 20
201.47832999999989
 30
0.0
 11
17.468952999999999
 21
201.47832999999989
 31
0.0
  0
LINE
  5
E34
  8
DETAIL
  6
CONTINUOUS
 62
     5
 10
18.63747
 20
199.4544139999999
 30
0.0
 11
17.468962000000001
 21
201.47831599999989
 31
0.0
  0
CIRCLE
  5
E35
  8
FIX
  6
CONTINUOUS
 62
    11
 10
-141.5
 20
0.054428
 30
0.0
 40
2.5
  0
CIRCLE
  5
E36
  8
FIX
  6
CONTINUOUS
 62
    11
 10
85.0
 20
0.0
 30
0.0
 40
2.5
  0
CIRCLE
  5
E37
  8
FIX
  6
CONTINUOUS
 62
    11
 10
85.0
 20
0.054428
 30
0.0
 40
2.5
  0
CIRCLE
  5
E38
  8
FIX
  6
CONTINUOUS
 62
    11
 10
141.5
 20
0.054428
 30
0.0
 40
2.5
  0
LINE
  5
E39
  8
DETAIL
  6
CONTINUOUS
 62
     5
 10
-159.4999999999996
 20
174.0544279999998
 30
0.0
 11
-159.4999999999996
 21
170.5544279999998
 31
0.0
  0
LINE
  5
E3A
  8
DETAIL
  6
CONTINUOUS
 62
     5
 10
87.5
 20
170.5544279999998
 30
0.0
 11
122.5
 21
170.5544279999998
 31
0.0
  0
LINE
  5
E3B
  8
DETAIL
  6
CONTINUOUS
 62
     5
 10
87.5
 20
174.0544279999998
 30
0.0
 11
122.5
 21
174.0544279999998
 31
0.0
  0
LINE
  5
E3C
  8
DETAIL
  6
CONTINUOUS
 62
     5
 10
-128.4999999999998
 20
170.5544279999998
 30
0.0
 11
-159.4999999999996
 21
170.5544279999998
 31
0.0
  0
CIRCLE
  5
E3D
  8
FIX
  6
CONTINUOUS
 62
    11
 10
142.5
 20
174.0544279999998
 30
0.0
 40
7.5
  0
TEXT
  5
E3E
  8
NOTE
  6
CONTINUOUS
 62
     4
 10
326.983474
 20
-107.522277
 30
0.0
 40
64.0
  1
EL
 41
0.9
  0
LINE
  5
E3F
  8
NOTE
  6
CONTINUOUS
 62
     4
 10
303.353812
 20
-131.7740399999999
 30
0.0
 11
422.15922399999988
 21
-131.7740399999999
 31
0.0
  0
LINE
  5
E40
  8
SIZE
  6
CONTINUOUS
 62
    30
 10
102.0
 20
-258.53873599999991
 30
0.0
 11
358.893441
 21
-258.53873599999991
 31
0.0
  0
LINE
  5
E41
  8
NOTE
  6
CONTINUOUS
 62
     4
 10
-141.5
 20
0.054428
 30
0.0
 11
-280.69977299999982
 21
-325.68324200000001
 31
0.0
  0
POINT
  5
E42
  8
ARRANGE
  6
CONTINUOUS
 62
     1
 10
0.0
 20
0.0
 30
0.0
  0
CIRCLE
  5
E43
  8
ARRANGE
  6
CONTINUOUS
 62
     1
 10
0.0
 20
0.0
 30
0.0
 40
40.0
  0
LINE
  5
E44
  8
SIZE
  6
CONTINUOUS
 62
    30
 10
-980.23603000000003
 20
-19.945571999999999
 30
0.0
 11
-980.23603000000003
 21
-155.417025
 31
0.0
  0
CIRCLE
  5
E45
  8
FIX
  6
CONTINUOUS
 62
    11
 10
-142.5
 20
174.0544279999998
 30
0.0
 40
7.5
  0
LINE
  5
E46
  8
DETAIL
  6
CONTINUOUS
 62
     5
 10
128.4999999999998
 20
170.5544279999998
 30
0.0
 11
159.4999999999996
 21
170.5544279999998
 31
0.0
  0
LINE
  5
E47
  8
DETAIL
  6
CONTINUOUS
 62
     5
 10
159.4999999999996
 20
174.0544279999998
 30
0.0
 11
159.4999999999996
 21
170.5544279999998
 31
0.0
  0
LINE
  5
E48
  8
DETAIL
  6
CONTINUOUS
 62
     5
 10
-135.1349129999997
 20
-19.945571999999999
 30
0.0
 11
135.1349129999997
 21
-19.945571999999999
 31
0.0
  0
LINE
  5
E49
  8
DETAIL
  6
CONTINUOUS
 62
     5
 10
165.0
 20
-8.4994510000000005
 30
0.0
 11
165.0
 21
0.054428
 31
0.0
  0
LINE
  5
E4A
  8
DETAIL
  6
CONTINUOUS
 62
     5
 10
-165.0
 20
-8.4994510000000005
 30
0.0
 11
-165.0
 21
0.054428
 31
0.0
  0
LINE
  5
E4B
  8
DETAIL
  6
CONTINUOUS
 62
     5
 10
-165.0
 20
-5.9455720000000003
 30
0.0
 11
-126.5
 21
-5.9455720000000003
 31
0.0
  0
LINE
  5
E4C
  8
DETAIL
  6
CONTINUOUS
 62
     5
 10
126.5
 20
-19.945571999999999
 30
0.0
 11
126.5
 21
0.054428
 31
0.0
  0
LINE
  5
E4D
  8
DETAIL
  6
CONTINUOUS
 62
     5
 10
-126.5
 20
-19.945571999999999
 30
0.0
 11
-126.5
 21
0.054428
 31
0.0
  0
LINE
  5
E4E
  8
DETAIL
  6
CONTINUOUS
 62
     5
 10
121.5
 20
-19.945571999999999
 30
0.0
 11
121.5
 21
0.054428
 31
0.0
  0
LINE
  5
E4F
  8
DETAIL
  6
CONTINUOUS
 62
     5
 10
126.5
 20
-5.9455720000000003
 30
0.0
 11
165.0
 21
-5.9455720000000003
 31
0.0
  0
LINE
  5
E50
  8
DETAIL
  6
CONTINUOUS
 62
     5
 10
-121.5
 20
-5.9455720000000003
 30
0.0
 11
121.5
 21
-5.9455720000000003
 31
0.0
  0
LINE
  5
E51
  8
DETAIL
  6
CONTINUOUS
 62
     5
 10
-159.4999999999996
 20
174.0544279999998
 30
0.0
 11
-125.5
 21
174.0544279999998
 31
0.0
  0
CIRCLE
  5
E52
  8
FIX
  6
CONTINUOUS
 62
    11
 10
-85.0
 20
0.054428
 30
0.0
 40
2.5
  0
LINE
  5
E53
  8
DETAIL
  6
CONTINUOUS
 62
     5
 10
87.5
 20
174.0544279999998
 30
0.0
 11
87.5
 21
22.554428000000001
 31
0.0
  0
LINE
  5
E54
  8
DETAIL
  6
CONTINUOUS
 62
     5
 10
122.5
 20
174.0544279999998
 30
0.0
 11
122.5
 21
166.054428
 31
0.0
  0
LINE
  5
E55
  8
DETAIL
  6
CONTINUOUS
 62
     5
 10
-125.5
 20
174.0544279999998
 30
0.0
 11
-125.5
 21
0.054428
 31
0.0
  0
LINE
  5
E56
  8
DETAIL
  6
CONTINUOUS
 62
     5
 10
-121.5
 20
-19.945571999999999
 30
0.0
 11
-121.5
 21
0.054428
 31
0.0
  0
LINE
  5
E57
  8
DETAIL
  6
CONTINUOUS
 62
     5
 10
-128.4999999999998
 20
170.5544279999998
 30
0.0
 11
-128.4999999999998
 21
0.054428
 31
0.0
  0
LINE
  5
E58
  8
DETAIL
  6
CONTINUOUS
 62
     5
 10
125.5
 20
166.054428
 30
0.0
 11
125.5
 21
174.0544279999998
 31
0.0
  0
CIRCLE
  5
E59
  8
FIX
  6
CONTINUOUS
 62
    11
 10
105.0
 20
174.0544279999998
 30
0.0
 40
7.5
  0
LINE
  5
E5A
  8
DETAIL
  6
CONTINUOUS
 62
     5
 10
125.5
 20
174.0544279999998
 30
0.0
 11
159.4999999999996
 21
174.0544279999998
 31
0.0
  0
LINE
  5
E5B
  8
DETAIL
  6
CONTINUOUS
 62
     5
 10
125.5
 20
166.054428
 30
0.0
 11
122.5
 21
166.054428
 31
0.0
  0
LINE
  5
E5C
  8
NOTE
  6
CONTINUOUS
 62
     4
 10
-280.69977299999982
 20
-325.68324200000001
 30
0.0
 11
-714.722488
 21
-325.68324200000001
 31
0.0
  0
LINE
  5
E5D
  8
NOTE
  6
CONTINUOUS
 62
     4
 10
1566.6379999999999
 20
473.750022
 30
0.0
 11
614.02202499999964
 21
473.750022
 31
0.0
  0
LINE
  5
E5E
  8
DETAIL
  6
CONTINUOUS
 62
     5
 10
122.5
 20
119.554428
 30
0.0
 11
128.4999999999998
 21
119.554428
 31
0.0
  0
LINE
  5
E5F
  8
DETAIL
  6
CONTINUOUS
 62
     5
 10
87.5
 20
166.054428
 30
0.0
 11
-125.5
 21
166.054428
 31
0.0
  0
LINE
  5
E60
  8
DETAIL
  6
CONTINUOUS
 62
     5
 10
87.5
 20
159.054428
 30
0.0
 11
-125.5
 21
159.054428
 31
0.0
  0
LINE
  5
E61
  8
DETAIL
  6
CONTINUOUS
 62
     5
 10
29.0
 20
176.0544279999996
 30
0.0
 11
-53.0
 21
176.0544279999996
 31
0.0
  0
TEXT
  5
E62
  8
NOTE
  6
CONTINUOUS
 62
     4
 10
620.28587000000005
 20
510.80617999999993
 30
0.0
 40
64.0
  1
AH 4-âË15ü~22
 41
0.9
  0
LINE
  5
E63
  8
DETAIL
  6
CONTINUOUS
 62
     5
 10
-165.0
 20
0.054428
 30
0.0
 11
165.0
 21
0.054428
 31
0.0
  0
LINE
  5
E64
  8
BASIS
  6
DASHDOT
 62
     6
 10
0.0
 20
221.77614199999991
 30
0.0
 11
0.0
 21
-58.376257999999993
 31
0.0
  0
LINE
  5
E65
  8
DETAIL
  6
CONTINUOUS
 62
     5
 10
125.4999999999999
 20
180.0544279999996
 30
0.0
 11
125.5
 21
174.0544279999998
 31
0.0
  0
LINE
  5
E66
  8
DETAIL
  6
CONTINUOUS
 62
     5
 10
212.5
 20
58.554428000000001
 30
0.0
 11
212.5
 21
163.5544279999996
 31
0.0
  0
LINE
  5
E67
  8
DETAIL
  6
CONTINUOUS
 62
     5
 10
212.5
 20
163.5544279999996
 30
0.0
 11
187.5
 21
163.5544279999996
 31
0.0
  0
LINE
  5
E68
  8
DETAIL
  6
CONTINUOUS
 62
     5
 10
212.5
 20
58.554428000000001
 30
0.0
 11
187.5
 21
58.554428000000001
 31
0.0
  0
LINE
  5
E69
  8
DETAIL
  6
CONTINUOUS
 62
     5
 10
239.5
 20
160.054428
 30
0.0
 11
212.5
 21
160.054428
 31
0.0
  0
LINE
  5
E6A
  8
DETAIL
  6
CONTINUOUS
 62
     5
 10
239.5
 20
62.054428000000001
 30
0.0
 11
212.5
 21
62.054428000000001
 31
0.0
  0
TEXT
  5
E6B
  8
NOTE
  6
CONTINUOUS
 62
     4
 10
301.24838899999992
 20
73.648282999999978
 30
0.0
 40
64.0
  1
EA
 41
0.9
  0
LINE
  5
E6C
  8
SIZE
  6
CONTINUOUS
 62
    30
 10
575.72948299999985
 20
162.054428
 30
0.0
 11
575.72948299999985
 21
378.14520599999992
 31
0.0
  0
LINE
  5
E6D
  8
SIZE
  6
CONTINUOUS
 62
    30
 10
692.65572099999974
 20
165.5544279999998
 30
0.0
 11
692.65572099999974
 21
394.338257
 31
0.0
  0
LINE
  5
E6E
  8
DETAIL
  6
CONTINUOUS
 62
     5
 10
128.4999999999998
 20
0.054428
 30
0.0
 11
128.4999999999998
 21
170.5544279999998
 31
0.0
  0
LINE
  5
E6F
  8
BASIS
  6
DASHDOT
 62
     6
 10
283.68260699999962
 20
111.054428
 30
0.0
 11
103.86499599999991
 21
111.054428
 31
0.0
  0
LINE
  5
E70
  8
SIZE
  6
CONTINUOUS
 62
    30
 10
782.23154399999964
 20
2.0544279999999961
 30
0.0
 11
782.23154399999964
 21
-161.66463999999999
 31
0.0
  0
LINE
  5
E71
  8
DETAIL
  6
CONTINUOUS
 62
     5
 10
48.0
 20
170.054428
 30
0.0
 11
-72.0
 21
170.054428
 31
0.0
  0
LINE
  5
E72
  8
DETAIL
  6
CONTINUOUS
 62
     5
 10
-72.0
 20
170.054428
 30
0.0
 11
-72.0
 21
166.054428
 31
0.0
  0
LINE
  5
E73
  8
DETAIL
  6
CONTINUOUS
 62
     5
 10
48.0
 20
170.054428
 30
0.0
 11
48.0
 21
166.054428
 31
0.0
  0
LINE
  5
E74
  8
DETAIL
  6
CONTINUOUS
 62
     5
 10
87.5
 20
22.554428000000001
 30
0.0
 11
122.5
 21
22.554428000000001
 31
0.0
  0
LINE
  5
E75
  8
DETAIL
  6
CONTINUOUS
 62
     5
 10
128.4999999999998
 20
174.0544279999998
 30
0.0
 11
128.4999999999998
 21
180.054428
 31
0.0
  0
LINE
  5
E76
  8
DETAIL
  6
CONTINUOUS
 62
     5
 10
125.5
 20
170.5544279999998
 30
0.0
 11
125.5
 21
0.054428
 31
0.0
  0
LINE
  5
E77
  8
OUTLINE
  6
CONTINUOUS
 62
     3
 10
-165.0
 20
0.054428
 30
0.0
 11
165.0
 21
0.054428
 31
0.0
  0
LINE
  5
E78
  8
OUTLINE
  6
CONTINUOUS
 62
     3
 10
-125.5
 20
166.054428
 30
0.0
 11
-125.5
 21
0.054428
 31
0.0
  0
LINE
  5
E79
  8
OUTLINE
  6
CONTINUOUS
 62
     3
 10
125.5
 20
166.054428
 30
0.0
 11
-125.5
 21
166.054428
 31
0.0
  0
LINE
  5
E7A
  8
OUTLINE
  6
CONTINUOUS
 62
     3
 10
125.5
 20
166.054428
 30
0.0
 11
125.5
 21
0.054428
 31
0.0
  0
LINE
  5
E7B
  8
DETAIL
  6
CONTINUOUS
 62
     5
 10
-87.5
 20
174.0544279999998
 30
0.0
 11
-87.5
 21
166.054428
 31
0.0
  0
LINE
  5
E7C
  8
DETAIL
  6
CONTINUOUS
 62
     5
 10
-122.5
 20
174.0544279999998
 30
0.0
 11
-122.5
 21
166.054428
 31
0.0
  0
CIRCLE
  5
E7D
  8
FIX
  6
CONTINUOUS
 62
    11
 10
-105.0
 20
174.0544279999998
 30
0.0
 40
7.5
  0
LINE
  5
E7E
  8
DETAIL
  6
CONTINUOUS
 62
     5
 10
-87.5
 20
174.0544279999998
 30
0.0
 11
-122.5
 21
174.0544279999998
 31
0.0
  0
LINE
  5
E7F
  8
DETAIL
  6
CONTINUOUS
 62
     5
 10
122.5
 20
119.554428
 30
0.0
 11
122.5
 21
22.554428000000001
 31
0.0
  0
LINE
  5
E80
  8
SIZE
  6
CONTINUOUS
 62
    30
 10
-841.45440799999983
 20
174.0544279999998
 30
0.0
 11
-841.45440799999983
 21
325.337784
 31
0.0
  0
TEXT
  5
E81
  8
NOTE
  6
CONTINUOUS
 62
     4
 10
-695.09206799999981
 20
-285.905573
 30
0.0
 40
64.0
  1
8-âË5ü~8
 41
0.9
  0
LINE
  5
E82
  8
DETAIL
  6
CONTINUOUS
 62
     5
 10
-128.4999999999998
 20
22.554428000000001
 30
0.0
 11
-125.5
 21
22.554428000000001
 31
0.0
  0
LINE
  5
E83
  8
DETAIL
  6
CONTINUOUS
 62
     5
 10
-128.4999999999998
 20
174.0544279999998
 30
0.0
 11
-128.4999999999998
 21
180.054428
 31
0.0
  0
LINE
  5
E84
  8
DETAIL
  6
CONTINUOUS
 62
     5
 10
-125.4999999999999
 20
180.0544279999996
 30
0.0
 11
-125.5
 21
174.0544279999998
 31
0.0
  0
LINE
  5
E85
  8
DETAIL
  6
CONTINUOUS
 62
     5
 10
-239.5
 20
62.054428000000001
 30
0.0
 11
-212.5
 21
62.054428000000001
 31
0.0
  0
LINE
  5
E86
  8
DETAIL
  6
CONTINUOUS
 62
     5
 10
-239.5
 20
160.054428
 30
0.0
 11
-212.5
 21
160.054428
 31
0.0
  0
LINE
  5
E87
  8
DETAIL
  6
CONTINUOUS
 62
     5
 10
-212.5
 20
58.554428000000001
 30
0.0
 11
-187.5
 21
58.554428000000001
 31
0.0
  0
LINE
  5
E88
  8
DETAIL
  6
CONTINUOUS
 62
     5
 10
-212.5
 20
163.5544279999996
 30
0.0
 11
-187.5
 21
163.5544279999996
 31
0.0
  0
LINE
  5
E89
  8
DETAIL
  6
CONTINUOUS
 62
     5
 10
-212.5
 20
58.554428000000001
 30
0.0
 11
-212.5
 21
163.5544279999996
 31
0.0
  0
LINE
  5
E8A
  8
DETAIL
  6
CONTINUOUS
 62
     5
 10
-125.5
 20
166.054428
 30
0.0
 11
-122.5
 21
166.054428
 31
0.0
  0
LINE
  5
E8B
  8
BASIS
  6
DASHDOT
 62
     6
 10
-283.68260699999962
 20
111.054428
 30
0.0
 11
-103.86499599999991
 21
111.054428
 31
0.0
  0
LINE
  5
E8C
  8
SIZE
  6
CONTINUOUS
 62
    30
 10
-570.16928900000016
 20
165.5544279999998
 30
0.0
 11
-570.16928900000016
 21
394.338257
 31
0.0
  0
LINE
  5
E8D
  8
SIZE
  6
CONTINUOUS
 62
    30
 10
-453.24305099999998
 20
162.054428
 30
0.0
 11
-453.24305099999998
 21
378.14520599999992
 31
0.0
  0
TEXT
  5
E8E
  8
NOTE
  6
CONTINUOUS
 62
     4
 10
-404.39288099999987
 20
78.523805999999979
 30
0.0
 40
64.0
  1
RA
 41
0.9
  0
LINE
  5
E8F
  8
SIZE
  6
CONTINUOUS
 62
    30
 10
-717.12539000000004
 20
174.0544279999998
 30
0.0
 11
-717.12539000000004
 21
324.214314
 31
0.0
  0
LINE
  5
E90
  8
DETAIL
  6
CONTINUOUS
 62
     5
 10
-187.5
 20
166.054428
 30
0.0
 11
-128.4999999999998
 21
166.054428
 31
0.0
  0
LINE
  5
E91
  8
DETAIL
  6
CONTINUOUS
 62
     5
 10
-187.5
 20
56.054428000000001
 30
0.0
 11
-187.5
 21
166.054428
 31
0.0
  0
LINE
  5
E92
  8
DETAIL
  6
CONTINUOUS
 62
     5
 10
-187.5
 20
56.054428000000001
 30
0.0
 11
-128.4999999999998
 21
56.054428000000001
 31
0.0
  0
LINE
  5
E93
  8
DETAIL
  6
CONTINUOUS
 62
     5
 10
187.5
 20
166.054428
 30
0.0
 11
128.4999999999998
 21
166.054428
 31
0.0
  0
LINE
  5
E94
  8
DETAIL
  6
CONTINUOUS
 62
     5
 10
187.5
 20
56.054428000000001
 30
0.0
 11
128.4999999999998
 21
56.054428000000001
 31
0.0
  0
LINE
  5
E95
  8
DETAIL
  6
CONTINUOUS
 62
     5
 10
187.5
 20
56.054428000000001
 30
0.0
 11
187.5
 21
166.054428
 31
0.0
  0
LINE
  5
E96
  8
DETAIL
  6
CONTINUOUS
 62
     5
 10
153.5
 20
1.054427999999999
 30
0.0
 11
128.4999999999998
 21
1.054427999999999
 31
0.0
  0
LINE
  5
E97
  8
DETAIL
  6
CONTINUOUS
 62
     5
 10
-153.5
 20
1.054427999999999
 30
0.0
 11
-128.4999999999998
 21
1.054427999999999
 31
0.0
  0
LINE
  5
E98
  8
DETAIL
  6
CONTINUOUS
 62
     5
 10
-153.5
 20
0.054428
 30
0.0
 11
-153.5
 21
1.054427999999999
 31
0.0
  0
LINE
  5
E99
  8
DETAIL
  6
CONTINUOUS
 62
     5
 10
153.5
 20
0.054428
 30
0.0
 11
153.5
 21
1.054427999999999
 31
0.0
  0
LINE
  5
E9A
  8
SIZE
  6
CONTINUOUS
 62
    30
 10
-433.82310099999989
 20
1.054427999999999
 30
0.0
 11
-433.82310099999989
 21
-157.95527200000001
 31
0.0
  0
LINE
  5
E9B
  8
SIZE
  6
CONTINUOUS
 62
    30
 10
541.87243499999965
 20
1.054427999999999
 30
0.0
 11
541.87243499999965
 21
-157.95527200000001
 31
0.0
  0
LINE
  5
E9C
  8
NOTE
  6
CONTINUOUS
 62
     4
 10
105.0
 20
166.054428
 30
0.0
 11
303.353812
 21
-131.7740399999999
 31
0.0
  0
LINE
  5
E9D
  8
NOTE
  6
CONTINUOUS
 62
     4
 10
142.5
 20
174.0544279999998
 30
0.0
 11
614.02202499999964
 21
473.750022
 31
0.0
  0
TEXT
  5
E9E
  8
NOTE
  6
CONTINUOUS
 62
     4
 10
1249.336
 20
511.85869000000002
 30
0.0
 40
64.0
  1
(2ô_Æ¦éÞ)
 41
0.9
  0
LINE
  5
E9F
  8
SIZE
  6
BYBLOCK
 62
    30
 10
0.0
 20
-78.376257999999964
 30
0.0
 11
0.0
 21
-288.53873599999991
 31
0.0
  0
LINE
  5
EA0
  8
SIZE
  6
BYBLOCK
 62
    30
 10
105.0
 20
126.0544279999999
 30
0.0
 11
105.0
 21
-288.53873599999991
 31
0.0
  0
LINE
  5
EA1
  8
SIZE
  6
BYBLOCK
 62
    30
 10
107.0
 20
-258.53873599999991
 30
0.0
 11
109.0
 21
-258.53873599999991
 31
0.0
  0
LINE
  5
EA2
  8
SIZE
  6
BYBLOCK
 62
    30
 10
-2.0
 20
-258.53873599999991
 30
0.0
 11
-4.0
 21
-258.53873599999991
 31
0.0
  0
LINE
  5
EA3
  8
SIZE
  6
BYBLOCK
 62
    30
 10
105.0
 20
-258.53873599999991
 30
0.0
 11
0.0
 21
-258.53873599999991
 31
0.0
  0
TEXT
  5
EA4
  8
SIZE
  6
BYBLOCK
 62
    30
 10
178.12972400000001
 20
-227.84202799999991
 30
0.0
 40
64.0
  1
105
 41
0.9
  0
LINE
  5
EA5
  8
SIZE
  6
BYBLOCK
 62
    30
 10
148.5
 20
56.054428000000001
 30
0.0
 11
571.872435
 21
56.054428000000001
 31
0.0
  0
LINE
  5
EA6
  8
SIZE
  6
BYBLOCK
 62
    30
 10
173.5
 20
1.054427999999999
 30
0.0
 11
571.872435
 21
1.054427999999999
 31
0.0
  0
LINE
  5
EA7
  8
SIZE
  6
BYBLOCK
 62
    30
 10
541.87243499999965
 20
-0.9455719999999999
 30
0.0
 11
541.87243499999965
 21
-2.9455719999999981
 31
0.0
  0
LINE
  5
EA8
  8
SIZE
  6
BYBLOCK
 62
    30
 10
541.87243499999965
 20
58.054428000000001
 30
0.0
 11
541.87243499999965
 21
60.054428000000001
 31
0.0
  0
LINE
  5
EA9
  8
SIZE
  6
BYBLOCK
 62
    30
 10
541.87243499999965
 20
1.054427999999999
 30
0.0
 11
541.87243499999965
 21
56.054428000000001
 31
0.0
  0
TEXT
  5
EAA
  8
SIZE
  6
BYBLOCK
 62
    30
 10
509.87243499999988
 20
-135.69597899999991
 30
0.0
 40
64.0
  1
55
 50
90.0
 41
0.9
  0
LINE
  5
EAB
  8
SIZE
  6
BYBLOCK
 62
    30
 10
-173.5
 20
1.054427999999999
 30
0.0
 11
-463.82310099999989
 21
1.054427999999999
 31
0.0
  0
LINE
  5
EAC
  8
SIZE
  6
BYBLOCK
 62
    30
 10
-148.5
 20
56.054428000000001
 30
0.0
 11
-463.82310099999989
 21
56.054428000000001
 31
0.0
  0
LINE
  5
EAD
  8
SIZE
  6
BYBLOCK
 62
    30
 10
-433.82310099999989
 20
58.054428000000001
 30
0.0
 11
-433.82310099999989
 21
60.054428000000001
 31
0.0
  0
LINE
  5
EAE
  8
SIZE
  6
BYBLOCK
 62
    30
 10
-433.82310099999989
 20
-0.9455719999999999
 30
0.0
 11
-433.82310099999989
 21
-2.9455719999999981
 31
0.0
  0
LINE
  5
EAF
  8
SIZE
  6
BYBLOCK
 62
    30
 10
-433.82310099999989
 20
56.054428000000001
 30
0.0
 11
-433.82310099999989
 21
1.054427999999999
 31
0.0
  0
TEXT
  5
EB0
  8
SIZE
  6
BYBLOCK
 62
    30
 10
-465.82310099999989
 20
-131.6170919999999
 30
0.0
 40
64.0
  1
55
 50
90.0
 41
0.9
  0
LINE
  5
EB1
  8
SIZE
  6
BYBLOCK
 62
    30
 10
-262.5
 20
62.054428000000001
 30
0.0
 11
-483.24305099999998
 21
62.054428000000001
 31
0.0
  0
LINE
  5
EB2
  8
SIZE
  6
BYBLOCK
 62
    30
 10
-262.5
 20
160.054428
 30
0.0
 11
-483.24305099999998
 21
160.054428
 31
0.0
  0
LINE
  5
EB3
  8
SIZE
  6
BYBLOCK
 62
    30
 10
-453.24305099999998
 20
162.054428
 30
0.0
 11
-453.24305099999998
 21
164.054428
 31
0.0
  0
LINE
  5
EB4
  8
SIZE
  6
BYBLOCK
 62
    30
 10
-453.24305099999998
 20
60.054428000000001
 30
0.0
 11
-453.24305099999998
 21
58.054428000000001
 31
0.0
  0
LINE
  5
EB5
  8
SIZE
  6
BYBLOCK
 62
    30
 10
-453.24305099999998
 20
160.054428
 30
0.0
 11
-453.24305099999998
 21
62.054428000000001
 31
0.0
  0
TEXT
  5
EB6
  8
SIZE
  6
BYBLOCK
 62
    30
 10
-485.24305099999992
 20
218.3188259999996
 30
0.0
 40
64.0
  1
âË98
 50
90.0
 41
0.9
  0
LINE
  5
EB7
  8
SIZE
  6
BYBLOCK
 62
    30
 10
-232.5
 20
58.554428000000001
 30
0.0
 11
-600.16928900000005
 21
58.554428000000001
 31
0.0
  0
LINE
  5
EB8
  8
SIZE
  6
BYBLOCK
 62
    30
 10
-232.5
 20
163.5544279999996
 30
0.0
 11
-600.16928900000005
 21
163.5544279999996
 31
0.0
  0
LINE
  5
EB9
  8
SIZE
  6
BYBLOCK
 62
    30
 10
-570.16928900000016
 20
165.5544279999998
 30
0.0
 11
-570.16928900000016
 21
167.5544279999996
 31
0.0
  0
LINE
  5
EBA
  8
SIZE
  6
BYBLOCK
 62
    30
 10
-570.16928900000016
 20
56.554428000000001
 30
0.0
 11
-570.16928900000016
 21
54.554428000000001
 31
0.0
  0
LINE
  5
EBB
  8
SIZE
  6
BYBLOCK
 62
    30
 10
-570.16928900000016
 20
163.5544279999996
 30
0.0
 11
-570.16928900000016
 21
58.554428000000001
 31
0.0
  0
TEXT
  5
EBC
  8
SIZE
  6
BYBLOCK
 62
    30
 10
-602.16928900000005
 20
216.788591
 30
0.0
 40
64.0
  1
âË105
 50
90.0
 41
0.9
  0
LINE
  5
EBD
  8
SIZE
  6
BYBLOCK
 62
    30
 10
-181.4999999999996
 20
0.054428
 30
0.0
 11
-669.13035399999978
 21
0.054428
 31
0.0
  0
LINE
  5
EBE
  8
SIZE
  6
BYBLOCK
 62
    30
 10
-303.6826069999999
 20
111.054428
 30
0.0
 11
-669.13035399999978
 21
111.054428
 31
0.0
  0
LINE
  5
EBF
  8
SIZE
  6
BYBLOCK
 62
    30
 10
-639.13035400000001
 20
2.0544279999999961
 30
0.0
 11
-639.13035400000001
 21
55.554428000000001
 31
0.0
  0
LINE
  5
EC0
  8
SIZE
  6
BYBLOCK
 62
    30
 10
-639.13035400000001
 20
109.054428
 30
0.0
 11
-639.13035400000001
 21
55.554428000000001
 31
0.0
  0
TEXT
  5
EC1
  8
SIZE
  6
BYBLOCK
 62
    30
 10
-671.13035400000001
 20
4.811570999999998
 30
0.0
 40
64.0
  1
111
 50
90.0
 41
0.9
  0
LINE
  5
EC2
  8
SIZE
  6
BYBLOCK
 62
    30
 10
-125.5
 20
192.82711399999991
 30
0.0
 11
-125.5
 21
984.44002699999987
 31
0.0
  0
LINE
  5
EC3
  8
SIZE
  6
CONTINUOUS
 62
    30
 10
-123.5
 20
954.44002699999999
 30
0.0
 11
-121.5
 21
954.44002699999999
 31
0.0
  0
LINE
  5
EC4
  8
SIZE
  6
BYBLOCK
 62
    30
 10
-187.5
 20
183.554428
 30
0.0
 11
-187.5
 21
848.78977399999985
 31
0.0
  0
LINE
  5
EC5
  8
SIZE
  6
BYBLOCK
 62
    30
 10
-125.5
 20
198.054428
 30
0.0
 11
-125.5
 21
984.44002699999987
 31
0.0
  0
LINE
  5
EC6
  8
SIZE
  6
BYBLOCK
 62
    30
 10
125.5
 20
194.054428
 30
0.0
 11
125.5
 21
984.44002699999987
 31
0.0
  0
LINE
  5
EC7
  8
SIZE
  6
CONTINUOUS
 62
    30
 10
-123.5
 20
954.44002699999999
 30
0.0
 11
0.0
 21
954.44002699999999
 31
0.0
  0
LINE
  5
EC8
  8
SIZE
  6
CONTINUOUS
 62
    30
 10
123.5
 20
954.44002699999999
 30
0.0
 11
0.0
 21
954.44002699999999
 31
0.0
  0
TEXT
  5
EC9
  8
SIZE
  6
CONTINUOUS
 62
    30
 10
-86.391818000000015
 20
986.44002699999999
 30
0.0
 40
64.0
  1
üá251
 41
0.9
  0
LINE
  5
ECA
  8
SIZE
  6
BYBLOCK
 62
    30
 10
-185.0
 20
0.054428
 30
0.0
 11
-1010.23603
 21
0.054428
 31
0.0
  0
LINE
  5
ECB
  8
SIZE
  6
BYBLOCK
 62
    30
 10
-36.852012000000002
 20
204.05441499999969
 30
0.0
 11
-1010.23603
 21
204.05441499999969
 31
0.0
  0
LINE
  5
ECC
  8
SIZE
  6
BYBLOCK
 62
    30
 10
-980.23603000000003
 20
2.0544279999999961
 30
0.0
 11
-980.23603000000003
 21
102.054422
 31
0.0
  0
LINE
  5
ECD
  8
SIZE
  6
BYBLOCK
 62
    30
 10
-980.23603000000003
 20
202.05441499999981
 30
0.0
 11
-980.23603000000003
 21
102.054422
 31
0.0
  0
TEXT
  5
ECE
  8
SIZE
  6
BYBLOCK
 62
    30
 10
-1012.23603
 20
26.625849999999989
 30
0.0
 40
64.0
  1
204
 50
90.0
 41
0.9
  0
LINE
  5
ECF
  8
SIZE
  6
BYBLOCK
 62
    30
 10
-145.5
 20
166.054428
 30
0.0
 11
-747.12539000000004
 21
166.054428
 31
0.0
  0
LINE
  5
ED0
  8
SIZE
  6
BYBLOCK
 62
    30
 10
-182.5
 20
174.0544279999998
 30
0.0
 11
-747.12539000000004
 21
174.0544279999998
 31
0.0
  0
LINE
  5
ED1
  8
SIZE
  6
BYBLOCK
 62
    30
 10
-717.12539000000004
 20
176.0544279999996
 30
0.0
 11
-717.12539000000004
 21
178.0544279999998
 31
0.0
  0
LINE
  5
ED2
  8
SIZE
  6
BYBLOCK
 62
    30
 10
-717.12539000000004
 20
164.054428
 30
0.0
 11
-717.12539000000004
 21
162.054428
 31
0.0
  0
LINE
  5
ED3
  8
SIZE
  6
BYBLOCK
 62
    30
 10
-717.12539000000004
 20
174.0544279999998
 30
0.0
 11
-717.12539000000004
 21
166.054428
 31
0.0
  0
TEXT
  5
ED4
  8
SIZE
  6
BYBLOCK
 62
    30
 10
-745.17128200000002
 20
258.29555299999993
 30
0.0
 40
64.0
  1
8
 50
90.0
 41
0.9
  0
LINE
  5
ED5
  8
SIZE
  6
BYBLOCK
 62
    30
 10
-142.5
 20
166.054428
 30
0.0
 11
-871.45440799999972
 21
166.054428
 31
0.0
  0
LINE
  5
ED6
  8
SIZE
  6
BYBLOCK
 62
    30
 10
-92.0
 20
170.054428
 30
0.0
 11
-871.45440799999972
 21
170.054428
 31
0.0
  0
LINE
  5
ED7
  8
SIZE
  6
BYBLOCK
 62
    30
 10
-841.45440799999983
 20
172.054428
 30
0.0
 11
-841.45440799999983
 21
174.0544279999998
 31
0.0
  0
LINE
  5
ED8
  8
SIZE
  6
BYBLOCK
 62
    30
 10
-841.45440799999983
 20
164.054428
 30
0.0
 11
-841.45440799999983
 21
162.054428
 31
0.0
  0
LINE
  5
ED9
  8
SIZE
  6
BYBLOCK
 62
    30
 10
-841.45440799999983
 20
170.054428
 30
0.0
 11
-841.45440799999983
 21
166.054428
 31
0.0
  0
TEXT
  5
EDA
  8
SIZE
  6
BYBLOCK
 62
    30
 10
-877.40851699999985
 20
256.87816600000002
 30
0.0
 40
64.0
  1
4
 50
90.0
 41
0.9
  0
LINE
  5
EDB
  8
SIZE
  6
BYBLOCK
 62
    30
 10
-185.0
 20
0.054428
 30
0.0
 11
-871.45440799999972
 21
0.054428
 31
0.0
  0
LINE
  5
EDC
  8
SIZE
  6
BYBLOCK
 62
    30
 10
-145.5
 20
166.054428
 30
0.0
 11
-871.45440799999972
 21
166.054428
 31
0.0
  0
LINE
  5
EDD
  8
SIZE
  6
BYBLOCK
 62
    30
 10
-841.45440799999983
 20
2.0544279999999961
 30
0.0
 11
-841.45440799999983
 21
83.054427999999987
 31
0.0
  0
LINE
  5
EDE
  8
SIZE
  6
BYBLOCK
 62
    30
 10
-841.45440799999983
 20
164.054428
 30
0.0
 11
-841.45440799999983
 21
83.054427999999987
 31
0.0
  0
TEXT
  5
EDF
  8
SIZE
  6
BYBLOCK
 62
    30
 10
-873.45440799999994
 20
15.854428
 30
0.0
 40
64.0
  1
166
 50
90.0
 41
0.9
  0
LINE
  5
EE0
  8
SIZE
  6
BYBLOCK
 62
    30
 10
185.0
 20
0.054428
 30
0.0
 11
946.95475700000009
 21
0.054428
 31
0.0
  0
LINE
  5
EE1
  8
SIZE
  6
BYBLOCK
 62
    30
 10
185.0
 20
0.054428
 30
0.0
 11
812.23154399999987
 21
0.054428
 31
0.0
  0
LINE
  5
EE2
  8
SIZE
  6
BYBLOCK
 62
    30
 10
303.6826069999999
 20
111.054428
 30
0.0
 11
812.23154399999987
 21
111.054428
 31
0.0
  0
LINE
  5
EE3
  8
SIZE
  6
BYBLOCK
 62
    30
 10
782.23154399999964
 20
2.0544279999999961
 30
0.0
 11
782.23154399999964
 21
55.554428000000001
 31
0.0
  0
LINE
  5
EE4
  8
SIZE
  6
BYBLOCK
 62
    30
 10
782.23154399999964
 20
109.054428
 30
0.0
 11
782.23154399999964
 21
55.554428000000001
 31
0.0
  0
TEXT
  5
EE5
  8
SIZE
  6
BYBLOCK
 62
    30
 10
750.23154399999999
 20
-149.87259
 30
0.0
 40
64.0
  1
111
 50
90.0
 41
0.9
  0
LINE
  5
EE6
  8
SIZE
  6
BYBLOCK
 62
    30
 10
187.5
 20
183.554428
 30
0.0
 11
187.5
 21
848.78977399999985
 31
0.0
  0
LINE
  5
EE7
  8
SIZE
  6
BYBLOCK
 62
    30
 10
125.5
 20
192.82711399999991
 30
0.0
 11
125.5
 21
984.44002699999987
 31
0.0
  0
LINE
  5
EE8
  8
SIZE
  6
CONTINUOUS
 62
    30
 10
123.5
 20
954.44002699999999
 30
0.0
 11
121.5
 21
954.44002699999999
 31
0.0
  0
LINE
  5
EE9
  8
SIZE
  6
BYBLOCK
 62
    30
 10
232.5
 20
58.554428000000001
 30
0.0
 11
722.65572099999974
 21
58.554428000000001
 31
0.0
  0
LINE
  5
EEA
  8
SIZE
  6
BYBLOCK
 62
    30
 10
232.5
 20
163.5544279999996
 30
0.0
 11
722.65572099999974
 21
163.5544279999996
 31
0.0
  0
LINE
  5
EEB
  8
SIZE
  6
BYBLOCK
 62
    30
 10
692.65572099999974
 20
165.5544279999998
 30
0.0
 11
692.65572099999974
 21
167.5544279999996
 31
0.0
  0
LINE
  5
EEC
  8
SIZE
  6
BYBLOCK
 62
    30
 10
692.65572099999974
 20
56.554428000000001
 30
0.0
 11
692.65572099999974
 21
54.554428000000001
 31
0.0
  0
LINE
  5
EED
  8
SIZE
  6
BYBLOCK
 62
    30
 10
692.65572099999974
 20
163.5544279999996
 30
0.0
 11
692.65572099999974
 21
58.554428000000001
 31
0.0
  0
TEXT
  5
EEE
  8
SIZE
  6
BYBLOCK
 62
    30
 10
660.65572099999997
 20
206.98753400000001
 30
0.0
 40
64.0
  1
âË105
 50
90.0
 41
0.9
  0
LINE
  5
EEF
  8
SIZE
  6
BYBLOCK
 62
    30
 10
262.5
 20
62.054428000000001
 30
0.0
 11
605.72948299999996
 21
62.054428000000001
 31
0.0
  0
LINE
  5
EF0
  8
SIZE
  6
BYBLOCK
 62
    30
 10
262.5
 20
160.054428
 30
0.0
 11
605.72948299999996
 21
160.054428
 31
0.0
  0
LINE
  5
EF1
  8
SIZE
  6
BYBLOCK
 62
    30
 10
575.72948299999985
 20
162.054428
 30
0.0
 11
575.72948299999985
 21
164.054428
 31
0.0
  0
LINE
  5
EF2
  8
SIZE
  6
BYBLOCK
 62
    30
 10
575.72948299999985
 20
60.054428000000001
 30
0.0
 11
575.72948299999985
 21
58.054428000000001
 31
0.0
  0
LINE
  5
EF3
  8
SIZE
  6
BYBLOCK
 62
    30
 10
575.72948299999985
 20
160.054428
 30
0.0
 11
575.72948299999985
 21
62.054428000000001
 31
0.0
  0
TEXT
  5
EF4
  8
SIZE
  6
BYBLOCK
 62
    30
 10
543.72948299999985
 20
206.66494800000001
 30
0.0
 40
64.0
  1
âË98
 50
90.0
 41
0.9
  0
LINE
  5
EF5
  8
SIZE
  6
BYBLOCK
 62
    30
 10
0.0
 20
242.01638999999989
 30
0.0
 11
0.0
 21
307.728903
 31
0.0
  0
LINE
  5
EF6
  8
SIZE
  6
BYBLOCK
 62
    30
 10
-12.0
 20
233.7921979999999
 30
0.0
 11
-12.0
 21
307.728903
 31
0.0
  0
LINE
  5
EF7
  8
SIZE
  6
BYBLOCK
 62
    30
 10
-14.0
 20
277.72890299999989
 30
0.0
 11
-16.0
 21
277.72890299999989
 31
0.0
  0
LINE
  5
EF8
  8
SIZE
  6
BYBLOCK
 62
    30
 10
2.0
 20
277.72890299999989
 30
0.0
 11
4.0
 21
277.72890299999989
 31
0.0
  0
LINE
  5
EF9
  8
SIZE
  6
BYBLOCK
 62
    30
 10
-12.0
 20
277.72890299999989
 30
0.0
 11
0.0
 21
277.72890299999989
 31
0.0
  0
TEXT
  5
EFA
  8
SIZE
  6
BYBLOCK
 62
    30
 10
-42.641803000000003
 20
325.07049000000001
 30
0.0
 40
64.0
  1
12
 41
0.9
  0
LINE
  5
EFB
  8
SIZE
  6
BYBLOCK
 62
    30
 10
-185.0
 20
0.054428
 30
0.0
 11
-1010.23603
 21
0.054428
 31
0.0
  0
LINE
  5
EFC
  8
SIZE
  6
BYBLOCK
 62
    30
 10
-146.5
 20
-19.945571999999999
 30
0.0
 11
-1010.23603
 21
-19.945571999999999
 31
0.0
  0
LINE
  5
EFD
  8
SIZE
  6
BYBLOCK
 62
    30
 10
-980.23603000000003
 20
-21.945571999999991
 30
0.0
 11
-980.23603000000003
 21
-23.945571999999991
 31
0.0
  0
LINE
  5
EFE
  8
SIZE
  6
BYBLOCK
 62
    30
 10
-980.23603000000003
 20
2.0544279999999961
 30
0.0
 11
-980.23603000000003
 21
4.054427999999997
 31
0.0
  0
LINE
  5
EFF
  8
SIZE
  6
BYBLOCK
 62
    30
 10
-980.23603000000003
 20
-19.945571999999999
 30
0.0
 11
-980.23603000000003
 21
0.054428
 31
0.0
  0
TEXT
  5
F00
  8
SIZE
  6
BYBLOCK
 62
    30
 10
-1012.23603
 20
-138.30814599999991
 30
0.0
 40
64.0
  1
20
 50
90.0
 41
0.9
  0
LINE
  5
F01
  8
SIZE
  6
BYBLOCK
 62
    30
 10
-105.0
 20
214.0544279999998
 30
0.0
 11
-105.0
 21
721.50505599999985
 31
0.0
  0
LINE
  5
F02
  8
SIZE
  6
BYBLOCK
 62
    30
 10
105.0
 20
214.0544279999998
 30
0.0
 11
105.0
 21
721.50505599999985
 31
0.0
  0
LINE
  5
F03
  8
SIZE
  6
CONTINUOUS
 62
    30
 10
-103.0
 20
691.50505599999997
 30
0.0
 11
0.0
 21
691.50505599999997
 31
0.0
  0
LINE
  5
F04
  8
SIZE
  6
CONTINUOUS
 62
    30
 10
103.0
 20
691.50505599999997
 30
0.0
 11
0.0
 21
691.50505599999997
 31
0.0
  0
TEXT
  5
F05
  8
SIZE
  6
CONTINUOUS
 62
    30
 10
-68.571429000000009
 20
723.50505599999985
 30
0.0
 40
64.0
  1
210
 41
0.9
  0
LINE
  5
F06
  8
SIZE
  6
BYBLOCK
 62
    30
 10
-142.5
 20
214.75058199999981
 30
0.0
 11
-142.5
 21
848.84599700000001
 31
0.0
  0
LINE
  5
F07
  8
SIZE
  6
BYBLOCK
 62
    30
 10
142.5
 20
214.75058199999981
 30
0.0
 11
142.5
 21
848.84599700000001
 31
0.0
  0
LINE
  5
F08
  8
SIZE
  6
CONTINUOUS
 62
    30
 10
-140.5
 20
818.84599700000001
 30
0.0
 11
0.0
 21
818.84599700000001
 31
0.0
  0
LINE
  5
F09
  8
SIZE
  6
CONTINUOUS
 62
    30
 10
140.5
 20
818.84599700000001
 30
0.0
 11
0.0
 21
818.84599700000001
 31
0.0
  0
TEXT
  5
F0A
  8
SIZE
  6
CONTINUOUS
 62
    30
 10
-74.057143000000025
 20
850.84599700000001
 30
0.0
 40
64.0
  1
285
 41
0.9
  0
LINE
  5
F0B
  8
SIZE
  6
BYBLOCK
 62
    30
 10
-165.00000700000001
 20
-26.210712999999998
 30
0.0
 11
-165.00000700000001
 21
-715.13707099999999
 31
0.0
  0
LINE
  5
F0C
  8
SIZE
  6
BYBLOCK
 62
    30
 10
165.00000700000001
 20
-26.210712999999998
 30
0.0
 11
165.00000700000001
 21
-715.13707099999999
 31
0.0
  0
LINE
  5
F0D
  8
SIZE
  6
BYBLOCK
 62
    30
 10
-163.00000700000001
 20
-685.13707099999999
 30
0.0
 11
0.0
 21
-685.13707099999999
 31
0.0
  0
LINE
  5
F0E
  8
SIZE
  6
BYBLOCK
 62
    30
 10
163.00000700000001
 20
-685.13707099999999
 30
0.0
 11
0.0
 21
-685.13707099999999
 31
0.0
  0
TEXT
  5
F0F
  8
SIZE
  6
BYBLOCK
 62
    30
 10
-106.6971429999999
 20
-653.13707099999999
 30
0.0
 40
64.0
  1
üá330
 41
0.9
  0
LINE
  5
F10
  8
SIZE
  6
BYBLOCK
 62
    30
 10
141.5
 20
-40.0
 30
0.0
 11
141.5
 21
-586.16231600000003
 31
0.0
  0
LINE
  5
F11
  8
SIZE
  6
BYBLOCK
 62
    30
 10
-141.5
 20
-40.0
 30
0.0
 11
-141.5
 21
-586.16231600000003
 31
0.0
  0
LINE
  5
F12
  8
SIZE
  6
BYBLOCK
 62
    30
 10
139.5
 20
-556.16231600000003
 30
0.0
 11
0.0
 21
-556.16231600000003
 31
0.0
  0
LINE
  5
F13
  8
SIZE
  6
BYBLOCK
 62
    30
 10
-139.5
 20
-556.16231600000003
 30
0.0
 11
0.0
 21
-556.16231600000003
 31
0.0
  0
TEXT
  5
F14
  8
SIZE
  6
BYBLOCK
 62
    30
 10
-68.310451
 20
-524.16231600000003
 30
0.0
 40
64.0
  1
283
 41
0.9
  0
LINE
  5
F15
  8
SIZE
  6
BYBLOCK
 62
    30
 10
85.0
 20
-40.0
 30
0.0
 11
85.0
 21
-445.16050899999999
 31
0.0
  0
LINE
  5
F16
  8
SIZE
  6
BYBLOCK
 62
    30
 10
-85.0
 20
-40.0
 30
0.0
 11
-85.0
 21
-445.16050899999999
 31
0.0
  0
LINE
  5
F17
  8
SIZE
  6
BYBLOCK
 62
    30
 10
83.0
 20
-415.16050899999999
 30
0.0
 11
0.0
 21
-415.16050899999999
 31
0.0
  0
LINE
  5
F18
  8
SIZE
  6
BYBLOCK
 62
    30
 10
-83.0
 20
-415.16050899999999
 30
0.0
 11
0.0
 21
-415.16050899999999
 31
0.0
  0
TEXT
  5
F19
  8
SIZE
  6
BYBLOCK
 62
    30
 10
-68.571429000000009
 20
-383.16050899999999
 30
0.0
 40
64.0
  1
170
 41
0.9
  0
CIRCLE
  5
F1A
  8
SIZE
  6
CONTINUOUS
 62
    30
 10
-85.0
 20
-415.16050899999999
 30
0.0
 40
6.0
  0
CIRCLE
  5
F1B
  8
SIZE
  6
CONTINUOUS
 62
    30
 10
85.0
 20
-415.16050899999999
 30
0.0
 40
6.0
  0
CIRCLE
  5
F1C
  8
SIZE
  6
CONTINUOUS
 62
    30
 10
-141.5
 20
-556.16231600000003
 30
0.0
 40
6.0
  0
CIRCLE
  5
F1D
  8
SIZE
  6
CONTINUOUS
 62
    30
 10
141.5
 20
-556.16231600000003
 30
0.0
 40
6.0
  0
CIRCLE
  5
F1E
  8
SIZE
  6
CONTINUOUS
 62
    30
 10
165.00000700000001
 20
-685.13707099999999
 30
0.0
 40
6.0
  0
CIRCLE
  5
F1F
  8
SIZE
  6
CONTINUOUS
 62
    30
 10
-165.00000700000001
 20
-685.13707099999999
 30
0.0
 40
6.0
  0
CIRCLE
  5
F20
  8
SIZE
  6
CONTINUOUS
 62
    30
 10
142.5
 20
818.84599700000001
 30
0.0
 40
6.0
  0
CIRCLE
  5
F21
  8
SIZE
  6
CONTINUOUS
 62
    30
 10
-142.5
 20
818.84599700000001
 30
0.0
 40
6.0
  0
CIRCLE
  5
F22
  8
SIZE
  6
CONTINUOUS
 62
    30
 10
105.0
 20
691.50505599999997
 30
0.0
 40
6.0
  0
CIRCLE
  5
F23
  8
SIZE
  6
CONTINUOUS
 62
    30
 10
-105.0
 20
691.50505599999997
 30
0.0
 40
6.0
  0
CIRCLE
  5
F24
  8
SIZE
  6
CONTINUOUS
 62
    30
 10
-980.23603000000003
 20
0.054428
 30
0.0
 40
6.0
  0
CIRCLE
  5
F25
  8
SIZE
  6
CONTINUOUS
 62
    30
 10
-980.23603000000003
 20
-19.945571999999999
 30
0.0
 40
6.0
  0
CIRCLE
  5
F26
  8
SIZE
  6
CONTINUOUS
 62
    30
 10
0.0
 20
277.72890299999989
 30
0.0
 40
6.0
  0
CIRCLE
  5
F27
  8
SIZE
  6
CONTINUOUS
 62
    30
 10
-12.0
 20
277.72890299999989
 30
0.0
 40
6.0
  0
CIRCLE
  5
F28
  8
SIZE
  6
CONTINUOUS
 62
    30
 10
575.72948299999985
 20
62.054428000000001
 30
0.0
 40
6.0
  0
CIRCLE
  5
F29
  8
SIZE
  6
CONTINUOUS
 62
    30
 10
575.72948299999985
 20
160.054428
 30
0.0
 40
6.0
  0
CIRCLE
  5
F2A
  8
SIZE
  6
CONTINUOUS
 62
    30
 10
692.65572099999974
 20
58.554428000000001
 30
0.0
 40
6.0
  0
CIRCLE
  5
F2B
  8
SIZE
  6
CONTINUOUS
 62
    30
 10
692.65572099999974
 20
163.5544279999996
 30
0.0
 40
6.0
  0
CIRCLE
  5
F2C
  8
SIZE
  6
CONTINUOUS
 62
    30
 10
782.23154399999964
 20
111.054428
 30
0.0
 40
6.0
  0
CIRCLE
  5
F2D
  8
SIZE
  6
CONTINUOUS
 62
    30
 10
782.23154399999964
 20
0.054428
 30
0.0
 40
6.0
  0
CIRCLE
  5
F2E
  8
SIZE
  6
CONTINUOUS
 62
    30
 10
-841.45440799999983
 20
166.054428
 30
0.0
 40
6.0
  0
CIRCLE
  5
F2F
  8
SIZE
  6
CONTINUOUS
 62
    30
 10
-841.45440799999983
 20
0.054428
 30
0.0
 40
6.0
  0
CIRCLE
  5
F30
  8
SIZE
  6
CONTINUOUS
 62
    30
 10
-841.45440799999983
 20
166.054428
 30
0.0
 40
6.0
  0
CIRCLE
  5
F31
  8
SIZE
  6
CONTINUOUS
 62
    30
 10
-841.45440799999983
 20
170.054428
 30
0.0
 40
6.0
  0
CIRCLE
  5
F32
  8
SIZE
  6
CONTINUOUS
 62
    30
 10
-717.12539000000004
 20
166.054428
 30
0.0
 40
6.0
  0
CIRCLE
  5
F33
  8
SIZE
  6
CONTINUOUS
 62
    30
 10
-717.12539000000004
 20
174.0544279999998
 30
0.0
 40
6.0
  0
CIRCLE
  5
F34
  8
SIZE
  6
CONTINUOUS
 62
    30
 10
-980.23603000000003
 20
204.05441499999969
 30
0.0
 40
6.0
  0
CIRCLE
  5
F35
  8
SIZE
  6
CONTINUOUS
 62
    30
 10
-980.23603000000003
 20
0.054428
 30
0.0
 40
6.0
  0
CIRCLE
  5
F36
  8
SIZE
  6
CONTINUOUS
 62
    30
 10
-639.13035400000001
 20
111.054428
 30
0.0
 40
6.0
  0
CIRCLE
  5
F37
  8
SIZE
  6
CONTINUOUS
 62
    30
 10
-639.13035400000001
 20
0.054428
 30
0.0
 40
6.0
  0
CIRCLE
  5
F38
  8
SIZE
  6
CONTINUOUS
 62
    30
 10
-570.16928900000016
 20
58.554428000000001
 30
0.0
 40
6.0
  0
CIRCLE
  5
F39
  8
SIZE
  6
CONTINUOUS
 62
    30
 10
-570.16928900000016
 20
163.5544279999996
 30
0.0
 40
6.0
  0
CIRCLE
  5
F3A
  8
SIZE
  6
CONTINUOUS
 62
    30
 10
-453.24305099999998
 20
62.054428000000001
 30
0.0
 40
6.0
  0
CIRCLE
  5
F3B
  8
SIZE
  6
CONTINUOUS
 62
    30
 10
-453.24305099999998
 20
160.054428
 30
0.0
 40
6.0
  0
CIRCLE
  5
F3C
  8
SIZE
  6
CONTINUOUS
 62
    30
 10
-433.82310099999989
 20
1.054427999999999
 30
0.0
 40
6.0
  0
CIRCLE
  5
F3D
  8
SIZE
  6
CONTINUOUS
 62
    30
 10
-433.82310099999989
 20
56.054428000000001
 30
0.0
 40
6.0
  0
CIRCLE
  5
F3E
  8
SIZE
  6
CONTINUOUS
 62
    30
 10
541.87243499999965
 20
56.054428000000001
 30
0.0
 40
6.0
  0
CIRCLE
  5
F3F
  8
SIZE
  6
CONTINUOUS
 62
    30
 10
541.87243499999965
 20
1.054427999999999
 30
0.0
 40
6.0
  0
CIRCLE
  5
F40
  8
SIZE
  6
CONTINUOUS
 62
    30
 10
0.0
 20
-258.53873599999991
 30
0.0
 40
6.0
  0
CIRCLE
  5
F41
  8
SIZE
  6
CONTINUOUS
 62
    30
 10
105.0
 20
-258.53873599999991
 30
0.0
 40
6.0
  0
LINE
  5
F42
  8
NOTE
  6
CONTINUOUS
 62
     4
 10
-105.0
 20
154.0544279999996
 30
0.0
 11
-105.0
 21
194.054428
 31
0.0
  0
LINE
  5
F43
  8
NOTE
  6
CONTINUOUS
 62
     4
 10
-85.0
 20
174.0544279999998
 30
0.0
 11
-125.0
 21
174.0544279999998
 31
0.0
  0
LINE
  5
F44
  8
NOTE
  6
CONTINUOUS
 62
     4
 10
105.0
 20
154.0544279999996
 30
0.0
 11
105.0
 21
194.054428
 31
0.0
  0
LINE
  5
F45
  8
NOTE
  6
CONTINUOUS
 62
     4
 10
85.0
 20
174.0544279999998
 30
0.0
 11
125.0
 21
174.0544279999998
 31
0.0
  0
LINE
  5
F46
  8
NOTE
  6
CONTINUOUS
 62
     4
 10
-142.5
 20
154.0544279999996
 30
0.0
 11
-142.5
 21
194.054428
 31
0.0
  0
LINE
  5
F47
  8
NOTE
  6
CONTINUOUS
 62
     4
 10
-122.5
 20
174.0544279999998
 30
0.0
 11
-162.5
 21
174.0544279999998
 31
0.0
  0
LINE
  5
F48
  8
NOTE
  6
CONTINUOUS
 62
     4
 10
142.5
 20
154.0544279999996
 30
0.0
 11
142.5
 21
194.054428
 31
0.0
  0
LINE
  5
F49
  8
NOTE
  6
CONTINUOUS
 62
     4
 10
122.5
 20
174.0544279999998
 30
0.0
 11
162.5
 21
174.0544279999998
 31
0.0
  0
LINE
  5
F4A
  8
NOTE
  6
CONTINUOUS
 62
     4
 10
105.0
 20
146.054428
 30
0.0
 11
105.0
 21
186.054428
 31
0.0
  0
LINE
  5
F4B
  8
NOTE
  6
CONTINUOUS
 62
     4
 10
85.0
 20
166.054428
 30
0.0
 11
125.0
 21
166.054428
 31
0.0
  0
LINE
  5
F4C
  8
NOTE
  6
CONTINUOUS
 62
     4
 10
141.5
 20
-19.945571999999999
 30
0.0
 11
141.5
 21
20.054428000000001
 31
0.0
  0
LINE
  5
F4D
  8
NOTE
  6
CONTINUOUS
 62
     4
 10
161.5
 20
0.054428
 30
0.0
 11
121.5
 21
0.054428
 31
0.0
  0
LINE
  5
F4E
  8
NOTE
  6
CONTINUOUS
 62
     4
 10
85.0
 20
-19.945571999999999
 30
0.0
 11
85.0
 21
20.054428000000001
 31
0.0
  0
LINE
  5
F4F
  8
NOTE
  6
CONTINUOUS
 62
     4
 10
105.0
 20
0.054428
 30
0.0
 11
65.0
 21
0.054428
 31
0.0
  0
LINE
  5
F50
  8
NOTE
  6
CONTINUOUS
 62
     4
 10
-85.0
 20
-19.945571999999999
 30
0.0
 11
-85.0
 21
20.054428000000001
 31
0.0
  0
LINE
  5
F51
  8
NOTE
  6
CONTINUOUS
 62
     4
 10
-65.0
 20
0.054428
 30
0.0
 11
-105.0
 21
0.054428
 31
0.0
  0
LINE
  5
F52
  8
NOTE
  6
CONTINUOUS
 62
     4
 10
-141.5
 20
-19.945571999999999
 30
0.0
 11
-141.5
 21
20.054428000000001
 31
0.0
  0
LINE
  5
F53
  8
NOTE
  6
CONTINUOUS
 62
     4
 10
-121.5
 20
0.054428
 30
0.0
 11
-161.5
 21
0.054428
 31
0.0
  0
LINE
  5
F54
  8
DETAIL
  6
CONTINUOUS
 62
     5
 10
125.5
 20
180.054428
 30
0.0
 11
128.4999999999998
 21
180.054428
 31
0.0
  0
LINE
  5
F55
  8
DETAIL
  6
CONTINUOUS
 62
     5
 10
-125.5
 20
180.054428
 30
0.0
 11
-128.4999999999998
 21
180.054428
 31
0.0
  0
LINE
  5
F56
  8
DETAIL
  6
CONTINUOUS
 62
     5
 10
-239.5
 20
62.054428000000001
 30
0.0
 11
-239.5
 21
160.054428
 31
0.0
  0
LINE
  5
F57
  8
DETAIL
  6
CONTINUOUS
 62
     5
 10
239.5
 20
62.054428000000001
 30
0.0
 11
239.5
 21
160.054428
 31
0.0
  0
LINE
  5
F58
  8
DETAIL
  6
CONTINUOUS
 62
     5
 10
-53.0
 20
170.054428
 30
0.0
 11
-53.0
 21
194.4544139999999
 31
0.0
  0
LINE
  5
F59
  8
DETAIL
  6
CONTINUOUS
 62
     5
 10
29.0
 20
170.054428
 30
0.0
 11
29.0
 21
194.4544139999999
 31
0.0
  0
ARC
  5
F5A
  8
DETAIL
  6
CONTINUOUS
 62
     5
 10
-48.0
 20
194.4544139999999
 30
0.0
 40
5.0
 50
90.0
 51
180.0
  0
ARC
  5
F5B
  8
DETAIL
  6
CONTINUOUS
 62
     5
 10
23.999999999999989
 20
194.4544139999999
 30
0.0
 40
5.0
 50
0.0
 51
90.0
  0
LINE
  5
F5C
  8
SIZE
  6
CONTINUOUS
 62
    30
 10
-11.99999999999998
 20
479.39250081275247
 30
0.0
 11
-227.49999999999989
 21
479.39250081275247
 31
0.0
  0
LINE
  5
F5D
  8
SIZE
  6
CONTINUOUS
 62
    30
 10
-239.49999999999989
 20
479.39250081275247
 30
0.0
 11
-521.89999999999975
 21
479.39250081275247
 31
0.0
  0
TEXT
  5
F5E
  8
SIZE
  6
CONTINUOUS
 62
    30
 10
-501.89999999999992
 20
499.39250081275247
 30
0.0
 40
64.0
  1
239.5
 41
0.9
  0
LINE
  5
F5F
  8
SIZE
  6
CONTINUOUS
 62
    30
 10
0.0000000000000012
 20
241.77614199999999
 30
0.0
 11
0.0000000000000176
 21
509.39250081275247
 31
0.0
  0
LINE
  5
F60
  8
SIZE
  6
CONTINUOUS
 62
    30
 10
12.000000000000011
 20
479.39250081275247
 30
0.0
 11
227.49999999999989
 21
479.39250081275247
 31
0.0
  0
LINE
  5
F61
  8
SIZE
  6
CONTINUOUS
 62
    30
 10
239.5
 20
479.39250081275247
 30
0.0
 11
521.90000000000009
 21
479.39250081275247
 31
0.0
  0
TEXT
  5
F62
  8
SIZE
  6
CONTINUOUS
 62
    30
 10
271.49999999999972
 20
499.39250081275247
 30
0.0
 40
64.0
  1
239.5
 41
0.9
  0
LINE
  5
F63
  8
SIZE
  6
CONTINUOUS
 62
    30
 10
-239.5
 20
180.054428
 30
0.0
 11
-239.49999999999989
 21
1118.630398286221
 31
0.0
  0
LINE
  5
F64
  8
SIZE
  6
CONTINUOUS
 62
    30
 10
239.5
 20
180.054428
 30
0.0
 11
239.5
 21
1118.630398286221
 31
0.0
  0
LINE
  5
F65
  8
SIZE
  6
CONTINUOUS
 62
    30
 10
-227.49999999999989
 20
1088.63039828622
 30
0.0
 11
227.49999999999989
 21
1088.63039828622
 31
0.0
  0
TEXT
  5
F66
  8
SIZE
  6
CONTINUOUS
 62
    30
 10
-72.685714285714212
 20
1108.630398286221
 30
0.0
 40
64.0
  1
479
 41
0.9
  0
LINE
  5
F67
  8
SIZE
  6
CONTINUOUS
 62
    30
 10
-53.0
 20
214.4544139999999
 30
0.0
 11
-52.999999999999979
 21
597.67044700495433
 31
0.0
  0
LINE
  5
F68
  8
SIZE
  6
CONTINUOUS
 62
    30
 10
29.0
 20
214.4544139999999
 30
0.0
 11
29.000000000000021
 21
597.67044700495433
 31
0.0
  0
LINE
  5
F69
  8
SIZE
  6
CONTINUOUS
 62
    30
 10
-64.999999999999972
 20
567.67044700495433
 30
0.0
 11
-76.999999999999972
 21
567.67044700495433
 31
0.0
  0
LINE
  5
F6A
  8
SIZE
  6
CONTINUOUS
 62
    30
 10
41.0
 20
567.67044700495433
 30
0.0
 11
53.0
 21
567.67044700495433
 31
0.0
  0
LINE
  5
F6B
  8
SIZE
  6
CONTINUOUS
 62
    30
 10
-52.999999999999979
 20
567.67044700495433
 30
0.0
 11
29.000000000000021
 21
567.67044700495433
 31
0.0
  0
TEXT
  5
F6C
  8
SIZE
  6
CONTINUOUS
 62
    30
 10
-84.685714285714241
 20
587.67044700495433
 30
0.0
 40
64.0
  1
%%c82
 41
0.9
  0
LINE
  5
F6D
  8
NOTE
  6
CONTINUOUS
 62
     4
 10
-147.617694
 20
-39.474975999999998
 30
0.0
 11
-141.5
 21
0.054428
 31
0.0
  0
LINE
  5
F6E
  8
NOTE
  6
CONTINUOUS
 62
     4
 10
-141.5
 20
0.054428
 30
0.0
 11
-166.56278
 21
-31.120194000000001
 31
0.0
  0
ARC
  5
F6F
  8
DETAIL
  6
CONTINUOUS
 62
     5
 10
-160.65313142131211
 20
-8.4994533355303261
 30
0.0
 40
4.3468685786884
 50
179.99996921553301
 51
234.48040473296439
  0
ARC
  5
F70
  8
DETAIL
  6
CONTINUOUS
 62
     5
 10
-143.85271285375001
 20
15.03675434828118
 30
0.0
 40
33.264114923741978
 50
234.4803248995992
 51
253.5286705122075
  0
ARC
  5
F71
  8
DETAIL
  6
CONTINUOUS
 62
     5
 10
-132.52209515784139
 20
53.358355301539113
 30
0.0
 40
73.225696436334644
 50
253.5285971813862
 51
263.01776918893609
  0
ARC
  5
F72
  8
DETAIL
  6
CONTINUOUS
 62
     5
 10
-125.00014469848151
 20
114.77611733569969
 30
0.0
 40
135.10235788464331
 50
263.01771384064739
 51
265.69788821887352
  0
LINE
  5
F73
  8
SIZE
  6
CONTINUOUS
 62
    30
 10
-212.5
 20
183.554428
 30
0.0
 11
-212.49999999999989
 21
721.91734958590303
 31
0.0
  0
LINE
  5
F74
  8
SIZE
  6
CONTINUOUS
 62
    30
 10
-200.49999999999989
 20
691.91734958590325
 30
0.0
 11
-188.4999999999998
 21
691.91734958590325
 31
0.0
  0
LINE
  5
F75
  8
SIZE
  6
CONTINUOUS
 62
    30
 10
-251.49999999999969
 20
691.91734958590325
 30
0.0
 11
-396.7571428571427
 21
691.91734958590325
 31
0.0
  0
LINE
  5
F76
  8
SIZE
  6
CONTINUOUS
 62
    30
 10
-212.49999999999989
 20
691.91734958590325
 30
0.0
 11
-239.49999999999989
 21
691.91734958590325
 31
0.0
  0
TEXT
  5
F77
  8
SIZE
  6
CONTINUOUS
 62
    30
 10
-376.75714285714281
 20
711.91734958590325
 30
0.0
 40
64.0
  1
27
 41
0.9
  0
LINE
  5
F78
  8
SIZE
  6
CONTINUOUS
 62
    30
 10
-175.49999999999989
 20
817.85799615510257
 30
0.0
 11
-163.4999999999998
 21
817.85799615510257
 31
0.0
  0
LINE
  5
F79
  8
SIZE
  6
CONTINUOUS
 62
    30
 10
-251.49999999999969
 20
817.85799615510257
 30
0.0
 11
-396.7571428571427
 21
817.85799615510257
 31
0.0
  0
LINE
  5
F7A
  8
SIZE
  6
CONTINUOUS
 62
    30
 10
-187.4999999999998
 20
817.85799615510257
 30
0.0
 11
-239.49999999999989
 21
817.85799615510257
 31
0.0
  0
TEXT
  5
F7B
  8
SIZE
  6
CONTINUOUS
 62
    30
 10
-376.75714285714281
 20
837.85799615510314
 30
0.0
 40
64.0
  1
52
 41
0.9
  0
LINE
  5
F7C
  8
SIZE
  6
CONTINUOUS
 62
    30
 10
-137.4999999999998
 20
954.81845581528523
 30
0.0
 11
-227.49999999999989
 21
954.81845581528523
 31
0.0
  0
LINE
  5
F7D
  8
SIZE
  6
CONTINUOUS
 62
    30
 10
-239.49999999999989
 20
954.81845581528523
 30
0.0
 11
-420.4142857142856
 21
954.81845581528523
 31
0.0
  0
TEXT
  5
F7E
  8
SIZE
  6
CONTINUOUS
 62
    30
 10
-400.41428571428571
 20
974.81845581528523
 30
0.0
 40
64.0
  1
114
 41
0.9
  0
LINE
  5
F7F
  8
SIZE
  6
CONTINUOUS
 62
    30
 10
148.5
 20
180.054428
 30
0.0
 11
938.64479081032005
 21
180.0544279999994
 31
0.0
  0
LINE
  5
F80
  8
SIZE
  6
CONTINUOUS
 62
    30
 10
926.95475699999997
 20
0.0544280000000057
 30
0.0
 11
878.64479081031982
 21
0.0544280000000194
 31
0.0
  0
LINE
  5
F81
  8
SIZE
  6
CONTINUOUS
 62
    30
 10
908.64479081031993
 20
180.0544279999994
 30
0.0
 11
908.64479081031993
 21
0.0544280000000109
 31
0.0
  0
TEXT
  5
F82
  8
SIZE
  6
CONTINUOUS
 62
    30
 10
888.64479081032005
 20
21.427779542703181
 30
0.0
 40
64.0
  1
180
 50
90.0
 41
0.9
  0
ARC
  5
F83
  8
DETAIL
  6
CONTINUOUS
 62
     5
 10
160.65313142131211
 20
-8.4994533355303261
 30
0.0
 40
4.3468685786884
 50
305.51959526703553
 51
0.0000307844666481
  0
ARC
  5
F84
  8
DETAIL
  6
CONTINUOUS
 62
     5
 10
143.85271285375001
 20
15.03675434828118
 30
0.0
 40
33.264114923741978
 50
286.47132948779222
 51
305.51967510040072
  0
ARC
  5
F85
  8
DETAIL
  6
CONTINUOUS
 62
     5
 10
132.52209515784139
 20
53.358355301539113
 30
0.0
 40
73.225696436334644
 50
276.98223081106391
 51
286.4714028186138
  0
ARC
  5
F86
  8
DETAIL
  6
CONTINUOUS
 62
     5
 10
125.00014469848151
 20
114.77611733569969
 30
0.0
 40
135.10235788464331
 50
274.30211178112643
 51
276.98228615935238
  0
LINE
  5
F87
  8
SIZE
  6
CONTINUOUS
 62
    30
 10
212.5
 20
183.554428
 30
0.0
 11
212.5
 21
723.49160525190734
 31
0.0
  0
LINE
  5
F88
  8
SIZE
  6
CONTINUOUS
 62
    30
 10
200.49999999999989
 20
693.49160525190734
 30
0.0
 11
188.4999999999998
 21
693.49160525190734
 31
0.0
  0
LINE
  5
F89
  8
SIZE
  6
CONTINUOUS
 62
    30
 10
251.5
 20
693.49160525190734
 30
0.0
 11
396.75714285714281
 21
693.49160525190734
 31
0.0
  0
LINE
  5
F8A
  8
SIZE
  6
CONTINUOUS
 62
    30
 10
212.5
 20
693.49160525190734
 30
0.0
 11
239.5
 21
693.49160525190734
 31
0.0
  0
TEXT
  5
F8B
  8
SIZE
  6
CONTINUOUS
 62
    30
 10
283.49999999999989
 20
713.49160525190734
 30
0.0
 40
64.0
  1
27
 41
0.9
  0
LINE
  5
F8C
  8
SIZE
  6
CONTINUOUS
 62
    30
 10
175.5
 20
817.85799615510257
 30
0.0
 11
163.4999999999998
 21
817.85799615510257
 31
0.0
  0
LINE
  5
F8D
  8
SIZE
  6
CONTINUOUS
 62
    30
 10
251.5
 20
817.85799615510257
 30
0.0
 11
396.75714285714281
 21
817.85799615510257
 31
0.0
  0
LINE
  5
F8E
  8
SIZE
  6
CONTINUOUS
 62
    30
 10
187.5
 20
817.85799615510257
 30
0.0
 11
239.5
 21
817.85799615510257
 31
0.0
  0
TEXT
  5
F8F
  8
SIZE
  6
CONTINUOUS
 62
    30
 10
283.49999999999989
 20
837.85799615510314
 30
0.0
 40
64.0
  1
52
 41
0.9
  0
LINE
  5
F90
  8
SIZE
  6
CONTINUOUS
 62
    30
 10
137.5
 20
953.24420014928069
 30
0.0
 11
227.49999999999989
 21
953.24420014928069
 31
0.0
  0
LINE
  5
F91
  8
SIZE
  6
CONTINUOUS
 62
    30
 10
239.5
 20
953.24420014928069
 30
0.0
 11
420.4142857142856
 21
953.24420014928069
 31
0.0
  0
TEXT
  5
F92
  8
SIZE
  6
CONTINUOUS
 62
    30
 10
271.49999999999972
 20
973.24420014928103
 30
0.0
 40
64.0
  1
114
 41
0.9
  0
LINE
  5
F93
  8
NOTE
  6
CONTINUOUS
 62
     4
 10
136.90627599999999
 20
141.929969
 30
0.0
 11
105.0
 21
166.054428
 31
0.0
  0
LINE
  5
F94
  8
NOTE
  6
CONTINUOUS
 62
     4
 10
105.0
 20
166.054428
 30
0.0
 11
117.3640846754096
 21
129.73971852215979
 31
0.0
  0
LINE
  5
F95
  8
NOTE
  6
CONTINUOUS
 62
     4
 10
180.861693
 20
187.574308
 30
0.0
 11
143.257589
 21
173.9386439999999
 31
0.0
  0
LINE
  5
F96
  8
NOTE
  6
CONTINUOUS
 62
     4
 10
143.257589
 20
173.9386439999999
 30
0.0
 11
169.00586699999991
 21
204.5495279999999
 31
0.0
  0
TEXT
  5
F97
  8
ETC
  6
CONTINUOUS
 62
    61
 10
1495.307539763581
 20
1115.9958981553721
 30
0.0
 40
64.0
  1
VD-13ZF7_5
 41
0.9
  0
TEXT
  5
F98
  8
ETC
  6
CONTINUOUS
 62
    61
 10
1648.344368210127
 20
816.51419391439504
 30
0.0
 40
50.0
  1
VD-13ZF7-BL
 41
0.9
  0
TEXT
  5
F99
  8
ETC
  6
CONTINUOUS
 62
    61
 10
1648.344368210127
 20
613.39326069330673
 30
0.0
 40
50.0
  1
VD-15ZF7-BL
 41
0.9
  0
TEXT
  5
F9A
  8
ETC
  6
CONTINUOUS
 62
    61
 10
1646.227708019293
 20
710.11751460811047
 30
0.0
 40
50.0
  1
VD-15ZF7
 41
0.9
  0
TEXT
  5
F9B
  8
ETC
  6
CONTINUOUS
 62
    61
 10
1494.6026647635811
 20
1012.846898155369
 30
0.0
 40
64.0
  1
èÀïCÉ¯
 41
0.9
  0
TEXT
  5
F9C
  8
ETC
  6
CONTINUOUS
 62
    61
 10
1646.227708019293
 20
913.23844782919832
 30
0.0
 40
50.0
  1
VD-13ZF7
 41
0.9
  0
CIRCLE
  5
F9D
  8
SIZE
  6
CONTINUOUS
 62
    30
 10
0.0000000000000158
 20
479.39250081275247
 30
0.0
 40
6.0
  0
LINE
  5
F9E
  8
SIZE
  6
CONTINUOUS
 62
    30
 10
0.0000000000000158
 20
479.39250081275247
 30
0.0
 11
12.000000000000011
 21
479.39250081275247
 31
0.0
  0
CIRCLE
  5
F9F
  8
SIZE
  6
CONTINUOUS
 62
    30
 10
0.0000000000000145
 20
479.39250081275247
 30
0.0
 40
6.0
  0
LINE
  5
FA0
  8
SIZE
  6
CONTINUOUS
 62
    30
 10
0.0000000000000145
 20
479.39250081275247
 30
0.0
 11
-11.99999999999998
 21
479.39250081275247
 31
0.0
  0
CIRCLE
  5
FA1
  8
SIZE
  6
CONTINUOUS
 62
    30
 10
-239.49999999999989
 20
479.39250081275247
 30
0.0
 40
6.0
  0
LINE
  5
FA2
  8
SIZE
  6
CONTINUOUS
 62
    30
 10
-239.49999999999989
 20
479.39250081275247
 30
0.0
 11
-227.49999999999989
 21
479.39250081275247
 31
0.0
  0
CIRCLE
  5
FA3
  8
SIZE
  6
CONTINUOUS
 62
    30
 10
-52.999999999999979
 20
567.67044700495433
 30
0.0
 40
6.0
  0
LINE
  5
FA4
  8
SIZE
  6
CONTINUOUS
 62
    30
 10
-52.999999999999979
 20
567.67044700495433
 30
0.0
 11
-64.999999999999972
 21
567.67044700495433
 31
0.0
  0
CIRCLE
  5
FA5
  8
SIZE
  6
CONTINUOUS
 62
    30
 10
-239.49999999999989
 20
954.81845581528523
 30
0.0
 40
6.0
  0
LINE
  5
FA6
  8
SIZE
  6
CONTINUOUS
 62
    30
 10
-239.49999999999989
 20
954.81845581528523
 30
0.0
 11
-227.49999999999989
 21
954.81845581528523
 31
0.0
  0
CIRCLE
  5
FA7
  8
SIZE
  6
CONTINUOUS
 62
    30
 10
-239.49999999999989
 20
817.85799615510257
 30
0.0
 40
6.0
  0
LINE
  5
FA8
  8
SIZE
  6
CONTINUOUS
 62
    30
 10
-239.49999999999989
 20
817.85799615510257
 30
0.0
 11
-251.49999999999969
 21
817.85799615510257
 31
0.0
  0
CIRCLE
  5
FA9
  8
SIZE
  6
CONTINUOUS
 62
    30
 10
-239.49999999999989
 20
691.91734958590325
 30
0.0
 40
6.0
  0
LINE
  5
FAA
  8
SIZE
  6
CONTINUOUS
 62
    30
 10
-239.49999999999989
 20
691.91734958590325
 30
0.0
 11
-251.49999999999969
 21
691.91734958590325
 31
0.0
  0
CIRCLE
  5
FAB
  8
SIZE
  6
CONTINUOUS
 62
    30
 10
-187.4999999999998
 20
817.85799615510257
 30
0.0
 40
6.0
  0
LINE
  5
FAC
  8
SIZE
  6
CONTINUOUS
 62
    30
 10
-187.4999999999998
 20
817.85799615510257
 30
0.0
 11
-175.49999999999989
 21
817.85799615510257
 31
0.0
  0
CIRCLE
  5
FAD
  8
SIZE
  6
CONTINUOUS
 62
    30
 10
-212.49999999999989
 20
691.91734958590325
 30
0.0
 40
6.0
  0
LINE
  5
FAE
  8
SIZE
  6
CONTINUOUS
 62
    30
 10
-212.49999999999989
 20
691.91734958590325
 30
0.0
 11
-200.49999999999989
 21
691.91734958590325
 31
0.0
  0
CIRCLE
  5
FAF
  8
SIZE
  6
CONTINUOUS
 62
    30
 10
-125.4999999999999
 20
954.81845581528523
 30
0.0
 40
6.0
  0
LINE
  5
FB0
  8
SIZE
  6
CONTINUOUS
 62
    30
 10
-125.4999999999999
 20
954.81845581528523
 30
0.0
 11
-137.4999999999998
 21
954.81845581528523
 31
0.0
  0
CIRCLE
  5
FB1
  8
SIZE
  6
CONTINUOUS
 62
    30
 10
-239.49999999999989
 20
1088.63039828622
 30
0.0
 40
6.0
  0
LINE
  5
FB2
  8
SIZE
  6
CONTINUOUS
 62
    30
 10
-239.49999999999989
 20
1088.63039828622
 30
0.0
 11
-227.49999999999989
 21
1088.63039828622
 31
0.0
  0
CIRCLE
  5
FB3
  8
SIZE
  6
CONTINUOUS
 62
    30
 10
908.64479081031993
 20
0.0544280000000109
 30
0.0
 40
10.0
  0
CIRCLE
  5
FB4
  8
SIZE
  6
CONTINUOUS
 62
    30
 10
239.5
 20
479.39250081275247
 30
0.0
 40
6.0
  0
LINE
  5
FB5
  8
SIZE
  6
CONTINUOUS
 62
    30
 10
239.5
 20
479.39250081275247
 30
0.0
 11
227.49999999999989
 21
479.39250081275247
 31
0.0
  0
CIRCLE
  5
FB6
  8
SIZE
  6
CONTINUOUS
 62
    30
 10
29.000000000000021
 20
567.67044700495433
 30
0.0
 40
6.0
  0
LINE
  5
FB7
  8
SIZE
  6
CONTINUOUS
 62
    30
 10
29.000000000000021
 20
567.67044700495433
 30
0.0
 11
41.0
 21
567.67044700495433
 31
0.0
  0
CIRCLE
  5
FB8
  8
SIZE
  6
CONTINUOUS
 62
    30
 10
908.64479081031993
 20
180.0544279999994
 30
0.0
 40
10.0
  0
CIRCLE
  5
FB9
  8
SIZE
  6
CONTINUOUS
 62
    30
 10
239.5
 20
953.24420014928069
 30
0.0
 40
6.0
  0
LINE
  5
FBA
  8
SIZE
  6
CONTINUOUS
 62
    30
 10
239.5
 20
953.24420014928069
 30
0.0
 11
227.49999999999989
 21
953.24420014928069
 31
0.0
  0
CIRCLE
  5
FBB
  8
SIZE
  6
CONTINUOUS
 62
    30
 10
187.5
 20
817.85799615510257
 30
0.0
 40
6.0
  0
LINE
  5
FBC
  8
SIZE
  6
CONTINUOUS
 62
    30
 10
187.5
 20
817.85799615510257
 30
0.0
 11
175.5
 21
817.85799615510257
 31
0.0
  0
CIRCLE
  5
FBD
  8
SIZE
  6
CONTINUOUS
 62
    30
 10
212.5
 20
693.49160525190734
 30
0.0
 40
6.0
  0
LINE
  5
FBE
  8
SIZE
  6
CONTINUOUS
 62
    30
 10
212.5
 20
693.49160525190734
 30
0.0
 11
200.49999999999989
 21
693.49160525190734
 31
0.0
  0
CIRCLE
  5
FBF
  8
SIZE
  6
CONTINUOUS
 62
    30
 10
125.5
 20
953.24420014928069
 30
0.0
 40
6.0
  0
LINE
  5
FC0
  8
SIZE
  6
CONTINUOUS
 62
    30
 10
125.5
 20
953.24420014928069
 30
0.0
 11
137.5
 21
953.24420014928069
 31
0.0
  0
CIRCLE
  5
FC1
  8
SIZE
  6
CONTINUOUS
 62
    30
 10
239.5
 20
817.85799615510257
 30
0.0
 40
6.0
  0
LINE
  5
FC2
  8
SIZE
  6
CONTINUOUS
 62
    30
 10
239.5
 20
817.85799615510257
 30
0.0
 11
251.5
 21
817.85799615510257
 31
0.0
  0
CIRCLE
  5
FC3
  8
SIZE
  6
CONTINUOUS
 62
    30
 10
239.5
 20
693.49160525190734
 30
0.0
 40
6.0
  0
LINE
  5
FC4
  8
SIZE
  6
CONTINUOUS
 62
    30
 10
239.5
 20
693.49160525190734
 30
0.0
 11
251.5
 21
693.49160525190734
 31
0.0
  0
CIRCLE
  5
FC5
  8
SIZE
  6
CONTINUOUS
 62
    30
 10
239.5
 20
1088.63039828622
 30
0.0
 40
6.0
  0
LINE
  5
FC6
  8
SIZE
  6
CONTINUOUS
 62
    30
 10
239.5
 20
1088.63039828622
 30
0.0
 11
227.49999999999989
 21
1088.63039828622
 31
0.0
  0
LINE
  5
FC7
  8
SIZE
  6
CONTINUOUS
 62
    30
 10
250.49999999999989
 20
140.6363257014572
 30
0.0
 11
250.49999999999989
 21
372.67198522639387
 31
0.0
  0
LINE
  5
FD1
  8
SIZE
  6
CONTINUOUS
 62
    30
 10
218.76360605076661
 20
357.46635534667882
 30
0.0
 11
401.37348222637758
 21
357.46635534667882
 31
0.0
  0
CIRCLE
  5
FD2
  8
SIZE
  6
CONTINUOUS
 62
    30
 10
250.49999999999989
 20
357.46635534667882
 30
0.0
 40
6.0
  0
CIRCLE
  5
FD3
  8
SIZE
  6
CONTINUOUS
 62
    30
 10
239.5
 20
357.46635534667882
 30
0.0
 40
6.0
  0
TEXT
  5
FD4
  8
SIZE
  6
CONTINUOUS
 62
    30
 10
302.5218558814592
 20
371.36492824081671
 30
0.0
 40
64.0
  1
11
 41
0.9
  0
LINE
  5
10A1
  8
DETAIL
  6
DASHDOT1
 62
     5
 10
173.5909473395761
 20
149.05434041799219
 30
0.0
 11
173.5909473395761
 21
61.054336417992339
 31
0.0
  0
ARC
  5
10A2
  8
DETAIL
  6
DASHDOT1
 62
     5
 10
173.5909473395761
 20
139.05433641799229
 30
0.0
 40
78.0
 50
270.0
 51
350.4059999999979
  0
LINE
  5
10A3
  8
DETAIL
  6
DASHED2
 62
     5
 10
250.7113413395752
 20
127.3371454179925
 30
0.0
 11
203.36319333957539
 21
135.3403854179922
 31
0.0
  0
LINE
  5
10A4
  8
DETAIL
  6
DASHED2
 62
     5
 10
250.4999993395752
 20
126.0544284179922
 30
0.0
 11
203.17135233957549
 21
134.05437141799229
 31
0.0
  0
LINE
  5
10A5
  8
DETAIL
  6
DASHED2
 62
     5
 10
154.54117433957609
 20
135.3543134179923
 30
0.0
 11
167.03666533957599
 21
135.35432841799229
 31
0.0
  0
LINE
  5
10A6
  8
DETAIL
  6
DASHED2
 62
     5
 10
154.54117633957611
 20
134.05431341799229
 30
0.0
 11
203.17135233957549
 21
134.05437141799229
 31
0.0
  0
LINE
  5
10A7
  8
DETAIL
  6
DASHED2
 62
     5
 10
154.70092433957589
 20
134.05431341799229
 30
0.0
 11
154.70092333957609
 21
135.3543134179923
 31
0.0
  0
LINE
  5
10A8
  8
DETAIL
  6
DASHED2
 62
     5
 10
179.45580995757791
 20
137.36514024502119
 30
0.0
 11
179.172027159409
 21
138.192843285648
 31
0.0
  0
LINE
  5
10A9
  8
DETAIL
  6
DASHED2
 62
     5
 10
180.0233755539156
 20
135.70973416376691
 30
0.0
 11
179.73959275574629
 21
136.53743720439391
 31
0.0
  0
LINE
  5
10AA
  8
DETAIL
  6
DASHED2
 62
     5
 10
179.73959275574629
 20
136.53743720439391
 30
0.0
 11
179.45580995757791
 21
137.36514024502119
 31
0.0
  0
LINE
  5
10AB
  8
DETAIL
  6
DASHED2
 62
     5
 10
178.8882443612396
 20
139.02054632627511
 30
0.0
 11
178.60446156307071
 21
139.84824936690231
 31
0.0
  0
LINE
  5
10AC
  8
DETAIL
  6
DASHED2
 62
     5
 10
178.60446156307071
 20
139.84824936690231
 30
0.0
 11
178.32067876490231
 21
140.67595240752919
 31
0.0
  0
LINE
  5
10AD
  8
DETAIL
  6
DASHED2
 62
     5
 10
179.172027159409
 20
138.192843285648
 30
0.0
 11
178.8882443612396
 21
139.02054632627511
 31
0.0
  0
LINE
  5
10AE
  8
DETAIL
  6
DASHED2
 62
     5
 10
180.59094115025391
 20
134.0543280825128
 30
0.0
 11
180.30715835208471
 21
134.8820311231398
 31
0.0
  0
LINE
  5
10AF
  8
DETAIL
  6
DASHED2
 62
     5
 10
180.30715835208471
 20
134.8820311231398
 30
0.0
 11
180.0233755539156
 21
135.70973416376691
 31
0.0
  0
LINE
  5
10B0
  8
DETAIL
  6
DASHED2
 62
     5
 10
180.30498533957589
 20
135.35434441799231
 30
0.0
 11
203.44019533957541
 21
135.3543714179923
 31
0.0
  0
LINE
  5
10B1
  8
DETAIL
  6
DASHED2
 62
     5
 10
167.7260842507732
 20
137.36514024502119
 30
0.0
 11
168.00986704894279
 21
138.192843285648
 31
0.0
  0
LINE
  5
10B2
  8
DETAIL
  6
DASHED2
 62
     5
 10
168.00986704894279
 20
138.192843285648
 30
0.0
 11
168.2936498471112
 21
139.02054632627511
 31
0.0
  0
LINE
  5
10B3
  8
DETAIL
  6
DASHED2
 62
     5
 10
168.2936498471112
 20
139.02054632627511
 30
0.0
 11
168.57743264528011
 21
139.84824936690231
 31
0.0
  0
LINE
  5
10B4
  8
DETAIL
  6
DASHED2
 62
     5
 10
168.57743264528011
 20
139.84824936690231
 30
0.0
 11
168.86121544344951
 21
140.67595240752919
 31
0.0
  0
LINE
  5
10B5
  8
DETAIL
  6
DASHED2
 62
     5
 10
167.15851865443571
 20
135.70973416376691
 30
0.0
 11
167.4423014526046
 21
136.53743720439391
 31
0.0
  0
LINE
  5
10B6
  8
DETAIL
  6
DASHED2
 62
     5
 10
167.4423014526046
 20
136.53743720439391
 30
0.0
 11
167.7260842507732
 21
137.36514024502119
 31
0.0
  0
LINE
  5
10B7
  8
DETAIL
  6
DASHED2
 62
     5
 10
166.59095305809791
 20
134.0543280825128
 30
0.0
 11
166.8747358562666
 21
134.8820311231398
 31
0.0
  0
LINE
  5
10B8
  8
DETAIL
  6
DASHED2
 62
     5
 10
166.8747358562666
 20
134.8820311231398
 30
0.0
 11
167.15851865443571
 21
135.70973416376691
 31
0.0
  0
LINE
  5
10B9
  8
BASIS
  6
DASHED2
 62
     6
 10
183.59095033957621
 20
139.05433641799229
 30
0.0
 11
163.59094333957611
 21
139.05433641799229
 31
0.0
  0
CIRCLE
  5
10BA
  8
DETAIL
  6
DASHED2
 62
     5
 10
173.5909473395761
 20
139.05433641799229
 30
0.0
 40
2.1000000000000001
  0
CIRCLE
  5
10BB
  8
DETAIL
  6
DASHED2
 62
     5
 10
173.5909473395761
 20
139.05433641799229
 30
0.0
 40
2.1000000000000001
  0
ARC
  5
10BC
  8
DETAIL
  6
DASHED2
 62
     5
 10
173.5909473395761
 20
139.05433641799229
 30
0.0
 40
5.0
 50
18.92471300000318
 51
161.07542399999801
  0
LINE
  5
10BD
  8
DETAIL
  6
DASHED2
 62
     5
 10
250.4999993395752
 20
126.0544284179922
 30
0.0
 11
250.7113413395752
 21
127.3371454179925
 31
0.0
  0
ENDSEC
  0
EOF
