  0
SECTION
  2
HEADER
  9
$ACADVER
  1
AC1009
  9
$DWGCODEPAGE
  3
dos932
  9
$INSBASE
 10
0.0
 20
0.0
 30
0.0
  9
$EXTMIN
 10
-813.46891676479754
 20
-1425.9338273270221
 30
-0.0015258207003583
  9
$EXTMAX
 10
1500.952160557443
 20
757.50733243476861
 30
0.0000000349246037
  9
$LIMMIN
 10
-2970.0
 20
-2100.0
  9
$LIMMAX
 10
2970.0
 20
2100.0
  9
$ORTHOMODE
 70
     1
  9
$REGENMODE
 70
     1
  9
$FILLMODE
 70
     1
  9
$QTEXTMODE
 70
     0
  9
$MIRRTEXT
 70
     0
  9
$LTSCALE
 40
20.0
  9
$ATTMODE
 70
     1
  9
$TEXTSIZE
 40
64.0
  9
$TRACEWID
 40
0.05
  9
$TEXTSTYLE
  7
STANDARD
  9
$CLAYER
  8
SIZE
  9
$CELTYPE
  6
CONTINUOUS
  9
$CECOLOR
 62
     7
  9
$DIMSCALE
 40
1.0
  9
$DIMASZ
 40
12.0
  9
$DIMEXO
 40
20.0
  9
$DIMDLI
 40
200.0
  9
$DIMRND
 40
0.0
  9
$DIMDLE
 40
0.0
  9
$DIMEXE
 40
20.0
  9
$DIMTP
 40
0.0
  9
$DIMTM
 40
0.0
  9
$DIMTXT
 40
64.0
  9
$DIMCEN
 40
0.09
  9
$DIMTSZ
 40
0.0
  9
$DIMTOL
 70
     0
  9
$DIMLIM
 70
     0
  9
$DIMTIH
 70
     0
  9
$DIMTOH
 70
     0
  9
$DIMSE1
 70
     0
  9
$DIMSE2
 70
     0
  9
$DIMTAD
 70
     1
  9
$DIMZIN
 70
     8
  9
$DIMBLK
  1

  9
$DIMASO
 70
     1
  9
$DIMSHO
 70
     0
  9
$DIMPOST
  1

  9
$DIMAPOST
  1

  9
$DIMALT
 70
     0
  9
$DIMALTD
 70
     2
  9
$DIMALTF
 40
25.399999999999999
  9
$DIMLFAC
 40
1.0
  9
$DIMTOFL
 70
     1
  9
$DIMTVP
 40
0.0
  9
$DIMTIX
 70
     1
  9
$DIMSOXD
 70
     0
  9
$DIMSAH
 70
     0
  9
$DIMBLK1
  1

  9
$DIMBLK2
  1

  9
$DIMSTYLE
  2
STANDARD
  9
$DIMCLRD
 70
     7
  9
$DIMCLRE
 70
     7
  9
$DIMCLRT
 70
     7
  9
$DIMTFAC
 40
1.0
  9
$DIMGAP
 40
25.0
  9
$LUNITS
 70
     2
  9
$LUPREC
 70
     4
  9
$SKETCHINC
 40
0.1
  9
$FILLETRAD
 40
3.0
  9
$AUNITS
 70
     1
  9
$AUPREC
 70
     3
  9
$MENU
  1
ACAD
  9
$ELEVATION
 40
0.0
  9
$PELEVATION
 40
0.0
  9
$THICKNESS
 40
0.0
  9
$LIMCHECK
 70
     0
  9
$CHAMFERA
 40
0.0
  9
$CHAMFERB
 40
0.0
  9
$SKPOLY
 70
     0
  9
$TDCREATE
 40
2453019.62301037
  9
$TDUPDATE
 40
2459025.495702303
  9
$TDINDWG
 40
1.7129905208
  9
$TDUSRTIMER
 40
1.7129905208
  9
$USRTIMER
 70
     1
  9
$ANGBASE
 50
0.0
  9
$ANGDIR
 70
     0
  9
$PDMODE
 70
     3
  9
$PDSIZE
 40
-2.0
  9
$PLINEWID
 40
0.0
  9
$SPLFRAME
 70
     0
  9
$SPLINETYPE
 70
     6
  9
$SPLINESEGS
 70
     8
  9
$SURFTAB1
 70
     6
  9
$SURFTAB2
 70
     6
  9
$SURFTYPE
 70
     6
  9
$SURFU
 70
     6
  9
$SURFV
 70
     6
  9
$UCSNAME
  2

  9
$UCSORG
 10
0.0
 20
0.0
 30
0.0
  9
$UCSXDIR
 10
1.0
 20
0.0
 30
0.0
  9
$UCSYDIR
 10
0.0
 20
1.0
 30
0.0
  9
$PUCSNAME
  2

  9
$PUCSORG
 10
0.0
 20
0.0
 30
0.0
  9
$PUCSXDIR
 10
1.0
 20
0.0
 30
0.0
  9
$PUCSYDIR
 10
0.0
 20
1.0
 30
0.0
  9
$USERI1
 70
     0
  9
$USERI2
 70
     0
  9
$USERI3
 70
     0
  9
$USERI4
 70
     0
  9
$USERI5
 70
     0
  9
$USERR1
 40
20.0
  9
$USERR2
 40
0.0
  9
$USERR3
 40
0.0
  9
$USERR4
 40
0.0
  9
$USERR5
 40
0.0
  9
$WORLDVIEW
 70
     1
  9
$SHADEDGE
 70
     3
  9
$SHADEDIF
 70
    70
  9
$TILEMODE
 70
     1
  9
$MAXACTVP
 70
    48
  9
$PINSBASE
 10
0.0
 20
0.0
 30
0.0
  9
$PLIMCHECK
 70
     0
  9
$PEXTMIN
 10
-100000000000000000000.0
 20
-100000000000000000000.0
 30
-100000000000000000000.0
  9
$PEXTMAX
 10
100000000000000000000.0
 20
100000000000000000000.0
 30
100000000000000000000.0
  9
$PLIMMIN
 10
0.0
 20
0.0
  9
$PLIMMAX
 10
12.0
 20
9.0
  9
$UNITMODE
 70
     0
  9
$VISRETAIN
 70
     0
  9
$PLINEGEN
 70
     0
  9
$PSLTSCALE
 70
     0
  9
$TREEDEPTH
 70
  3020
  9
$ATTDIA
 70
     0
  9
$ATTREQ
 70
     1
  9
$BLIPMODE
 70
     1
  9
$COORDS
 70
     1
  9
$DRAGMODE
 70
     2
  9
$OSMODE
 70
     0
  9
$HANDLING
 70
     0
  9
$HANDSEED
  5
EF38
  0
ENDSEC
  0
SECTION
  2
TABLES
  0
TABLE
  2
LTYPE
 70
     3
  0
LTYPE
  2
CONTINUOUS
 70
     0
  3
実線
 72
    65
 73
     0
 40
0.0
  0
LTYPE
  2
DASHDOT
 70
     0
  3
____ _ ____ _ ____ _ ____ _ ____ _ ____ _ ____
 72
    65
 73
     4
 40
5.5
 49
4.0
 49
-0.6
 49
0.3
 49
-0.6
  0
LTYPE
  2
CENTER
 70
     0
  3
Center ____ _ ____ _ ____ _ ____ _ ____ _ ____
 72
    65
 73
     4
 40
1.0
 49
0.5
 49
-0.25
 49
0.0
 49
-0.25
  0
ENDTAB
  0
TABLE
  2
LAYER
 70
    12
  0
LAYER
  2
0
 70
     0
 62
     7
  6
CONTINUOUS
  0
LAYER
  2
BASIS
 70
     0
 62
     6
  6
DASHDOT
  0
LAYER
  2
OUTLINE
 70
     0
 62
     3
  6
CONTINUOUS
  0
LAYER
  2
DETAIL
 70
     0
 62
     5
  6
CONTINUOUS
  0
LAYER
  2
SIZE
 70
     0
 62
    30
  6
CONTINUOUS
  0
LAYER
  2
ARRANGE
 70
     0
 62
     1
  6
CONTINUOUS
  0
LAYER
  2
DEFPOINTS
 70
     0
 62
     7
  6
CONTINUOUS
  0
LAYER
  2
ETC
 70
     0
 62
    61
  6
CONTINUOUS
  0
LAYER
  2
FIX
 70
     0
 62
    11
  6
CONTINUOUS
  0
LAYER
  2
NOTE
 70
     0
 62
     4
  6
CONTINUOUS
  0
LAYER
  2
SERVICESPACE
 70
    64
 62
     2
  6
DASHDOT
  0
LAYER
  2
SYMBOLLINE
 70
    64
 62
    15
  6
CONTINUOUS
  0
ENDTAB
  0
TABLE
  2
STYLE
 70
     1
  0
STYLE
  2
STANDARD
 70
     0
 40
64.0
 41
0.9
 50
0.0
 71
     0
 42
64.0
  3
SIMPLEX.shx
  4
BIGFONT.shx
  0
ENDTAB
  0
TABLE
  2
APPID
 70
    19
  0
APPID
  2
ACAD
 70
     0
  0
APPID
  2
AUTOCAD_POSTSCRIPT_FIGURE
 70
     0
  0
APPID
  2
ACAD_EXEMPT_FROM_CAD_STANDARDS
 70
     0
  0
APPID
  2
ACAD_PSEXT
 70
     0
  0
APPID
  2
ACAUTHENVIRON
 70
     0
  0
APPID
  2
GENIUS_GENOENT_13
 70
     0
  0
APPID
  2
GENIUS_GENCFG_13
 70
     0
  0
APPID
  2
GENIUS_GENCFG0_13
 70
     0
  0
APPID
  2
GENIUS_GENCFG1_13
 70
     0
  0
APPID
  2
GENIUS_GENCFG2_13
 70
     0
  0
APPID
  2
GENIUS_GENCFG3_13
 70
     0
  0
APPID
  2
GENIUS_GENCFG4_13
 70
     0
  0
APPID
  2
GENIUS_GEVCFG0_13
 70
     0
  0
APPID
  2
CONTENTBLOCKICON
 70
     0
  0
APPID
  2
CONTENTBLOCKDESCRIPTION
 70
     0
  0
APPID
  2
ACAD_NAV_VCDISPLAY
 70
     0
  0
APPID
  2
ACAD_MLEADERVER
 70
     0
  0
APPID
  2
ACDBDYNAMICBLOCKTRUENAME
 70
     0
  0
APPID
  2
ACDBDYNAMICBLOCKGUID
 70
     0
  0
ENDTAB
  0
TABLE
  2
DIMSTYLE
 70
     1
  0
DIMSTYLE
  2
STANDARD
 70
     0
  3

  4

  5
_ORIGIN
  6

  7

 40
1.0
 41
12.0
 42
20.0
 43
200.0
 44
20.0
 45
0.0
 46
0.0
 47
0.0
 48
0.0
140
64.0
141
0.09
142
0.0
143
25.399999999999999
144
1.0
145
0.0
146
1.0
147
25.0
 71
     0
 72
     0
 73
     0
 74
     0
 75
     0
 76
     0
 77
     1
 78
     8
170
     0
171
     2
172
     1
173
     0
174
     1
175
     0
176
     7
177
     7
178
     7
  0
ENDTAB
  0
TABLE
  2
VIEW
 70
     1
  0
VIEW
  2
ALL
 70
     0
 40
4282.6198079999986
 10
0.0
 20
41.309904000000003
 41
5940.0
 11
0.0
 21
0.0
 31
1.0
 12
0.0
 22
0.0
 32
0.0
 42
50.0
 43
0.0
 44
0.0
 50
0.0
 71
     0
  0
ENDTAB
  0
TABLE
  2
UCS
 70
     0
  0
ENDTAB
  0
TABLE
  2
VPORT
 70
     1
  0
VPORT
  2
*ACTIVE
 70
     0
 10
0.0
 20
0.0
 11
1.0
 21
1.0
 12
343.7416218963225
 22
-334.21324744612679
 13
0.0
 23
0.0
 14
1.0
 24
1.0
 15
0.0
 25
0.0
 16
0.0
 26
0.0
 36
1.0
 17
0.0
 27
0.0
 37
0.0
 40
2197.9170127546872
 41
1.747787610619469
 42
50.0
 43
0.0
 44
0.0
 50
0.0
 51
0.0
 71
     0
 72
  1000
 73
     1
 74
     3
 75
     0
 76
     0
 77
     0
 78
     0
  0
ENDTAB
  0
ENDSEC
  0
SECTION
  2
BLOCKS
  0
BLOCK
  8
0
  2
_ORIGIN
 70
     0
 10
0.0
 20
0.0
 30
0.0
  3
_ORIGIN
  1
_ORIGIN
  0
CIRCLE
  8
0
  6
CONTINUOUS
 62
     7
 10
0.0
 20
0.0
 30
0.0
 40
0.5
  0
LINE
  8
0
  6
CONTINUOUS
 62
     7
 10
0.0
 20
0.0
 30
0.0
 11
-1.0
 21
0.0
 31
0.0
  0
ENDBLK
  8
0
  0
ENDSEC
  0
SECTION
  2
ENTITIES
  0
TEXT
  8
NOTE
  6
CONTINUOUS
 62
     4
 10
405.20927400289571
 20
379.39190318359238
 30
0.0
 40
63.999999999999993
  1
8-φ5
 41
0.9
  0
LINE
  8
NOTE
  6
CONTINUOUS
 62
     4
 10
658.36575309572163
 20
349.8116
 30
0.0
 11
376.78356098458647
 21
349.8116294789786
 31
0.0
  0
LINE
  8
NOTE
  6
CONTINUOUS
 62
     4
 10
141.4999929999999
 20
84.999992999999904
 30
0.0
 11
376.78356098458647
 21
349.8116294789786
 31
0.0
  0
LINE
  8
NOTE
  6
CONTINUOUS
 62
     4
 10
141.4999929999999
 20
84.999992999999904
 30
0.0
 11
172.81273834757889
 21
107.6834154188834
 31
0.0
  0
LINE
  8
NOTE
  6
CONTINUOUS
 62
     4
 10
160.4952676940234
 20
120.199289333761
 30
0.0
 11
141.4999929999999
 21
84.999992999999904
 31
0.0
  0
TEXT
  8
NOTE
  6
CONTINUOUS
 62
     4
 10
-42.141495033672527
 20
-400.19855814017501
 30
0.0
 40
64.0
  1
EA
 41
0.9
  0
TEXT
  8
NOTE
  6
CONTINUOUS
 62
     4
 10
369.97435789379512
 20
-464.32697085288419
 30
0.0
 40
64.0
  1
EL
 41
0.9
  0
LINE
  8
NOTE
  6
CONTINUOUS
 62
     4
 10
493.1174156548218
 20
-498.19691520116038
 30
0.0
 11
324.59292412840301
 21
-498.19691520111792
 31
0.0
  0
LINE
  8
NOTE
  6
CONTINUOUS
 62
     4
 10
90.000019000000066
 20
-65.000084000000015
 30
0.0
 11
324.59292412840301
 21
-498.19691520111792
 31
0.0
  0
LINE
  8
NOTE
  6
CONTINUOUS
 62
     4
 10
90.000019000000066
 20
-65.000084000000015
 30
0.0
 11
118.0733930441129
 21
-91.644033187450077
 31
0.0
  0
LINE
  8
NOTE
  6
CONTINUOUS
 62
     4
 10
97.302581394578738
 20
-104.2581337038455
 30
0.0
 11
90.000019000000066
 21
-65.000084000000015
 31
0.0
  0
CIRCLE
  8
FIX
  6
CONTINUOUS
 62
    11
 10
-84.999998999999661
 20
141.49998699999989
 30
0.0
 40
10.0
  0
CIRCLE
  8
FIX
  6
CONTINUOUS
 62
    11
 10
-141.49999300000039
 20
84.999992999999904
 30
0.0
 40
10.0
  0
CIRCLE
  8
FIX
  6
CONTINUOUS
 62
    11
 10
-141.49999300000039
 20
-84.99999200000002
 30
0.0
 40
10.0
  0
CIRCLE
  8
FIX
  6
CONTINUOUS
 62
    11
 10
-84.999998999999661
 20
-141.49998600000001
 30
0.0
 40
10.0
  0
CIRCLE
  8
FIX
  6
CONTINUOUS
 62
    11
 10
84.999999000000116
 20
-141.49998600000001
 30
0.0
 40
10.0
  0
CIRCLE
  8
FIX
  6
CONTINUOUS
 62
    11
 10
141.4999929999999
 20
-84.99999200000002
 30
0.0
 40
10.0
  0
CIRCLE
  8
FIX
  6
CONTINUOUS
 62
    11
 10
141.4999929999999
 20
84.999992999999904
 30
0.0
 40
10.0
  0
CIRCLE
  8
FIX
  6
CONTINUOUS
 62
    11
 10
84.999999000000116
 20
141.49998699999989
 30
0.0
 40
10.0
  0
TEXT
  8
NOTE
  6
CONTINUOUS
 62
     4
 10
-42.141495033672527
 20
338.10383538687353
 30
0.0
 40
64.0
  1
RA
 41
0.9
  0
CIRCLE
  8
ARRANGE
  6
CONTINUOUS
 62
     1
 10
0.0
 20
0.0
 30
0.0
 40
40.0
  0
POINT
  8
ARRANGE
  6
CONTINUOUS
 62
     1
 10
0.0
 20
0.0
 30
0.0
 50
90.0
  0
LINE
  8
SIZE
  6
CONTINUOUS
 62
    30
 10
-48.904324999999972
 20
-255.50436299999961
 30
0.0
 11
-48.904324999999972
 21
-526.37579460786765
 31
0.0
  0
LINE
  8
SIZE
  6
CONTINUOUS
 62
    30
 10
48.904324999999972
 20
-255.50436299999961
 30
0.0
 11
48.904324999999972
 21
-526.37579460786765
 31
0.0
  0
LINE
  8
SIZE
  6
CONTINUOUS
 62
    30
 10
36.904324999999972
 20
-506.37579460786759
 30
0.0
 11
-36.904324999999972
 21
-506.37579460786759
 31
0.0
  0
LINE
  8
SIZE
  6
CONTINUOUS
 62
    30
 10
-48.904324999999972
 20
-506.37579460786759
 30
0.0
 11
-415.20029798308718
 21
-506.37579460786759
 31
0.0
  0
CIRCLE
  8
SIZE
  6
CONTINUOUS
 62
    30
 10
48.904324999999972
 20
-506.37579460786759
 30
0.0
 40
6.0
  0
LINE
  8
SIZE
  6
CONTINUOUS
 62
    30
 10
48.904324999999972
 20
-506.37579460786759
 30
0.0
 11
36.904324999999972
 21
-506.37579460786759
 31
0.0
  0
CIRCLE
  8
SIZE
  6
CONTINUOUS
 62
    30
 10
-48.904324999999972
 20
-506.37579460786759
 30
0.0
 40
6.0
  0
LINE
  8
SIZE
  6
CONTINUOUS
 62
    30
 10
-48.904324999999972
 20
-506.37579460786759
 30
0.0
 11
-36.904324999999972
 21
-506.37579460786759
 31
0.0
  0
TEXT
  8
SIZE
  6
CONTINUOUS
 62
    30
 10
-400.34886941165848
 20
-470.7091279412009
 30
0.0
 40
64.0
  1
φ98
 41
0.9
 72
     1
 11
-313.40029798308711
 21
-470.7091279412009
 31
0.0
  0
POINT
  8
DEFPOINTS
  6
CONTINUOUS
 62
    30
 10
-48.904324999999972
 20
-235.50436299999961
 30
0.0
  0
POINT
  8
DEFPOINTS
  6
CONTINUOUS
 62
    30
 10
48.904324999999972
 20
-235.50436299999961
 30
0.0
  0
POINT
  8
DEFPOINTS
  6
CONTINUOUS
 62
    30
 10
48.904324999999972
 20
-506.37579460786759
 30
0.0
  0
LINE
  8
SIZE
  6
CONTINUOUS
 62
    30
 10
-52.483545000000049
 20
-204.6838728128746
 30
0.0
 11
-52.483545000000049
 21
-668.29651028007879
 31
0.0
  0
LINE
  8
SIZE
  6
CONTINUOUS
 62
    30
 10
52.483449999999721
 20
-204.3485201815956
 30
0.0
 11
52.483449999999721
 21
-668.29651028007879
 31
0.0
  0
LINE
  8
SIZE
  6
CONTINUOUS
 62
    30
 10
40.483449999999721
 20
-648.29651028007879
 30
0.0
 11
-40.483545000000049
 21
-648.29651028007879
 31
0.0
  0
LINE
  8
SIZE
  6
CONTINUOUS
 62
    30
 10
-52.483545000000049
 20
-648.29651028007879
 30
0.0
 11
-409.33745771533683
 21
-648.29651028007879
 31
0.0
  0
CIRCLE
  8
SIZE
  6
CONTINUOUS
 62
    30
 10
52.483449999999721
 20
-648.29651028007879
 30
0.0
 40
6.0
  0
LINE
  8
SIZE
  6
CONTINUOUS
 62
    30
 10
52.483449999999721
 20
-648.29651028007879
 30
0.0
 11
40.483449999999721
 21
-648.29651028007879
 31
0.0
  0
CIRCLE
  8
SIZE
  6
CONTINUOUS
 62
    30
 10
-52.483545000000049
 20
-648.29651028007879
 30
0.0
 40
6.0
  0
LINE
  8
SIZE
  6
CONTINUOUS
 62
    30
 10
-52.483545000000049
 20
-648.29651028007879
 30
0.0
 11
-40.483545000000049
 21
-648.29651028007879
 31
0.0
  0
TEXT
  8
SIZE
  6
CONTINUOUS
 62
    30
 10
-394.48602914390813
 20
-612.62984361341205
 30
0.0
 40
64.0
  1
φ105
 41
0.9
 72
     1
 11
-285.59460057247952
 21
-612.62984361341205
 31
0.0
  0
POINT
  8
DEFPOINTS
  6
CONTINUOUS
 62
    30
 10
-52.483545000000049
 20
-184.6838728128746
 30
0.0
  0
POINT
  8
DEFPOINTS
  6
CONTINUOUS
 62
    30
 10
52.483449999999721
 20
-184.3485201815956
 30
0.0
  0
POINT
  8
DEFPOINTS
  6
CONTINUOUS
 62
    30
 10
52.483449999999721
 20
-648.29651028007879
 30
0.0
  0
LINE
  8
SIZE
  6
CONTINUOUS
 62
    30
 10
-68.914185999999972
 20
-236.48511000000011
 30
0.0
 11
-460.89945382610631
 21
-236.48510999999959
 31
0.0
  0
LINE
  8
SIZE
  6
CONTINUOUS
 62
    30
 10
-68.914185999999972
 20
-266.43257099999943
 30
0.0
 11
-460.89945382610631
 21
-266.43257099999943
 31
0.0
  0
LINE
  8
SIZE
  6
CONTINUOUS
 62
    30
 10
-440.89945382610631
 20
-224.48511000000011
 30
0.0
 11
-440.89945382610631
 21
-212.48511000000011
 31
0.0
  0
LINE
  8
SIZE
  6
CONTINUOUS
 62
    30
 10
-440.89945382610631
 20
-278.43257099999943
 30
0.0
 11
-440.89945382610631
 21
-433.68971385714201
 31
0.0
  0
LINE
  8
SIZE
  6
CONTINUOUS
 62
    30
 10
-440.89945382610631
 20
-236.48511000000011
 30
0.0
 11
-440.89945382610631
 21
-266.43257099999943
 31
0.0
  0
CIRCLE
  8
SIZE
  6
CONTINUOUS
 62
    30
 10
-440.89945382610631
 20
-236.48511000000011
 30
0.0
 40
6.0
  0
LINE
  8
SIZE
  6
CONTINUOUS
 62
    30
 10
-440.89945382610631
 20
-236.48511000000011
 30
0.0
 11
-440.89945382610631
 21
-224.48511000000011
 31
0.0
  0
CIRCLE
  8
SIZE
  6
CONTINUOUS
 62
    30
 10
-440.89945382610631
 20
-266.43257099999943
 30
0.0
 40
6.0
  0
LINE
  8
SIZE
  6
CONTINUOUS
 62
    30
 10
-440.89945382610631
 20
-266.43257099999943
 30
0.0
 11
-440.89945382610631
 21
-278.43257099999943
 31
0.0
  0
TEXT
  8
SIZE
  6
CONTINUOUS
 62
    30
 10
-465.89945382610631
 20
-408.68971385714218
 30
0.0
 40
64.0
  1
30
 50
90.0
 41
0.9
 72
     1
 11
-465.89945382610631
 21
-362.06114242857069
 31
0.0
  0
POINT
  8
DEFPOINTS
  6
CONTINUOUS
 62
    30
 10
-48.914185999999972
 20
-236.48511000000011
 30
0.0
  0
POINT
  8
DEFPOINTS
  6
CONTINUOUS
 62
    30
 10
-48.914185999999972
 20
-266.43257099999943
 30
0.0
  0
POINT
  8
DEFPOINTS
  6
CONTINUOUS
 62
    30
 10
-440.89945382610631
 20
-266.43257099999943
 30
0.0
  0
LINE
  8
SIZE
  6
CONTINUOUS
 62
    30
 10
-68.914185999999972
 20
-266.43257100000011
 30
0.0
 11
-590.26998433606013
 21
-266.43257099999983
 31
0.0
  0
LINE
  8
SIZE
  6
CONTINUOUS
 62
    30
 10
-72.936338999999862
 20
-196.6290819999999
 30
0.0
 11
-590.26998433606013
 21
-196.6290819999999
 31
0.0
  0
LINE
  8
SIZE
  6
CONTINUOUS
 62
    30
 10
-570.26998433606013
 20
-184.6290819999999
 30
0.0
 11
-570.26998433606013
 21
-172.6290819999999
 31
0.0
  0
LINE
  8
SIZE
  6
CONTINUOUS
 62
    30
 10
-570.26998433606013
 20
-278.43257099999983
 30
0.0
 11
-570.26998433606013
 21
-433.68971385714258
 31
0.0
  0
LINE
  8
SIZE
  6
CONTINUOUS
 62
    30
 10
-570.26998433606013
 20
-196.6290819999999
 30
0.0
 11
-570.26998433606013
 21
-266.43257099999983
 31
0.0
  0
CIRCLE
  8
SIZE
  6
CONTINUOUS
 62
    30
 10
-570.26998433606013
 20
-196.6290819999999
 30
0.0
 40
6.0
  0
LINE
  8
SIZE
  6
CONTINUOUS
 62
    30
 10
-570.26998433606013
 20
-196.6290819999999
 30
0.0
 11
-570.26998433606013
 21
-184.6290819999999
 31
0.0
  0
CIRCLE
  8
SIZE
  6
CONTINUOUS
 62
    30
 10
-570.26998433606013
 20
-266.43257099999983
 30
0.0
 40
6.0
  0
LINE
  8
SIZE
  6
CONTINUOUS
 62
    30
 10
-570.26998433606013
 20
-266.43257099999983
 30
0.0
 11
-570.26998433606013
 21
-278.43257099999983
 31
0.0
  0
TEXT
  8
SIZE
  6
CONTINUOUS
 62
    30
 10
-595.26998433606013
 20
-408.68971385714292
 30
0.0
 40
64.0
  1
70
 50
90.0
 41
0.9
 72
     1
 11
-595.26998433606013
 21
-362.06114242857137
 31
0.0
  0
POINT
  8
DEFPOINTS
  6
CONTINUOUS
 62
    30
 10
-48.914185999999972
 20
-266.43257100000011
 30
0.0
  0
POINT
  8
DEFPOINTS
  6
CONTINUOUS
 62
    30
 10
-52.936338999999862
 20
-196.6290819999999
 30
0.0
  0
POINT
  8
DEFPOINTS
  6
CONTINUOUS
 62
    30
 10
-570.26998433606013
 20
-196.6290819999999
 30
0.0
  0
LINE
  8
SIZE
  6
CONTINUOUS
 62
    30
 10
-84.999998999999661
 20
-168.99998600000001
 30
0.0
 11
-84.999998999999661
 21
-804.0793545100131
 31
0.0
  0
LINE
  8
SIZE
  6
CONTINUOUS
 62
    30
 10
84.999999000000116
 20
-168.99998600000001
 30
0.0
 11
84.999999000000116
 21
-804.0793545100131
 31
0.0
  0
LINE
  8
SIZE
  6
CONTINUOUS
 62
    30
 10
72.999999000000116
 20
-784.0793545100131
 30
0.0
 11
-72.999998999999661
 21
-784.0793545100131
 31
0.0
  0
LINE
  8
SIZE
  6
CONTINUOUS
 62
    30
 10
-84.999998999999661
 20
-784.0793545100131
 30
0.0
 11
-377.68245100836702
 21
-784.0793545100131
 31
0.0
  0
CIRCLE
  8
SIZE
  6
CONTINUOUS
 62
    30
 10
84.999999000000116
 20
-784.0793545100131
 30
0.0
 40
6.0
  0
LINE
  8
SIZE
  6
CONTINUOUS
 62
    30
 10
84.999999000000116
 20
-784.0793545100131
 30
0.0
 11
72.999999000000116
 21
-784.0793545100131
 31
0.0
  0
CIRCLE
  8
SIZE
  6
CONTINUOUS
 62
    30
 10
-84.999998999999661
 20
-784.0793545100131
 30
0.0
 40
6.0
  0
LINE
  8
SIZE
  6
CONTINUOUS
 62
    30
 10
-84.999998999999661
 20
-784.0793545100131
 30
0.0
 11
-72.999998999999661
 21
-784.0793545100131
 31
0.0
  0
TEXT
  8
SIZE
  6
CONTINUOUS
 62
    30
 10
-352.68245100836708
 20
-759.0793545100131
 30
0.0
 40
64.0
  1
170
 41
0.9
 72
     1
 11
-284.11102243693858
 21
-759.0793545100131
 31
0.0
  0
POINT
  8
DEFPOINTS
  6
CONTINUOUS
 62
    30
 10
-84.999998999999661
 20
-148.99998600000001
 30
0.0
  0
POINT
  8
DEFPOINTS
  6
CONTINUOUS
 62
    30
 10
84.999999000000116
 20
-148.99998600000001
 30
0.0
  0
POINT
  8
DEFPOINTS
  6
CONTINUOUS
 62
    30
 10
84.999999000000116
 20
-784.0793545100131
 30
0.0
  0
LINE
  8
SIZE
  6
CONTINUOUS
 62
    30
 10
-141.49999300000039
 20
-112.49999200000001
 30
0.0
 11
-141.49999300000039
 21
-1174.013725480512
 31
0.0
  0
LINE
  8
SIZE
  6
CONTINUOUS
 62
    30
 10
141.4999929999999
 20
-112.49999200000001
 30
0.0
 11
141.4999929999999
 21
-1174.013725480512
 31
0.0
  0
LINE
  8
SIZE
  6
CONTINUOUS
 62
    30
 10
-129.49999300000039
 20
-1154.013725480512
 30
0.0
 11
129.4999929999999
 21
-1154.013725480512
 31
0.0
  0
CIRCLE
  8
SIZE
  6
CONTINUOUS
 62
    30
 10
-141.49999300000039
 20
-1154.013725480512
 30
0.0
 40
6.0
  0
LINE
  8
SIZE
  6
CONTINUOUS
 62
    30
 10
-141.49999300000039
 20
-1154.013725480512
 30
0.0
 11
-129.49999300000039
 21
-1154.013725480512
 31
0.0
  0
CIRCLE
  8
SIZE
  6
CONTINUOUS
 62
    30
 10
141.4999929999999
 20
-1154.013725480512
 30
0.0
 40
6.0
  0
LINE
  8
SIZE
  6
CONTINUOUS
 62
    30
 10
141.4999929999999
 20
-1154.013725480512
 30
0.0
 11
129.4999929999999
 21
-1154.013725480512
 31
0.0
  0
TEXT
  8
SIZE
  6
CONTINUOUS
 62
    30
 10
-74.057142857142836
 20
-1129.013725480512
 30
0.0
 40
64.0
  1
283
 41
0.9
 72
     1
 11
0.0
 21
-1129.013725480512
 31
0.0
  0
POINT
  8
DEFPOINTS
  6
CONTINUOUS
 62
    30
 10
-141.49999300000039
 20
-92.49999200000002
 30
0.0
  0
POINT
  8
DEFPOINTS
  6
CONTINUOUS
 62
    30
 10
141.4999929999999
 20
-92.49999200000002
 30
0.0
  0
POINT
  8
DEFPOINTS
  6
CONTINUOUS
 62
    30
 10
141.4999929999999
 20
-1154.013725480512
 30
0.0
  0
LINE
  8
SIZE
  6
CONTINUOUS
 62
    30
 10
-165.0
 20
-183.49999999999949
 30
0.0
 11
-165.00000000000051
 21
-1425.9139843075791
 31
0.0
  0
LINE
  8
SIZE
  6
CONTINUOUS
 62
    30
 10
165.0
 20
-183.5
 30
0.0
 11
165.0
 21
-1425.9139843075791
 31
0.0
  0
LINE
  8
SIZE
  6
CONTINUOUS
 62
    30
 10
-153.00000000000051
 20
-1405.9139843075791
 30
0.0
 11
153.0
 21
-1405.9139843075791
 31
0.0
  0
CIRCLE
  8
SIZE
  6
CONTINUOUS
 62
    30
 10
-165.00000000000051
 20
-1405.9139843075791
 30
0.0
 40
6.0
  0
LINE
  8
SIZE
  6
CONTINUOUS
 62
    30
 10
-165.00000000000051
 20
-1405.9139843075791
 30
0.0
 11
-153.00000000000051
 21
-1405.9139843075791
 31
0.0
  0
CIRCLE
  8
SIZE
  6
CONTINUOUS
 62
    30
 10
165.0
 20
-1405.9139843075791
 30
0.0
 40
6.0
  0
LINE
  8
SIZE
  6
CONTINUOUS
 62
    30
 10
165.0
 20
-1405.9139843075791
 30
0.0
 11
153.0
 21
-1405.9139843075791
 31
0.0
  0
TEXT
  8
SIZE
  6
CONTINUOUS
 62
    30
 10
-110.5371428571429
 20
-1380.9139843075791
 30
0.0
 40
64.0
  1
□330
 41
0.9
 72
     1
 11
0.0
 21
-1380.9139843075791
 31
0.0
  0
POINT
  8
DEFPOINTS
  6
CONTINUOUS
 62
    30
 10
-165.0
 20
-163.49999999999949
 30
0.0
  0
POINT
  8
DEFPOINTS
  6
CONTINUOUS
 62
    30
 10
165.0
 20
-163.5
 30
0.0
  0
POINT
  8
DEFPOINTS
  6
CONTINUOUS
 62
    30
 10
165.0
 20
-1405.9139843075791
 30
0.0
  0
LINE
  8
SIZE
  6
CONTINUOUS
 62
    30
 10
112.4999990000001
 20
-141.49998600000001
 30
0.0
 11
567.39377815818852
 21
-141.49998600000001
 31
0.0
  0
LINE
  8
SIZE
  6
CONTINUOUS
 62
    30
 10
112.4999990000001
 20
141.49998699999989
 30
0.0
 11
567.39377815818852
 21
141.49998699999969
 31
0.0
  0
LINE
  8
SIZE
  6
CONTINUOUS
 62
    30
 10
547.39377815818852
 20
-129.49998600000001
 30
0.0
 11
547.39377815818852
 21
129.49998699999969
 31
0.0
  0
CIRCLE
  8
SIZE
  6
CONTINUOUS
 62
    30
 10
547.39377815818852
 20
-141.49998600000001
 30
0.0
 40
6.0
  0
LINE
  8
SIZE
  6
CONTINUOUS
 62
    30
 10
547.39377815818852
 20
-141.49998600000001
 30
0.0
 11
547.39377815818852
 21
-129.49998600000001
 31
0.0
  0
CIRCLE
  8
SIZE
  6
CONTINUOUS
 62
    30
 10
547.39377815818852
 20
141.49998699999969
 30
0.0
 40
6.0
  0
LINE
  8
SIZE
  6
CONTINUOUS
 62
    30
 10
547.39377815818852
 20
141.49998699999969
 30
0.0
 11
547.39377815818852
 21
129.49998699999969
 31
0.0
  0
TEXT
  8
SIZE
  6
CONTINUOUS
 62
    30
 10
522.39377815818852
 20
-74.057142357142894
 30
0.0
 40
64.0
  1
283
 50
90.0
 41
0.9
 72
     1
 11
522.39377815818852
 21
0.0000004999999419
 31
0.0
  0
POINT
  8
DEFPOINTS
  6
CONTINUOUS
 62
    30
 10
92.499999000000116
 20
-141.49998600000001
 30
0.0
  0
POINT
  8
DEFPOINTS
  6
CONTINUOUS
 62
    30
 10
92.499999000000116
 20
141.49998699999989
 30
0.0
  0
POINT
  8
DEFPOINTS
  6
CONTINUOUS
 62
    30
 10
547.39377815818852
 20
141.49998699999969
 30
0.0
  0
LINE
  8
SIZE
  6
CONTINUOUS
 62
    30
 10
168.9999929999999
 20
84.999992999999904
 30
0.0
 11
401.64294561090361
 21
84.999992999999904
 31
0.0
  0
LINE
  8
SIZE
  6
CONTINUOUS
 62
    30
 10
168.9999929999999
 20
-84.99999200000002
 30
0.0
 11
401.64294561090361
 21
-84.99999200000002
 31
0.0
  0
LINE
  8
SIZE
  6
CONTINUOUS
 62
    30
 10
381.64294561090361
 20
72.999992999999904
 30
0.0
 11
381.64294561090361
 21
-72.99999200000002
 31
0.0
  0
LINE
  8
SIZE
  6
CONTINUOUS
 62
    30
 10
381.64294561090361
 20
-84.99999200000002
 30
0.0
 11
381.64294561090361
 21
-349.97118222626449
 31
0.0
  0
CIRCLE
  8
SIZE
  6
CONTINUOUS
 62
    30
 10
381.64294561090361
 20
84.999992999999904
 30
0.0
 40
6.0
  0
LINE
  8
SIZE
  6
CONTINUOUS
 62
    30
 10
381.64294561090361
 20
84.999992999999904
 30
0.0
 11
381.64294561090361
 21
72.999992999999904
 31
0.0
  0
CIRCLE
  8
SIZE
  6
CONTINUOUS
 62
    30
 10
381.64294561090361
 20
-84.99999200000002
 30
0.0
 40
6.0
  0
LINE
  8
SIZE
  6
CONTINUOUS
 62
    30
 10
381.64294561090361
 20
-84.99999200000002
 30
0.0
 11
381.64294561090361
 21
-72.99999200000002
 31
0.0
  0
TEXT
  8
SIZE
  6
CONTINUOUS
 62
    30
 10
356.64294561090361
 20
-324.97118222626438
 30
0.0
 40
64.0
  1
170
 50
90.0
 41
0.9
 72
     1
 11
356.64294561090361
 21
-256.39975365483588
 31
0.0
  0
POINT
  8
DEFPOINTS
  6
CONTINUOUS
 62
    30
 10
148.9999929999999
 20
84.999992999999904
 30
0.0
  0
POINT
  8
DEFPOINTS
  6
CONTINUOUS
 62
    30
 10
148.9999929999999
 20
-84.99999200000002
 30
0.0
  0
POINT
  8
DEFPOINTS
  6
CONTINUOUS
 62
    30
 10
381.64294561090361
 20
-84.99999200000002
 30
0.0
  0
LINE
  8
SIZE
  6
CONTINUOUS
 62
    30
 10
-68.914185999999972
 20
267.50800199999981
 30
0.0
 11
-453.18090326483753
 21
267.50800199999998
 31
0.0
  0
LINE
  8
SIZE
  6
CONTINUOUS
 62
    30
 10
-68.914185999999972
 20
237.56054199999991
 30
0.0
 11
-453.18090326483753
 21
237.5605420000002
 31
0.0
  0
LINE
  8
SIZE
  6
CONTINUOUS
 62
    30
 10
-433.18090326483753
 20
225.5605420000002
 30
0.0
 11
-433.18090326483753
 21
213.5605420000002
 31
0.0
  0
LINE
  8
SIZE
  6
CONTINUOUS
 62
    30
 10
-433.18090326483753
 20
279.50800199999998
 30
0.0
 11
-433.18090326483753
 21
444.44741936226683
 31
0.0
  0
LINE
  8
SIZE
  6
CONTINUOUS
 62
    30
 10
-433.18090326483753
 20
237.5605420000002
 30
0.0
 11
-433.18090326483753
 21
267.50800199999998
 31
0.0
  0
CIRCLE
  8
SIZE
  6
CONTINUOUS
 62
    30
 10
-433.18090326483753
 20
237.5605420000002
 30
0.0
 40
6.0
  0
LINE
  8
SIZE
  6
CONTINUOUS
 62
    30
 10
-433.18090326483753
 20
237.5605420000002
 30
0.0
 11
-433.18090326483753
 21
225.5605420000002
 31
0.0
  0
CIRCLE
  8
SIZE
  6
CONTINUOUS
 62
    30
 10
-433.18090326483753
 20
267.50800199999998
 30
0.0
 40
6.0
  0
LINE
  8
SIZE
  6
CONTINUOUS
 62
    30
 10
-433.18090326483753
 20
267.50800199999998
 30
0.0
 11
-433.18090326483753
 21
279.50800199999998
 31
0.0
  0
TEXT
  8
SIZE
  6
CONTINUOUS
 62
    30
 10
-458.18090326483753
 20
326.19027650512402
 30
0.0
 40
64.0
  1
30
 50
90.0
 41
0.9
 72
     1
 11
-458.18090326483753
 21
372.81884793369551
 31
0.0
  0
POINT
  8
DEFPOINTS
  6
CONTINUOUS
 62
    30
 10
-48.914185999999972
 20
267.50800199999981
 30
0.0
  0
POINT
  8
DEFPOINTS
  6
CONTINUOUS
 62
    30
 10
-48.914185999999972
 20
237.56054199999991
 30
0.0
  0
POINT
  8
DEFPOINTS
  6
CONTINUOUS
 62
    30
 10
-433.18090326483753
 20
237.5605420000002
 30
0.0
  0
LINE
  8
SIZE
  6
CONTINUOUS
 62
    30
 10
-48.914185999999972
 20
287.50800199999981
 30
0.0
 11
-48.914185999999972
 21
466.34554029576822
 31
0.0
  0
LINE
  8
SIZE
  6
CONTINUOUS
 62
    30
 10
48.914185999999972
 20
287.50800199999981
 30
0.0
 11
48.914185999999972
 21
466.34554029576822
 31
0.0
  0
LINE
  8
SIZE
  6
CONTINUOUS
 62
    30
 10
36.914185999999972
 20
446.34554029576822
 30
0.0
 11
-36.914185999999972
 21
446.34554029576822
 31
0.0
  0
LINE
  8
SIZE
  6
CONTINUOUS
 62
    30
 10
-48.914185999999972
 20
446.34554029576822
 30
0.0
 11
-340.22196829780302
 21
446.34554029576822
 31
0.0
  0
CIRCLE
  8
SIZE
  6
CONTINUOUS
 62
    30
 10
48.914185999999972
 20
446.34554029576822
 30
0.0
 40
6.0
  0
LINE
  8
SIZE
  6
CONTINUOUS
 62
    30
 10
48.914185999999972
 20
446.34554029576822
 30
0.0
 11
36.914185999999972
 21
446.34554029576822
 31
0.0
  0
CIRCLE
  8
SIZE
  6
CONTINUOUS
 62
    30
 10
-48.914185999999972
 20
446.34554029576822
 30
0.0
 40
6.0
  0
LINE
  8
SIZE
  6
CONTINUOUS
 62
    30
 10
-48.914185999999972
 20
446.34554029576822
 30
0.0
 11
-36.914185999999972
 21
446.34554029576822
 31
0.0
  0
TEXT
  8
SIZE
  6
CONTINUOUS
 62
    30
 10
-325.37053972637472
 20
482.0122069624349
 30
0.0
 40
64.0
  1
φ98
 41
0.9
 72
     1
 11
-238.4219682978032
 21
482.0122069624349
 31
0.0
  0
POINT
  8
DEFPOINTS
  6
CONTINUOUS
 62
    30
 10
-48.914185999999972
 20
267.50800199999981
 30
0.0
  0
POINT
  8
DEFPOINTS
  6
CONTINUOUS
 62
    30
 10
48.914185999999972
 20
267.50800199999981
 30
0.0
  0
POINT
  8
DEFPOINTS
  6
CONTINUOUS
 62
    30
 10
48.914185999999972
 20
446.34554029576822
 30
0.0
  0
LINE
  8
SIZE
  6
CONTINUOUS
 62
    30
 10
-52.407860000000262
 20
253.26767699999979
 30
0.0
 11
-52.407860000000262
 21
608.51374891258297
 31
0.0
  0
LINE
  8
SIZE
  6
CONTINUOUS
 62
    30
 10
52.407860000000262
 20
253.26767699999979
 30
0.0
 11
52.407860000000262
 21
608.51374891258297
 31
0.0
  0
LINE
  8
SIZE
  6
CONTINUOUS
 62
    30
 10
40.407860000000262
 20
588.51374891258297
 30
0.0
 11
-40.407860000000262
 21
588.51374891258297
 31
0.0
  0
LINE
  8
SIZE
  6
CONTINUOUS
 62
    30
 10
-52.407860000000262
 20
588.51374891258297
 30
0.0
 11
-365.5507616511818
 21
588.51374891258297
 31
0.0
  0
CIRCLE
  8
SIZE
  6
CONTINUOUS
 62
    30
 10
52.407860000000262
 20
588.51374891258297
 30
0.0
 40
6.0
  0
LINE
  8
SIZE
  6
CONTINUOUS
 62
    30
 10
52.407860000000262
 20
588.51374891258297
 30
0.0
 11
40.407860000000262
 21
588.51374891258297
 31
0.0
  0
CIRCLE
  8
SIZE
  6
CONTINUOUS
 62
    30
 10
-52.407860000000262
 20
588.51374891258297
 30
0.0
 40
6.0
  0
LINE
  8
SIZE
  6
CONTINUOUS
 62
    30
 10
-52.407860000000262
 20
588.51374891258297
 30
0.0
 11
-40.407860000000262
 21
588.51374891258297
 31
0.0
  0
TEXT
  8
SIZE
  6
CONTINUOUS
 62
    30
 10
-350.69933307975322
 20
624.18041557924971
 30
0.0
 40
64.0
  1
φ105
 41
0.9
 72
     1
 11
-241.80790450832461
 21
624.18041557924971
 31
0.0
  0
POINT
  8
DEFPOINTS
  6
CONTINUOUS
 62
    30
 10
-52.407860000000262
 20
233.26767699999979
 30
0.0
  0
POINT
  8
DEFPOINTS
  6
CONTINUOUS
 62
    30
 10
52.407860000000262
 20
233.26767699999979
 30
0.0
  0
POINT
  8
DEFPOINTS
  6
CONTINUOUS
 62
    30
 10
52.407860000000262
 20
588.51374891258297
 30
0.0
  0
LINE
  8
SIZE
  6
CONTINUOUS
 62
    30
 10
157.99997100000019
 20
153.00001099999989
 30
0.0
 11
710.28734410252764
 21
153.0000109999996
 31
0.0
  0
LINE
  8
SIZE
  6
CONTINUOUS
 62
    30
 10
157.99997100000019
 20
-153.00001
 30
0.0
 11
710.28734410252764
 21
-153.0000100000002
 31
0.0
  0
LINE
  8
SIZE
  6
CONTINUOUS
 62
    30
 10
690.28734410252764
 20
141.0000109999996
 30
0.0
 11
690.28734410252764
 21
-141.0000100000002
 31
0.0
  0
CIRCLE
  8
SIZE
  6
CONTINUOUS
 62
    30
 10
690.28734410252764
 20
153.0000109999996
 30
0.0
 40
6.0
  0
LINE
  8
SIZE
  6
CONTINUOUS
 62
    30
 10
690.28734410252764
 20
153.0000109999996
 30
0.0
 11
690.28734410252764
 21
141.0000109999996
 31
0.0
  0
CIRCLE
  8
SIZE
  6
CONTINUOUS
 62
    30
 10
690.28734410252764
 20
-153.0000100000002
 30
0.0
 40
6.0
  0
LINE
  8
SIZE
  6
CONTINUOUS
 62
    30
 10
690.28734410252764
 20
-153.0000100000002
 30
0.0
 11
690.28734410252764
 21
-141.0000100000002
 31
0.0
  0
TEXT
  8
SIZE
  6
CONTINUOUS
 62
    30
 10
665.28734410252764
 20
-72.685713785714341
 30
0.0
 40
64.0
  1
306
 50
90.0
 41
0.9
 72
     1
 11
665.28734410252764
 21
0.0000004999999419
 31
0.0
  0
POINT
  8
DEFPOINTS
  6
CONTINUOUS
 62
    30
 10
137.99997100000019
 20
153.00001099999989
 30
0.0
  0
POINT
  8
DEFPOINTS
  6
CONTINUOUS
 62
    30
 10
137.99997100000019
 20
-153.00001
 30
0.0
  0
POINT
  8
DEFPOINTS
  6
CONTINUOUS
 62
    30
 10
690.28734410252764
 20
-153.0000100000002
 30
0.0
  0
LINE
  8
SIZE
  6
CONTINUOUS
 62
    30
 10
-152.99997100000019
 20
-158.00001
 30
0.0
 11
-152.99997100000019
 21
-1297.9323971939759
 31
0.0
  0
LINE
  8
SIZE
  6
CONTINUOUS
 62
    30
 10
152.9999709999997
 20
-158.00001
 30
0.0
 11
152.9999709999997
 21
-1297.9323971939759
 31
0.0
  0
LINE
  8
SIZE
  6
CONTINUOUS
 62
    30
 10
-140.99997100000019
 20
-1277.9323971939759
 30
0.0
 11
140.9999709999997
 21
-1277.9323971939759
 31
0.0
  0
CIRCLE
  8
SIZE
  6
CONTINUOUS
 62
    30
 10
-152.99997100000019
 20
-1277.9323971939759
 30
0.0
 40
6.0
  0
LINE
  8
SIZE
  6
CONTINUOUS
 62
    30
 10
-152.99997100000019
 20
-1277.9323971939759
 30
0.0
 11
-140.99997100000019
 21
-1277.9323971939759
 31
0.0
  0
CIRCLE
  8
SIZE
  6
CONTINUOUS
 62
    30
 10
152.9999709999997
 20
-1277.9323971939759
 30
0.0
 40
6.0
  0
LINE
  8
SIZE
  6
CONTINUOUS
 62
    30
 10
152.9999709999997
 20
-1277.9323971939759
 30
0.0
 11
140.9999709999997
 21
-1277.9323971939759
 31
0.0
  0
TEXT
  8
SIZE
  6
CONTINUOUS
 62
    30
 10
-72.685714285714283
 20
-1252.9323971939759
 30
0.0
 40
64.0
  1
306
 41
0.9
 72
     1
 11
0.0
 21
-1252.9323971939759
 31
0.0
  0
POINT
  8
DEFPOINTS
  6
CONTINUOUS
 62
    30
 10
-152.99997100000019
 20
-138.00001
 30
0.0
  0
POINT
  8
DEFPOINTS
  6
CONTINUOUS
 62
    30
 10
152.9999709999997
 20
-138.00001
 30
0.0
  0
POINT
  8
DEFPOINTS
  6
CONTINUOUS
 62
    30
 10
152.9999709999997
 20
-1277.9323971939759
 30
0.0
  0
LINE
  8
SIZE
  6
CONTINUOUS
 62
    30
 10
-147.0
 20
-127.0
 30
0.0
 11
-726.18383568741956
 21
-126.9999999999998
 31
0.0
  0
LINE
  8
SIZE
  6
CONTINUOUS
 62
    30
 10
-68.914185999999972
 20
-266.43257100000011
 30
0.0
 11
-726.18383568741956
 21
-266.43257099999983
 31
0.0
  0
LINE
  8
SIZE
  6
CONTINUOUS
 62
    30
 10
-706.18383568741956
 20
-138.9999999999998
 30
0.0
 11
-706.18383568741956
 21
-254.4325709999998
 31
0.0
  0
CIRCLE
  8
SIZE
  6
CONTINUOUS
 62
    30
 10
-706.18383568741956
 20
-126.9999999999998
 30
0.0
 40
6.0
  0
LINE
  8
SIZE
  6
CONTINUOUS
 62
    30
 10
-706.18383568741956
 20
-126.9999999999998
 30
0.0
 11
-706.18383568741956
 21
-138.9999999999998
 31
0.0
  0
CIRCLE
  8
SIZE
  6
CONTINUOUS
 62
    30
 10
-706.18383568741956
 20
-266.43257099999983
 30
0.0
 40
6.0
  0
LINE
  8
SIZE
  6
CONTINUOUS
 62
    30
 10
-706.18383568741956
 20
-266.43257099999983
 30
0.0
 11
-706.18383568741956
 21
-254.4325709999998
 31
0.0
  0
TEXT
  8
SIZE
  6
CONTINUOUS
 62
    30
 10
-731.18383568741956
 20
-263.9162854999999
 30
0.0
 40
64.0
  1
139
 50
90.0
 41
0.9
 72
     1
 11
-731.18383568741956
 21
-196.71628549999991
 31
0.0
  0
POINT
  8
DEFPOINTS
  6
CONTINUOUS
 62
    30
 10
-127.0
 20
-127.0
 30
0.0
  0
POINT
  8
DEFPOINTS
  6
CONTINUOUS
 62
    30
 10
-48.914185999999972
 20
-266.43257100000011
 30
0.0
  0
POINT
  8
DEFPOINTS
  6
CONTINUOUS
 62
    30
 10
-706.18383568741956
 20
-266.43257099999983
 30
0.0
  0
LINE
  8
SIZE
  6
CONTINUOUS
 62
    30
 10
-127.0
 20
-147.0
 30
0.0
 11
-127.0000000000005
 21
-1050.0950419579619
 31
0.0
  0
LINE
  8
SIZE
  6
CONTINUOUS
 62
    30
 10
127.0
 20
-147.0
 30
0.0
 11
127.0
 21
-1050.0950419579619
 31
0.0
  0
LINE
  8
SIZE
  6
CONTINUOUS
 62
    30
 10
-115.0000000000005
 20
-1030.0950419579619
 30
0.0
 11
115.0
 21
-1030.0950419579619
 31
0.0
  0
CIRCLE
  8
SIZE
  6
CONTINUOUS
 62
    30
 10
-127.0000000000005
 20
-1030.0950419579619
 30
0.0
 40
6.0
  0
LINE
  8
SIZE
  6
CONTINUOUS
 62
    30
 10
-127.0000000000005
 20
-1030.0950419579619
 30
0.0
 11
-115.0000000000005
 21
-1030.0950419579619
 31
0.0
  0
CIRCLE
  8
SIZE
  6
CONTINUOUS
 62
    30
 10
127.0
 20
-1030.0950419579619
 30
0.0
 40
6.0
  0
LINE
  8
SIZE
  6
CONTINUOUS
 62
    30
 10
127.0
 20
-1030.0950419579619
 30
0.0
 11
115.0
 21
-1030.0950419579619
 31
0.0
  0
TEXT
  8
SIZE
  6
CONTINUOUS
 62
    30
 10
-111.90857142857141
 20
-1005.0950419579621
 30
0.0
 40
64.0
  1
□254
 41
0.9
 72
     1
 11
0.0
 21
-1005.0950419579621
 31
0.0
  0
POINT
  8
DEFPOINTS
  6
CONTINUOUS
 62
    30
 10
-127.0
 20
-127.0
 30
0.0
  0
POINT
  8
DEFPOINTS
  6
CONTINUOUS
 62
    30
 10
127.0
 20
-127.0
 30
0.0
  0
POINT
  8
DEFPOINTS
  6
CONTINUOUS
 62
    30
 10
127.0
 20
-1030.0950419579619
 30
0.0
  0
LINE
  8
SIZE
  6
CONTINUOUS
 62
    30
 10
-68.914185999999972
 20
267.50800199999981
 30
0.0
 11
-618.76778039949022
 21
267.50800199999998
 31
0.0
  0
LINE
  8
SIZE
  6
CONTINUOUS
 62
    30
 10
-72.936338999999862
 20
197.70451399999979
 30
0.0
 11
-618.76778039949022
 21
197.70451399999999
 31
0.0
  0
LINE
  8
SIZE
  6
CONTINUOUS
 62
    30
 10
-598.76778039949022
 20
185.70451399999999
 30
0.0
 11
-598.76778039949022
 21
173.70451399999999
 31
0.0
  0
LINE
  8
SIZE
  6
CONTINUOUS
 62
    30
 10
-598.76778039949022
 20
279.50800199999998
 30
0.0
 11
-598.76778039949022
 21
440.96083774213912
 31
0.0
  0
LINE
  8
SIZE
  6
CONTINUOUS
 62
    30
 10
-598.76778039949022
 20
197.70451399999999
 30
0.0
 11
-598.76778039949022
 21
267.50800199999998
 31
0.0
  0
CIRCLE
  8
SIZE
  6
CONTINUOUS
 62
    30
 10
-598.76778039949022
 20
197.70451399999999
 30
0.0
 40
6.0
  0
LINE
  8
SIZE
  6
CONTINUOUS
 62
    30
 10
-598.76778039949022
 20
197.70451399999999
 30
0.0
 11
-598.76778039949022
 21
185.70451399999999
 31
0.0
  0
CIRCLE
  8
SIZE
  6
CONTINUOUS
 62
    30
 10
-598.76778039949022
 20
267.50800199999998
 30
0.0
 40
6.0
  0
LINE
  8
SIZE
  6
CONTINUOUS
 62
    30
 10
-598.76778039949022
 20
267.50800199999998
 30
0.0
 11
-598.76778039949022
 21
279.50800199999998
 31
0.0
  0
TEXT
  8
SIZE
  6
CONTINUOUS
 62
    30
 10
-623.76778039949022
 20
322.70369488499631
 30
0.0
 40
64.0
  1
70
 50
90.0
 41
0.9
 72
     1
 11
-623.76778039949022
 21
369.33226631356769
 31
0.0
  0
POINT
  8
DEFPOINTS
  6
CONTINUOUS
 62
    30
 10
-48.914185999999972
 20
267.50800199999981
 30
0.0
  0
POINT
  8
DEFPOINTS
  6
CONTINUOUS
 62
    30
 10
-52.936338999999862
 20
197.70451399999979
 30
0.0
  0
POINT
  8
DEFPOINTS
  6
CONTINUOUS
 62
    30
 10
-598.76778039949022
 20
197.70451399999999
 30
0.0
  0
LINE
  8
NOTE
  6
CENTER
 62
     4
 10
-84.999998999999661
 20
-133.99998600000001
 30
0.0
 11
-84.999998999999661
 21
-148.99998600000001
 31
0.0
  0
LINE
  8
NOTE
  6
CENTER
 62
     4
 10
-77.499998999999661
 20
-141.49998600000001
 30
0.0
 11
-92.499998999999661
 21
-141.49998600000001
 31
0.0
  0
LINE
  8
NOTE
  6
CENTER
 62
     4
 10
-141.49999300000039
 20
-77.49999200000002
 30
0.0
 11
-141.49999300000039
 21
-92.49999200000002
 31
0.0
  0
LINE
  8
NOTE
  6
CENTER
 62
     4
 10
-133.99999300000039
 20
-84.99999200000002
 30
0.0
 11
-148.99999300000039
 21
-84.99999200000002
 31
0.0
  0
LINE
  8
NOTE
  6
CENTER
 62
     4
 10
77.499999000000116
 20
-141.49998600000001
 30
0.0
 11
92.499999000000116
 21
-141.49998600000001
 31
0.0
  0
LINE
  8
NOTE
  6
CENTER
 62
     4
 10
84.999999000000116
 20
-133.99998600000001
 30
0.0
 11
84.999999000000116
 21
-148.99998600000001
 31
0.0
  0
LINE
  8
NOTE
  6
CENTER
 62
     4
 10
133.9999929999999
 20
-84.99999200000002
 30
0.0
 11
148.9999929999999
 21
-84.99999200000002
 31
0.0
  0
LINE
  8
NOTE
  6
CENTER
 62
     4
 10
141.4999929999999
 20
-77.49999200000002
 30
0.0
 11
141.4999929999999
 21
-92.49999200000002
 31
0.0
  0
LINE
  8
NOTE
  6
CENTER
 62
     4
 10
77.499999000000116
 20
141.49998699999989
 30
0.0
 11
92.499999000000116
 21
141.49998699999989
 31
0.0
  0
LINE
  8
NOTE
  6
CENTER
 62
     4
 10
84.999999000000116
 20
133.99998699999989
 30
0.0
 11
84.999999000000116
 21
148.99998699999989
 31
0.0
  0
LINE
  8
NOTE
  6
CENTER
 62
     4
 10
133.9999929999999
 20
84.999992999999904
 30
0.0
 11
148.9999929999999
 21
84.999992999999904
 31
0.0
  0
LINE
  8
NOTE
  6
CENTER
 62
     4
 10
141.4999929999999
 20
77.499992999999904
 30
0.0
 11
141.4999929999999
 21
92.499992999999904
 31
0.0
  0
LINE
  8
NOTE
  6
CENTER
 62
     4
 10
-77.499998999999661
 20
141.49998699999989
 30
0.0
 11
-92.499998999999661
 21
141.49998699999989
 31
0.0
  0
LINE
  8
NOTE
  6
CENTER
 62
     4
 10
-84.999998999999661
 20
133.99998699999989
 30
0.0
 11
-84.999998999999661
 21
148.99998699999989
 31
0.0
  0
LINE
  8
NOTE
  6
CENTER
 62
     4
 10
-133.99999300000039
 20
84.999992999999904
 30
0.0
 11
-148.99999300000039
 21
84.999992999999904
 31
0.0
  0
LINE
  8
NOTE
  6
CENTER
 62
     4
 10
-141.49999300000039
 20
77.499992999999904
 30
0.0
 11
-141.49999300000039
 21
92.499992999999904
 31
0.0
  0
LINE
  8
NOTE
  6
CENTER
 62
     4
 10
90.000019000000066
 20
-46.000084000000022
 30
0.0
 11
90.000019000000066
 21
-84.000084000000015
 31
0.0
  0
LINE
  8
NOTE
  6
CENTER
 62
     4
 10
109.00001900000009
 20
-65.000084000000015
 30
0.0
 11
71.000019000000066
 21
-65.000084000000015
 31
0.0
  0
LINE
  8
DETAIL
  6
CONTINUOUS
 62
     5
 10
85.495291000000179
 20
-88.0
 30
0.0
 11
-105.3438459999998
 21
-88.0
 31
0.0
  0
LINE
  8
DETAIL
  6
CONTINUOUS
 62
     5
 10
-107.28249099999989
 20
-89.508415000000014
 30
0.0
 11
-113.6175090000002
 21
-114.4915850000002
 31
0.0
  0
LINE
  8
DETAIL
  6
CONTINUOUS
 62
     5
 10
-115.55615399999991
 20
-116.0
 30
0.0
 11
-127.0
 21
-116.0
 31
0.0
  0
ARC
  8
DETAIL
  6
CONTINUOUS
 62
     5
 10
-105.3438459999998
 20
-90.0
 30
0.0
 40
2.0
 50
90.0
 51
165.77132800000669
  0
ARC
  8
DETAIL
  6
CONTINUOUS
 62
     5
 10
-115.55615399999991
 20
-114.0
 30
0.0
 40
2.0
 50
270.0
 51
345.77132800000669
  0
LINE
  8
DETAIL
  6
CONTINUOUS
 62
     5
 10
87.37663799999973
 20
-89.321370999999999
 30
0.0
 11
96.523361999999906
 21
-114.6786280000001
 31
0.0
  0
LINE
  8
DETAIL
  6
CONTINUOUS
 62
     5
 10
127.0
 20
-116.0
 30
0.0
 11
98.404708999999912
 21
-116.0
 31
0.0
  0
ARC
  8
DETAIL
  6
CONTINUOUS
 62
     5
 10
98.404708999999912
 20
-114.0
 30
0.0
 40
2.0
 50
199.83509800000991
 51
270.0
  0
ARC
  8
DETAIL
  6
CONTINUOUS
 62
     5
 10
85.495291000000179
 20
-90.0
 30
0.0
 40
2.0
 50
19.835098000009872
 51
90.0
  0
LINE
  8
DETAIL
  6
CONTINUOUS
 62
     5
 10
127.0
 20
-124.0
 30
0.0
 11
-127.0
 21
-124.0
 31
0.0
  0
LINE
  8
DETAIL
  6
CONTINUOUS
 62
     5
 10
-65.163389000000279
 20
-127.0
 30
0.0
 11
-81.245718000000124
 21
-127.0
 31
0.0
  0
CIRCLE
  8
DETAIL
  6
CONTINUOUS
 62
     5
 10
19.0
 20
13.0
 30
0.0
 40
40.5
  0
ARC
  8
DETAIL
  6
CONTINUOUS
 62
     5
 10
163.5
 20
-163.5
 30
0.0
 40
1.5
 50
270.0
 51
0.0
  0
LINE
  8
DETAIL
  6
CONTINUOUS
 62
     5
 10
165.0
 20
-163.5
 30
0.0
 11
165.0
 21
0.0
 31
0.0
  0
LINE
  8
DETAIL
  6
CONTINUOUS
 62
     5
 10
-165.0
 20
-163.5
 30
0.0
 11
-165.0
 21
0.0
 31
0.0
  0
ARC
  8
DETAIL
  6
CONTINUOUS
 62
     5
 10
-163.5
 20
-163.5
 30
0.0
 40
1.5
 50
180.0
 51
270.0
  0
LINE
  8
DETAIL
  6
CONTINUOUS
 62
     5
 10
-165.0
 20
163.5
 30
0.0
 11
-165.0
 21
0.0
 31
0.0
  0
ARC
  8
DETAIL
  6
CONTINUOUS
 62
     5
 10
-163.5
 20
163.5
 30
0.0
 40
1.5
 50
90.0
 51
180.0
  0
LINE
  8
DETAIL
  6
CONTINUOUS
 62
     5
 10
165.0
 20
163.5
 30
0.0
 11
165.0
 21
0.0
 31
0.0
  0
ARC
  8
DETAIL
  6
CONTINUOUS
 62
     5
 10
163.5
 20
163.5
 30
0.0
 40
1.5
 50
0.0
 51
90.0
  0
CIRCLE
  8
DETAIL
  6
CONTINUOUS
 62
     5
 10
90.000019000000066
 20
-65.000084000000015
 30
0.0
 40
14.0
  0
LINE
  8
DETAIL
  6
CONTINUOUS
 62
     5
 10
-152.99997100000019
 20
-138.0000100000002
 30
0.0
 11
-152.99997100000019
 21
0.0
 31
0.0
  0
ARC
  8
DETAIL
  6
CONTINUOUS
 62
     5
 10
-137.99997100000019
 20
-138.0000100000002
 30
0.0
 40
15.0
 50
180.0
 51
270.0
  0
CIRCLE
  8
DETAIL
  6
CONTINUOUS
 62
     5
 10
-84.999998999999661
 20
-141.49998600000001
 30
0.0
 40
2.5
  0
CIRCLE
  8
DETAIL
  6
CONTINUOUS
 62
     5
 10
-141.49999300000039
 20
-84.99999200000002
 30
0.0
 40
2.5
  0
LINE
  8
DETAIL
  6
CONTINUOUS
 62
     5
 10
152.99997100000019
 20
-138.0000100000002
 30
0.0
 11
152.99997100000019
 21
0.0
 31
0.0
  0
ARC
  8
DETAIL
  6
CONTINUOUS
 62
     5
 10
137.99997100000019
 20
-138.0000100000002
 30
0.0
 40
15.0
 50
270.0
 51
0.0
  0
CIRCLE
  8
DETAIL
  6
CONTINUOUS
 62
     5
 10
141.4999929999999
 20
-84.99999200000002
 30
0.0
 40
2.5
  0
LINE
  8
DETAIL
  6
CONTINUOUS
 62
     5
 10
152.99997100000019
 20
138.00001099999989
 30
0.0
 11
152.99997100000019
 21
0.0
 31
0.0
  0
ARC
  8
DETAIL
  6
CONTINUOUS
 62
     5
 10
137.99997100000019
 20
138.00001099999989
 30
0.0
 40
15.0
 50
0.0
 51
90.0
  0
CIRCLE
  8
DETAIL
  6
CONTINUOUS
 62
     5
 10
141.4999929999999
 20
84.999992999999904
 30
0.0
 40
2.5
  0
LINE
  8
DETAIL
  6
CONTINUOUS
 62
     5
 10
-152.99997100000019
 20
138.00001099999989
 30
0.0
 11
-152.99997100000019
 21
0.0
 31
0.0
  0
ARC
  8
DETAIL
  6
CONTINUOUS
 62
     5
 10
-137.99997100000019
 20
138.00001099999989
 30
0.0
 40
15.0
 50
90.0
 51
180.0
  0
CIRCLE
  8
DETAIL
  6
CONTINUOUS
 62
     5
 10
-84.999998999999661
 20
141.49998699999989
 30
0.0
 40
2.5
  0
CIRCLE
  8
DETAIL
  6
CONTINUOUS
 62
     5
 10
-141.49999300000039
 20
84.999992999999904
 30
0.0
 40
2.5
  0
LINE
  8
BASIS
  6
DASHDOT
 62
     6
 10
205.07468180592971
 20
0.0
 30
0.0
 11
-204.15833018410649
 21
0.0
 31
0.0
  0
LINE
  8
DETAIL
  6
CONTINUOUS
 62
     5
 10
-127.0
 20
-127.0
 30
0.0
 11
-127.0
 21
112.0
 31
0.0
  0
LINE
  8
DETAIL
  6
CONTINUOUS
 62
     5
 10
127.0
 20
-127.0
 30
0.0
 11
127.0
 21
112.0
 31
0.0
  0
ARC
  8
DETAIL
  6
CONTINUOUS
 62
     5
 10
112.0
 20
112.0
 30
0.0
 40
15.0
 50
0.0
 51
90.0
  0
ARC
  8
DETAIL
  6
CONTINUOUS
 62
     5
 10
-112.0
 20
112.0
 30
0.0
 40
15.0
 50
90.0
 51
180.0
  0
LINE
  8
DETAIL
  6
CONTINUOUS
 62
     5
 10
-65.163389000000279
 20
-127.0
 30
0.0
 11
-127.0
 21
-127.0
 31
0.0
  0
ARC
  8
DETAIL
  6
CONTINUOUS
 62
     5
 10
90.341505999999754
 20
-126.47854699999991
 30
0.0
 40
0.9982490000000001
 50
0.0
 51
90.0
  0
LINE
  8
DETAIL
  6
CONTINUOUS
 62
     5
 10
91.339754999999968
 20
-127.476795
 30
0.0
 11
92.338002999999844
 21
-127.476795
 31
0.0
  0
ARC
  8
DETAIL
  6
CONTINUOUS
 62
     5
 10
92.338002999999844
 20
-128.475044
 30
0.0
 40
0.9982490000000001
 50
0.0
 51
90.0
  0
LINE
  8
DETAIL
  6
CONTINUOUS
 62
     5
 10
90.341505999999754
 20
-125.4802980000002
 30
0.0
 11
64.344374000000244
 21
-125.4802980000002
 31
0.0
  0
LINE
  8
DETAIL
  6
CONTINUOUS
 62
     5
 10
90.341505999999754
 20
-197.3542030000001
 30
0.0
 11
86.348511000000144
 21
-197.3542030000001
 31
0.0
  0
ARC
  8
DETAIL
  6
CONTINUOUS
 62
     5
 10
90.341505999999754
 20
-196.35595499999999
 30
0.0
 40
0.9982490000000001
 50
270.0
 51
0.0
  0
LINE
  8
DETAIL
  6
CONTINUOUS
 62
     5
 10
91.339754999999968
 20
-195.35770600000001
 30
0.0
 11
92.338002999999844
 21
-195.35770600000001
 31
0.0
  0
ARC
  8
DETAIL
  6
CONTINUOUS
 62
     5
 10
92.338002999999844
 20
-194.35945699999999
 30
0.0
 40
0.9982490000000001
 50
270.0
 51
0.0
  0
LINE
  8
DETAIL
  6
CONTINUOUS
 62
     5
 10
91.339754999999968
 20
-126.47854699999991
 30
0.0
 11
91.339754999999968
 21
-196.35595499999999
 31
0.0
  0
LINE
  8
DETAIL
  6
CONTINUOUS
 62
     5
 10
86.348511000000144
 20
-125.4802980000002
 30
0.0
 11
86.348511000000144
 21
-197.3542030000001
 31
0.0
  0
LINE
  8
DETAIL
  6
CONTINUOUS
 62
     5
 10
93.336252000000059
 20
-128.475044
 30
0.0
 11
93.336252000000059
 21
-194.35945699999999
 31
0.0
  0
ARC
  8
DETAIL
  6
CONTINUOUS
 62
     5
 10
-50.411559000000118
 20
-232.16426300000009
 30
0.0
 40
1.996497
 50
180.8030489999941
 51
225.00000000001839
  0
LINE
  8
DETAIL
  6
CONTINUOUS
 62
     5
 10
-52.407860000000262
 20
-232.19224500000021
 30
0.0
 11
-52.90634
 21
-196.6290819999999
 31
0.0
  0
LINE
  8
DETAIL
  6
CONTINUOUS
 62
     5
 10
-51.823296000000028
 20
-233.57599999999999
 30
0.0
 11
-48.914185999999972
 21
-236.48511000000011
 31
0.0
  0
LINE
  8
DETAIL
  6
CONTINUOUS
 62
     5
 10
-48.914185999999972
 20
-266.43257100000011
 30
0.0
 11
-48.914185999999972
 21
-236.48511000000011
 31
0.0
  0
LINE
  8
DETAIL
  6
CONTINUOUS
 62
     5
 10
-54.640749000000142
 20
-176.09123199999999
 30
0.0
 11
-53.434565000000021
 21
-196.1599020000001
 31
0.0
  0
ARC
  8
DETAIL
  6
CONTINUOUS
 62
     5
 10
-52.936338999999862
 20
-196.12995799999999
 30
0.0
 40
0.499124
 50
183.43950199999989
 51
270.0
  0
LINE
  8
DETAIL
  6
CONTINUOUS
 62
     5
 10
-64.72447800000009
 20
-123.7828370000002
 30
0.0
 11
-54.177302000000047
 21
-176.09123199999999
 31
0.0
  0
ARC
  8
DETAIL
  6
CONTINUOUS
 62
     5
 10
50.411559000000118
 20
-232.16426300000009
 30
0.0
 40
1.996497
 50
314.99999999998158
 51
359.19695100000592
  0
LINE
  8
DETAIL
  6
CONTINUOUS
 62
     5
 10
48.914185999999972
 20
-266.43257100000011
 30
0.0
 11
48.914185999999972
 21
-236.48511000000011
 31
0.0
  0
LINE
  8
DETAIL
  6
CONTINUOUS
 62
     5
 10
51.823295000000137
 20
-233.57599999999999
 30
0.0
 11
48.914185999999972
 21
-236.48511000000011
 31
0.0
  0
LINE
  8
DETAIL
  6
CONTINUOUS
 62
     5
 10
48.914185999999972
 20
-266.43257100000011
 30
0.0
 11
-48.914185999999972
 21
-266.43257100000011
 31
0.0
  0
ARC
  8
DETAIL
  6
CONTINUOUS
 62
     5
 10
52.936338999999862
 20
-196.12995799999999
 30
0.0
 40
0.499124
 50
270.0
 51
356.56049800000011
  0
LINE
  8
DETAIL
  6
CONTINUOUS
 62
     5
 10
53.482778999999937
 20
-195.35770600000001
 30
0.0
 11
53.434564000000137
 21
-196.1599020000001
 31
0.0
  0
LINE
  8
DETAIL
  6
CONTINUOUS
 62
     5
 10
86.348511000000144
 20
-195.35770600000001
 30
0.0
 11
53.406304999999968
 21
-195.35770600000001
 31
0.0
  0
LINE
  8
DETAIL
  6
CONTINUOUS
 62
     5
 10
53.406304999999968
 20
-195.35770600000001
 30
0.0
 11
53.406304999999968
 21
-168.28765200000001
 31
0.0
  0
LINE
  8
DETAIL
  6
CONTINUOUS
 62
     5
 10
52.407860000000262
 20
-232.19224500000021
 30
0.0
 11
52.90634
 21
-196.6290819999999
 31
0.0
  0
LINE
  8
DETAIL
  6
CONTINUOUS
 62
     5
 10
-52.223426000000018
 20
-233.0027970000001
 30
0.0
 11
52.223426000000018
 21
-233.0027970000001
 31
0.0
  0
LINE
  8
DETAIL
  6
CONTINUOUS
 62
     5
 10
-48.914185999999972
 20
-236.48511000000011
 30
0.0
 11
48.914185999999972
 21
-236.48511000000011
 31
0.0
  0
LINE
  8
DETAIL
  6
CONTINUOUS
 62
     5
 10
52.936338999999862
 20
-196.6290819999999
 30
0.0
 11
-52.936338999999862
 21
-196.6290819999999
 31
0.0
  0
LINE
  8
DETAIL
  6
CONTINUOUS
 62
     5
 10
-48.914185999999972
 20
267.50800199999981
 30
0.0
 11
-48.914185999999972
 21
237.56054199999991
 31
0.0
  0
LINE
  8
DETAIL
  6
CONTINUOUS
 62
     5
 10
-51.823296000000028
 20
234.65143199999989
 30
0.0
 11
-48.914185999999972
 21
237.56054199999991
 31
0.0
  0
ARC
  8
DETAIL
  6
CONTINUOUS
 62
     5
 10
-50.411559000000118
 20
233.23969500000001
 30
0.0
 40
1.996497
 50
134.99999999998161
 51
179.1969510000059
  0
ARC
  8
DETAIL
  6
CONTINUOUS
 62
     5
 10
-52.936338999999862
 20
197.205389
 30
0.0
 40
0.499124
 50
90.0
 51
176.56049800000011
  0
LINE
  8
DETAIL
  6
CONTINUOUS
 62
     5
 10
-52.407860000000262
 20
233.26767699999999
 30
0.0
 11
-52.90634
 21
197.70451399999979
 31
0.0
  0
LINE
  8
DETAIL
  6
CONTINUOUS
 62
     5
 10
-54.640749000000142
 20
177.166663
 30
0.0
 11
-53.434565000000021
 21
197.23533399999999
 31
0.0
  0
LINE
  8
DETAIL
  6
CONTINUOUS
 62
     5
 10
-54.177302000000047
 20
177.166663
 30
0.0
 11
-54.61362199999985
 21
147.6873979999998
 31
0.0
  0
LINE
  8
DETAIL
  6
CONTINUOUS
 62
     5
 10
53.482778999999937
 20
196.4331379999999
 30
0.0
 11
53.434564000000137
 21
197.23533399999999
 31
0.0
  0
ARC
  8
DETAIL
  6
CONTINUOUS
 62
     5
 10
52.936338999999862
 20
197.205389
 30
0.0
 40
0.499124
 50
3.4395019999999068
 51
90.0
  0
LINE
  8
DETAIL
  6
CONTINUOUS
 62
     5
 10
52.407860000000262
 20
233.26767699999999
 30
0.0
 11
52.90634
 21
197.70451399999979
 31
0.0
  0
LINE
  8
DETAIL
  6
CONTINUOUS
 62
     5
 10
86.329889999999978
 20
196.4331379999999
 30
0.0
 11
53.406304999999968
 21
196.4331379999999
 31
0.0
  0
LINE
  8
DETAIL
  6
CONTINUOUS
 62
     5
 10
48.914185999999972
 20
267.50800199999981
 30
0.0
 11
48.914185999999972
 21
237.56054199999991
 31
0.0
  0
ARC
  8
DETAIL
  6
CONTINUOUS
 62
     5
 10
50.411559000000118
 20
233.23969500000001
 30
0.0
 40
1.996497
 50
0.8030489999940706
 51
45.000000000018417
  0
LINE
  8
DETAIL
  6
CONTINUOUS
 62
     5
 10
51.823295000000137
 20
234.65143199999989
 30
0.0
 11
48.914185999999972
 21
237.56054199999991
 31
0.0
  0
LINE
  8
DETAIL
  6
CONTINUOUS
 62
     5
 10
53.406304999999968
 20
196.4331379999999
 30
0.0
 11
53.406304999999968
 21
145.2079839999999
 31
0.0
  0
LINE
  8
DETAIL
  6
CONTINUOUS
 62
     5
 10
-52.936338999999862
 20
197.70451399999979
 30
0.0
 11
52.936338999999862
 21
197.70451399999979
 31
0.0
  0
LINE
  8
DETAIL
  6
CONTINUOUS
 62
     5
 10
53.406304999999968
 20
177.166663
 30
0.0
 11
-54.640749000000142
 21
177.166663
 31
0.0
  0
LINE
  8
DETAIL
  6
CONTINUOUS
 62
     5
 10
-48.914185999999972
 20
267.50800199999981
 30
0.0
 11
48.914185999999972
 21
267.50800199999981
 31
0.0
  0
LINE
  8
DETAIL
  6
CONTINUOUS
 62
     5
 10
52.223426000000018
 20
234.07822899999999
 30
0.0
 11
-52.223426000000018
 21
234.07822899999999
 31
0.0
  0
LINE
  8
DETAIL
  6
CONTINUOUS
 62
     5
 10
48.914185999999972
 20
237.56054199999991
 30
0.0
 11
-48.914185999999972
 21
237.56054199999991
 31
0.0
  0
LINE
  8
DETAIL
  6
CONTINUOUS
 62
     5
 10
-75.613256000000092
 20
144.06303399999999
 30
0.0
 11
-75.174500999999964
 21
146.10944399999991
 31
0.0
  0
LINE
  8
DETAIL
  6
CONTINUOUS
 62
     5
 10
-54.61362199999985
 20
147.6873979999998
 30
0.0
 11
-73.222366999999849
 21
147.6873979999998
 31
0.0
  0
ARC
  8
DETAIL
  6
CONTINUOUS
 62
     5
 10
-73.222366999999849
 20
145.69090099999991
 30
0.0
 40
1.996497
 50
90.0
 51
167.8988389999933
  0
ARC
  8
DETAIL
  6
CONTINUOUS
 62
     5
 10
-73.661122999999861
 20
143.64449099999999
 30
0.0
 40
1.996497
 50
90.0
 51
179.49999999999551
  0
LINE
  8
DETAIL
  6
CONTINUOUS
 62
     5
 10
51.878955000000133
 20
145.64098899999999
 30
0.0
 11
-73.661122999999861
 21
145.64098899999999
 31
0.0
  0
LINE
  8
DETAIL
  6
CONTINUOUS
 62
     5
 10
-75.657543999999689
 20
143.661914
 30
0.0
 11
-75.85578200000009
 21
120.9460879999999
 31
0.0
  0
ARC
  8
DETAIL
  6
CONTINUOUS
 62
     5
 10
-73.859360999999808
 20
120.9286649999999
 30
0.0
 40
1.996497
 50
179.49999999999551
 51
243.99658499998091
  0
LINE
  8
DETAIL
  6
CONTINUOUS
 62
     5
 10
-35.080858999999691
 20
99.213956999999937
 30
0.0
 11
-31.801803000000291
 21
90.995685000000094
 31
0.0
  0
ARC
  8
DETAIL
  6
CONTINUOUS
 62
     5
 10
-36.935201000000227
 20
98.474081999999953
 30
0.0
 40
1.996497
 50
21.75178799999944
 51
63.996584999980897
  0
LINE
  8
DETAIL
  6
CONTINUOUS
 62
     5
 10
-36.059887999999773
 20
100.26846999999999
 30
0.0
 11
-74.734675000000152
 21
119.1342769999999
 31
0.0
  0
LINE
  8
DETAIL
  6
CONTINUOUS
 62
     5
 10
-29.9474610000002
 20
89.739061999999876
 30
0.0
 11
29.947460999999748
 21
89.739061999999876
 31
0.0
  0
ARC
  8
DETAIL
  6
CONTINUOUS
 62
     5
 10
36.935201000000227
 20
98.924400999999989
 30
0.0
 40
1.996497
 50
136.46899000000519
 51
159.283980000003
  0
LINE
  8
DETAIL
  6
CONTINUOUS
 62
     5
 10
35.067786999999953
 20
99.630634999999984
 30
0.0
 11
31.814875000000029
 21
91.029325999999855
 31
0.0
  0
ARC
  8
DETAIL
  6
CONTINUOUS
 62
     5
 10
51.901836999999887
 20
120.47633500000011
 30
0.0
 40
1.996497
 50
316.46899000000508
 51
0.5000000000044884
  0
LINE
  8
DETAIL
  6
CONTINUOUS
 62
     5
 10
35.487736999999917
 20
100.299483
 30
0.0
 11
53.349301000000203
 21
119.1012539999999
 31
0.0
  0
LINE
  8
DETAIL
  6
CONTINUOUS
 62
     5
 10
53.696073000000069
 20
143.661914
 30
0.0
 11
53.898259000000053
 21
120.4937579999998
 31
0.0
  0
ARC
  8
DETAIL
  6
CONTINUOUS
 62
     5
 10
51.699652000000242
 20
143.64449099999999
 30
0.0
 40
1.996497
 50
0.5000000000044884
 51
90.0
  0
LINE
  8
DETAIL
  6
CONTINUOUS
 62
     5
 10
53.651785000000018
 20
144.06303399999999
 30
0.0
 11
53.406304999999968
 21
145.2079839999999
 31
0.0
  0
LINE
  8
DETAIL
  6
CONTINUOUS
 62
     5
 10
93.336252000000059
 20
-165.0
 30
0.0
 11
163.5
 21
-165.0
 31
0.0
  0
LINE
  8
DETAIL
  6
CONTINUOUS
 62
     5
 10
93.336252000000059
 20
-153.0000100000002
 30
0.0
 11
137.99997100000019
 21
-153.0000100000002
 31
0.0
  0
LINE
  8
DETAIL
  6
CONTINUOUS
 62
     5
 10
-58.83328900000015
 20
-153.0000100000002
 30
0.0
 11
-137.99997100000019
 21
-153.0000100000002
 31
0.0
  0
LINE
  8
DETAIL
  6
CONTINUOUS
 62
     5
 10
-56.413677000000007
 20
-165.0
 30
0.0
 11
-163.5
 21
-165.0
 31
0.0
  0
LINE
  8
DETAIL
  6
CONTINUOUS
 62
     5
 10
127.0
 20
-127.0
 30
0.0
 11
91.339754999999968
 21
-127.0
 31
0.0
  0
LINE
  8
BASIS
  6
DASHDOT
 62
     6
 10
0.0
 20
-329.47640696797481
 30
0.0
 11
0.0
 21
299.31303969569882
 31
0.0
  0
LINE
  8
DETAIL
  6
CONTINUOUS
 62
     5
 10
-54.640749000000142
 20
-176.09123199999999
 30
0.0
 11
53.406304999999968
 21
-176.09123199999999
 31
0.0
  0
LINE
  8
DETAIL
  6
CONTINUOUS
 62
     5
 10
64.778105999999752
 20
-123.7828370000002
 30
0.0
 11
53.406304999999968
 21
-168.28765200000001
 31
0.0
  0
LINE
  8
DETAIL
  6
CONTINUOUS
 62
     5
 10
91.321133000000373
 20
196.4331379999999
 30
0.0
 11
92.319382000000132
 21
196.4331379999999
 31
0.0
  0
ARC
  8
DETAIL
  6
CONTINUOUS
 62
     5
 10
92.319382000000132
 20
195.43488899999991
 30
0.0
 40
0.9982490000000001
 50
0.0
 51
90.0
  0
ARC
  8
DETAIL
  6
CONTINUOUS
 62
     5
 10
90.322885000000042
 20
127.5539779999999
 30
0.0
 40
0.9982490000000001
 50
270.0
 51
0.0
  0
LINE
  8
DETAIL
  6
CONTINUOUS
 62
     5
 10
91.321133000000373
 20
128.5522269999999
 30
0.0
 11
92.319382000000132
 21
128.5522269999999
 31
0.0
  0
ARC
  8
DETAIL
  6
CONTINUOUS
 62
     5
 10
92.319382000000132
 20
129.55047599999989
 30
0.0
 40
0.9982490000000001
 50
270.0
 51
0.0
  0
LINE
  8
DETAIL
  6
CONTINUOUS
 62
     5
 10
91.321133000000373
 20
197.431386
 30
0.0
 11
91.321133000000373
 21
127.5539779999999
 31
0.0
  0
LINE
  8
DETAIL
  6
CONTINUOUS
 62
     5
 10
86.329889999999978
 20
198.42963499999999
 30
0.0
 11
86.329889999999978
 21
126.5557289999999
 31
0.0
  0
LINE
  8
DETAIL
  6
CONTINUOUS
 62
     5
 10
93.317630999999892
 20
195.43488899999991
 30
0.0
 11
93.317630999999892
 21
129.55047599999989
 31
0.0
  0
LINE
  8
DETAIL
  6
CONTINUOUS
 62
     5
 10
90.322885000000042
 20
126.5557289999999
 30
0.0
 11
53.845357000000149
 21
126.5557289999999
 31
0.0
  0
LINE
  8
DETAIL
  6
CONTINUOUS
 62
     5
 10
112.0
 20
127.0
 30
0.0
 11
91.153311999999914
 21
127.0
 31
0.0
  0
LINE
  8
DETAIL
  6
CONTINUOUS
 62
     5
 10
93.317630999999892
 20
153.00001099999989
 30
0.0
 11
137.99997100000019
 21
153.00001099999989
 31
0.0
  0
LINE
  8
DETAIL
  6
CONTINUOUS
 62
     5
 10
93.317630999999892
 20
165.0
 30
0.0
 11
163.5
 21
165.0
 31
0.0
  0
ARC
  8
DETAIL
  6
CONTINUOUS
 62
     5
 10
90.322885000000042
 20
197.431386
 30
0.0
 40
0.9982490000000001
 50
0.0
 51
90.0
  0
LINE
  8
DETAIL
  6
CONTINUOUS
 62
     5
 10
86.329889999999978
 20
198.42963499999999
 30
0.0
 11
90.322885000000042
 21
198.42963499999999
 31
0.0
  0
ARC
  8
DETAIL
  6
CONTINUOUS
 62
     5
 10
29.947460999999748
 20
91.73555999999985
 30
0.0
 40
1.996497
 50
270.0
 51
339.28398000000288
  0
ARC
  8
DETAIL
  6
CONTINUOUS
 62
     5
 10
-29.9474610000002
 20
91.73555999999985
 30
0.0
 40
1.996497
 50
201.75178799999941
 51
270.0
  0
LINE
  8
DETAIL
  6
CONTINUOUS
 62
     5
 10
-54.534990000000107
 20
153.00001099999989
 30
0.0
 11
-137.99997100000019
 21
153.00001099999989
 31
0.0
  0
LINE
  8
DETAIL
  6
CONTINUOUS
 62
     5
 10
-54.357380000000383
 20
165.0
 30
0.0
 11
-163.5
 21
165.0
 31
0.0
  0
LINE
  8
DETAIL
  6
CONTINUOUS
 62
     5
 10
-75.802950999999666
 20
127.0
 30
0.0
 11
-112.0
 21
127.0
 31
0.0
  0
ARC
  8
OUTLINE
  6
CONTINUOUS
 62
     3
 10
163.5
 20
163.5
 30
0.0
 40
1.5
 50
0.0
 51
90.0
  0
LINE
  8
OUTLINE
  6
CONTINUOUS
 62
     3
 10
165.0
 20
163.5
 30
0.0
 11
165.0
 21
0.0
 31
0.0
  0
ARC
  8
OUTLINE
  6
CONTINUOUS
 62
     3
 10
-163.5
 20
163.5
 30
0.0
 40
1.5
 50
90.0
 51
180.0
  0
LINE
  8
OUTLINE
  6
CONTINUOUS
 62
     3
 10
-165.0
 20
163.5
 30
0.0
 11
-165.0
 21
0.0
 31
0.0
  0
ARC
  8
OUTLINE
  6
CONTINUOUS
 62
     3
 10
-163.5
 20
-163.5
 30
0.0
 40
1.5
 50
180.0
 51
270.0
  0
LINE
  8
OUTLINE
  6
CONTINUOUS
 62
     3
 10
-165.0
 20
-163.5
 30
0.0
 11
-165.0
 21
0.0
 31
0.0
  0
LINE
  8
OUTLINE
  6
CONTINUOUS
 62
     3
 10
165.0
 20
-163.5
 30
0.0
 11
165.0
 21
0.0
 31
0.0
  0
ARC
  8
OUTLINE
  6
CONTINUOUS
 62
     3
 10
163.5
 20
-163.5
 30
0.0
 40
1.5
 50
270.0
 51
0.0
  0
LINE
  8
OUTLINE
  6
CONTINUOUS
 62
     3
 10
90.341505999999754
 20
-197.3542030000001
 30
0.0
 11
86.348511000000144
 21
-197.3542030000001
 31
0.0
  0
ARC
  8
OUTLINE
  6
CONTINUOUS
 62
     3
 10
90.341505999999754
 20
-196.35595499999999
 30
0.0
 40
0.9982490000000001
 50
270.0
 51
0.0
  0
LINE
  8
OUTLINE
  6
CONTINUOUS
 62
     3
 10
91.339754999999968
 20
-195.35770600000001
 30
0.0
 11
92.338002999999844
 21
-195.35770600000001
 31
0.0
  0
ARC
  8
OUTLINE
  6
CONTINUOUS
 62
     3
 10
92.338002999999844
 20
-194.35945700000019
 30
0.0
 40
0.9982490000000001
 50
270.0
 51
0.0
  0
ARC
  8
OUTLINE
  6
CONTINUOUS
 62
     3
 10
-50.411559000000118
 20
-232.16426299999989
 30
0.0
 40
1.996497
 50
180.8030489999941
 51
225.00000000001839
  0
LINE
  8
OUTLINE
  6
CONTINUOUS
 62
     3
 10
-52.407860000000262
 20
-232.19224500000001
 30
0.0
 11
-52.90634
 21
-196.62908200000021
 31
0.0
  0
LINE
  8
OUTLINE
  6
CONTINUOUS
 62
     3
 10
-51.823296000000028
 20
-233.57599999999999
 30
0.0
 11
-48.914185999999972
 21
-236.48511000000011
 31
0.0
  0
LINE
  8
OUTLINE
  6
CONTINUOUS
 62
     3
 10
-48.914185999999972
 20
-266.43257100000011
 30
0.0
 11
-48.914185999999972
 21
-236.48511000000011
 31
0.0
  0
LINE
  8
OUTLINE
  6
CONTINUOUS
 62
     3
 10
-54.640749000000142
 20
-176.09123199999999
 30
0.0
 11
-53.434565000000021
 21
-196.1599020000001
 31
0.0
  0
ARC
  8
OUTLINE
  6
CONTINUOUS
 62
     3
 10
-52.936338999999862
 20
-196.12995800000019
 30
0.0
 40
0.499124
 50
183.43950199999989
 51
270.0
  0
LINE
  8
OUTLINE
  6
CONTINUOUS
 62
     3
 10
48.914185999999972
 20
-266.43257100000011
 30
0.0
 11
-48.914185999999972
 21
-266.43257100000011
 31
0.0
  0
ARC
  8
OUTLINE
  6
CONTINUOUS
 62
     3
 10
50.411559000000118
 20
-232.16426299999989
 30
0.0
 40
1.996497
 50
314.99999999998158
 51
359.19695100000592
  0
LINE
  8
OUTLINE
  6
CONTINUOUS
 62
     3
 10
48.914185999999972
 20
-266.43257100000011
 30
0.0
 11
48.914185999999972
 21
-236.48511000000011
 31
0.0
  0
LINE
  8
OUTLINE
  6
CONTINUOUS
 62
     3
 10
51.823295000000137
 20
-233.57599999999999
 30
0.0
 11
48.914185999999972
 21
-236.48511000000011
 31
0.0
  0
ARC
  8
OUTLINE
  6
CONTINUOUS
 62
     3
 10
52.936338999999862
 20
-196.12995800000019
 30
0.0
 40
0.499124
 50
270.0
 51
356.56049800000011
  0
LINE
  8
OUTLINE
  6
CONTINUOUS
 62
     3
 10
53.482778999999937
 20
-195.35770600000001
 30
0.0
 11
53.434564000000137
 21
-196.1599020000001
 31
0.0
  0
LINE
  8
OUTLINE
  6
CONTINUOUS
 62
     3
 10
52.407860000000262
 20
-232.19224500000001
 30
0.0
 11
52.90634
 21
-196.62908200000021
 31
0.0
  0
LINE
  8
OUTLINE
  6
CONTINUOUS
 62
     3
 10
93.336252000000059
 20
-165.0
 30
0.0
 11
93.336252000000059
 21
-194.35945700000019
 31
0.0
  0
LINE
  8
OUTLINE
  6
CONTINUOUS
 62
     3
 10
-56.413677000000007
 20
-165.0
 30
0.0
 11
-54.177302000000047
 21
-176.09123199999999
 31
0.0
  0
LINE
  8
OUTLINE
  6
CONTINUOUS
 62
     3
 10
-48.914185999999972
 20
267.50800199999998
 30
0.0
 11
-48.914185999999972
 21
237.56054199999991
 31
0.0
  0
LINE
  8
OUTLINE
  6
CONTINUOUS
 62
     3
 10
-51.823296000000028
 20
234.65143199999989
 30
0.0
 11
-48.914185999999972
 21
237.56054199999991
 31
0.0
  0
ARC
  8
OUTLINE
  6
CONTINUOUS
 62
     3
 10
-50.411559000000118
 20
233.23969500000001
 30
0.0
 40
1.996497
 50
134.99999999998161
 51
179.1969510000059
  0
ARC
  8
OUTLINE
  6
CONTINUOUS
 62
     3
 10
-52.936338999999862
 20
197.205389
 30
0.0
 40
0.499124
 50
90.0
 51
176.56049800000011
  0
LINE
  8
OUTLINE
  6
CONTINUOUS
 62
     3
 10
-52.407860000000262
 20
233.26767699999979
 30
0.0
 11
-52.90634
 21
197.70451399999999
 31
0.0
  0
LINE
  8
OUTLINE
  6
CONTINUOUS
 62
     3
 10
-54.640749000000142
 20
177.166663
 30
0.0
 11
-53.434565000000021
 21
197.23533399999999
 31
0.0
  0
LINE
  8
OUTLINE
  6
CONTINUOUS
 62
     3
 10
53.482778999999937
 20
196.4331379999999
 30
0.0
 11
53.434564000000137
 21
197.23533399999999
 31
0.0
  0
ARC
  8
OUTLINE
  6
CONTINUOUS
 62
     3
 10
52.936338999999862
 20
197.205389
 30
0.0
 40
0.499124
 50
3.4395019999999068
 51
90.0
  0
LINE
  8
OUTLINE
  6
CONTINUOUS
 62
     3
 10
52.407860000000262
 20
233.26767699999979
 30
0.0
 11
52.90634
 21
197.70451399999999
 31
0.0
  0
LINE
  8
OUTLINE
  6
CONTINUOUS
 62
     3
 10
48.914185999999972
 20
267.50800199999998
 30
0.0
 11
48.914185999999972
 21
237.56054199999991
 31
0.0
  0
ARC
  8
OUTLINE
  6
CONTINUOUS
 62
     3
 10
50.411559000000118
 20
233.23969500000001
 30
0.0
 40
1.996497
 50
0.8030489999940706
 51
45.000000000018417
  0
LINE
  8
OUTLINE
  6
CONTINUOUS
 62
     3
 10
51.823295000000137
 20
234.65143199999989
 30
0.0
 11
48.914185999999972
 21
237.56054199999991
 31
0.0
  0
LINE
  8
OUTLINE
  6
CONTINUOUS
 62
     3
 10
-48.914185999999972
 20
267.50800199999998
 30
0.0
 11
48.914185999999972
 21
267.50800199999998
 31
0.0
  0
LINE
  8
OUTLINE
  6
CONTINUOUS
 62
     3
 10
91.321133000000373
 20
196.4331379999999
 30
0.0
 11
92.319382000000132
 21
196.4331379999999
 31
0.0
  0
ARC
  8
OUTLINE
  6
CONTINUOUS
 62
     3
 10
92.319382000000132
 20
195.43488899999991
 30
0.0
 40
0.9982490000000001
 50
0.0
 51
90.0
  0
ARC
  8
OUTLINE
  6
CONTINUOUS
 62
     3
 10
90.322885000000042
 20
197.431386
 30
0.0
 40
0.9982490000000001
 50
0.0
 51
90.0
  0
LINE
  8
OUTLINE
  6
CONTINUOUS
 62
     3
 10
86.329889999999978
 20
198.42963499999999
 30
0.0
 11
90.322885000000042
 21
198.42963499999999
 31
0.0
  0
LINE
  8
OUTLINE
  6
CONTINUOUS
 62
     3
 10
93.317630999999892
 20
195.43488899999991
 30
0.0
 11
93.317630999999892
 21
165.0
 31
0.0
  0
LINE
  8
OUTLINE
  6
CONTINUOUS
 62
     3
 10
-54.177302000000047
 20
177.166663
 30
0.0
 11
-54.357380000000383
 21
165.0
 31
0.0
  0
LINE
  8
OUTLINE
  6
CONTINUOUS
 62
     3
 10
93.317630999999892
 20
165.0
 30
0.0
 11
163.5
 21
165.0
 31
0.0
  0
LINE
  8
OUTLINE
  6
CONTINUOUS
 62
     3
 10
91.321133000000373
 20
197.431386
 30
0.0
 11
91.321133000000373
 21
196.4331379999999
 31
0.0
  0
LINE
  8
OUTLINE
  6
CONTINUOUS
 62
     3
 10
86.329889999999978
 20
198.42963499999999
 30
0.0
 11
86.329889999999978
 21
196.4331379999999
 31
0.0
  0
LINE
  8
OUTLINE
  6
CONTINUOUS
 62
     3
 10
86.329889999999978
 20
196.4331379999999
 30
0.0
 11
53.482778999999937
 21
196.4331379999999
 31
0.0
  0
LINE
  8
OUTLINE
  6
CONTINUOUS
 62
     3
 10
-54.357380000000383
 20
165.0
 30
0.0
 11
-163.5
 21
165.0
 31
0.0
  0
LINE
  8
OUTLINE
  6
CONTINUOUS
 62
     3
 10
-54.177302000000047
 20
177.166663
 30
0.0
 11
-54.640749000000142
 21
177.166663
 31
0.0
  0
LINE
  8
OUTLINE
  6
CONTINUOUS
 62
     3
 10
86.348511000000144
 20
-195.35770600000001
 30
0.0
 11
53.482778999999937
 21
-195.35770600000001
 31
0.0
  0
LINE
  8
OUTLINE
  6
CONTINUOUS
 62
     3
 10
86.348511000000144
 20
-195.35770600000001
 30
0.0
 11
86.348511000000144
 21
-197.3542030000001
 31
0.0
  0
LINE
  8
OUTLINE
  6
CONTINUOUS
 62
     3
 10
91.339754999999968
 20
-195.35770600000001
 30
0.0
 11
91.339754999999968
 21
-196.35595499999999
 31
0.0
  0
LINE
  8
OUTLINE
  6
CONTINUOUS
 62
     3
 10
93.336252000000059
 20
-165.0
 30
0.0
 11
163.5
 21
-165.0
 31
0.0
  0
LINE
  8
OUTLINE
  6
CONTINUOUS
 62
     3
 10
-56.413677000000007
 20
-165.0
 30
0.0
 11
-163.5
 21
-165.0
 31
0.0
  0
LINE
  8
SIZE
  6
CONTINUOUS
 62
    30
 10
-68.914185999999972
 20
267.50800199999998
 30
0.0
 11
-744.08777761894817
 21
267.50800199999998
 31
0.0
  0
LINE
  8
SIZE
  6
CONTINUOUS
 62
    30
 10
-132.0
 20
127.0
 30
0.0
 11
-744.08777761894817
 21
127.0000000000002
 31
0.0
  0
LINE
  8
SIZE
  6
CONTINUOUS
 62
    30
 10
-724.08777761894817
 20
279.50800199999998
 30
0.0
 11
-724.08777761894817
 21
291.50800199999998
 31
0.0
  0
LINE
  8
SIZE
  6
CONTINUOUS
 62
    30
 10
-724.08777761894817
 20
115.0000000000002
 30
0.0
 11
-724.08777761894817
 21
103.0000000000002
 31
0.0
  0
LINE
  8
SIZE
  6
CONTINUOUS
 62
    30
 10
-724.08777761894817
 20
267.50800199999998
 30
0.0
 11
-724.08777761894817
 21
127.0000000000002
 31
0.0
  0
CIRCLE
  8
SIZE
  6
CONTINUOUS
 62
    30
 10
-724.08777761894817
 20
267.50800199999998
 30
0.0
 40
6.0
  0
LINE
  8
SIZE
  6
CONTINUOUS
 62
    30
 10
-724.08777761894817
 20
267.50800199999998
 30
0.0
 11
-724.08777761894817
 21
279.50800199999998
 31
0.0
  0
CIRCLE
  8
SIZE
  6
CONTINUOUS
 62
    30
 10
-724.08777761894817
 20
127.0000000000002
 30
0.0
 40
6.0
  0
LINE
  8
SIZE
  6
CONTINUOUS
 62
    30
 10
-724.08777761894817
 20
127.0000000000002
 30
0.0
 11
-724.08777761894817
 21
115.0000000000002
 31
0.0
  0
TEXT
  8
SIZE
  6
CONTINUOUS
 62
    30
 10
-749.08777761894817
 20
127.31114385714289
 30
0.0
 40
64.0
  1
144
 50
90.0
 41
0.9
 72
     1
 11
-749.08777761894817
 21
197.25400099999999
 31
0.0
  0
POINT
  8
DEFPOINTS
  6
CONTINUOUS
 62
    30
 10
-48.914185999999972
 20
267.50800199999998
 30
0.0
  0
POINT
  8
DEFPOINTS
  6
CONTINUOUS
 62
    30
 10
-112.0
 20
127.0
 30
0.0
  0
POINT
  8
DEFPOINTS
  6
CONTINUOUS
 62
    30
 10
-724.08777761894817
 20
127.0000000000002
 30
0.0
  0
LINE
  8
SIZE
  6
CONTINUOUS
 62
    30
 10
0.0
 20
319.31303969569882
 30
0.0
 11
0.0
 21
688.50732494424301
 31
0.0
  0
LINE
  8
SIZE
  6
CONTINUOUS
 62
    30
 10
93.317630999999892
 20
215.43488899999991
 30
0.0
 11
93.317630999999892
 21
688.50732494424301
 31
0.0
  0
LINE
  8
SIZE
  6
CONTINUOUS
 62
    30
 10
-12.0
 20
668.50732494424301
 30
0.0
 11
-24.0
 21
668.50732494424301
 31
0.0
  0
LINE
  8
SIZE
  6
CONTINUOUS
 62
    30
 10
105.31763099999991
 20
668.50732494424301
 30
0.0
 11
117.31763099999991
 21
668.50732494424301
 31
0.0
  0
LINE
  8
SIZE
  6
CONTINUOUS
 62
    30
 10
0.0
 20
668.50732494424301
 30
0.0
 11
93.317630999999892
 21
668.50732494424301
 31
0.0
  0
CIRCLE
  8
SIZE
  6
CONTINUOUS
 62
    30
 10
0.0
 20
668.50732494424301
 30
0.0
 40
6.0
  0
LINE
  8
SIZE
  6
CONTINUOUS
 62
    30
 10
0.0
 20
668.50732494424301
 30
0.0
 11
-12.0
 21
668.50732494424301
 31
0.0
  0
CIRCLE
  8
SIZE
  6
CONTINUOUS
 62
    30
 10
93.317630999999892
 20
668.50732494424301
 30
0.0
 40
6.0
  0
LINE
  8
SIZE
  6
CONTINUOUS
 62
    30
 10
93.317630999999892
 20
668.50732494424301
 30
0.0
 11
105.31763099999991
 21
668.50732494424301
 31
0.0
  0
TEXT
  8
SIZE
  6
CONTINUOUS
 62
    30
 10
-1.3411845000000471
 20
693.50732494424301
 30
0.0
 40
64.0
  1
94
 41
0.9
 72
     1
 11
46.658815499999953
 21
693.50732494424301
 31
0.0
  0
POINT
  8
DEFPOINTS
  6
CONTINUOUS
 62
    30
 10
0.0
 20
299.31303969569882
 30
0.0
  0
POINT
  8
DEFPOINTS
  6
CONTINUOUS
 62
    30
 10
93.317630999999892
 20
195.43488899999991
 30
0.0
  0
POINT
  8
DEFPOINTS
  6
CONTINUOUS
 62
    30
 10
93.317630999999892
 20
668.50732494424301
 30
0.0
  0
LINE
  8
SIZE
  6
CONTINUOUS
 62
    30
 10
0.0
 20
-349.47640696797481
 30
0.0
 11
0.0
 21
-903.22491922686629
 31
0.0
  0
LINE
  8
SIZE
  6
CONTINUOUS
 62
    30
 10
93.336252000000059
 20
-214.35945699999999
 30
0.0
 11
93.336252000000059
 21
-903.22491922686629
 31
0.0
  0
LINE
  8
SIZE
  6
CONTINUOUS
 62
    30
 10
81.336252000000059
 20
-883.22491922686629
 30
0.0
 11
12.0
 21
-883.22491922686629
 31
0.0
  0
LINE
  8
SIZE
  6
CONTINUOUS
 62
    30
 10
0.0
 20
-883.22491922686629
 30
0.0
 11
-361.6043055241862
 21
-883.22491922686629
 31
0.0
  0
CIRCLE
  8
SIZE
  6
CONTINUOUS
 62
    30
 10
93.336252000000059
 20
-883.22491922686629
 30
0.0
 40
6.0
  0
LINE
  8
SIZE
  6
CONTINUOUS
 62
    30
 10
93.336252000000059
 20
-883.22491922686629
 30
0.0
 11
81.336252000000059
 21
-883.22491922686629
 31
0.0
  0
CIRCLE
  8
SIZE
  6
CONTINUOUS
 62
    30
 10
0.0
 20
-883.22491922686629
 30
0.0
 40
6.0
  0
LINE
  8
SIZE
  6
CONTINUOUS
 62
    30
 10
0.0
 20
-883.22491922686629
 30
0.0
 11
12.0
 21
-883.22491922686629
 31
0.0
  0
TEXT
  8
SIZE
  6
CONTINUOUS
 62
    30
 10
-336.6043055241862
 20
-858.22491922686629
 30
0.0
 40
64.0
  1
94
 41
0.9
 72
     1
 11
-288.6043055241862
 21
-858.22491922686629
 31
0.0
  0
POINT
  8
DEFPOINTS
  6
CONTINUOUS
 62
    30
 10
0.0
 20
-329.47640696797481
 30
0.0
  0
POINT
  8
DEFPOINTS
  6
CONTINUOUS
 62
    30
 10
93.336252000000059
 20
-194.35945699999999
 30
0.0
  0
POINT
  8
DEFPOINTS
  6
CONTINUOUS
 62
    30
 10
93.336252000000059
 20
-883.22491922686629
 30
0.0
  0
TEXT
  8
ETC
  6
CONTINUOUS
 62
    61
 10
820.34743089240419
 20
666.34381494465379
 30
0.0
 40
64.0
  1
VD-13ZFCD13_1
 41
0.9
  0
TEXT
  8
ETC
  6
CONTINUOUS
 62
    61
 10
816.1614368924038
 20
548.38850492982283
 30
0.0
 40
64.0
  1
換気扇
 41
0.9
  0
TEXT
  8
ETC
  6
CONTINUOUS
 62
    61
 10
863.92430805468257
 20
443.30703208396812
 30
0.0
 40
40.0
  1
VD-13ZFCD13
 41
0.9
  0
TEXT
  8
ETC
  6
CONTINUOUS
 62
    61
 10
863.92430805468257
 20
377.30703208396812
 30
0.0
 40
40.0
  1
VD-15ZFCD13
 41
0.9
  0
ENDSEC
  0
EOF
