  0
SECTION
  2
HEADER
  9
$ACADVER
  1
AC1009
  9
$DWGCODEPAGE
  3
dos932
  9
$INSBASE
 10
0.0
 20
0.0
 30
0.0
  9
$EXTMIN
 10
-658.47929256092721
 20
-459.82359671013359
 30
-0.0015258207003583
  9
$EXTMAX
 10
1116.1972162618731
 20
603.05786936434197
 30
0.0000000349246037
  9
$LIMMIN
 10
-2970.0
 20
-2100.0
  9
$LIMMAX
 10
2970.0
 20
2100.0
  9
$ORTHOMODE
 70
     1
  9
$REGENMODE
 70
     1
  9
$FILLMODE
 70
     1
  9
$QTEXTMODE
 70
     0
  9
$MIRRTEXT
 70
     0
  9
$LTSCALE
 40
20.0
  9
$ATTMODE
 70
     1
  9
$TEXTSIZE
 40
64.0
  9
$TRACEWID
 40
0.05
  9
$TEXTSTYLE
  7
STANDARD
  9
$CLAYER
  8
SIZE
  9
$CELTYPE
  6
CONTINUOUS
  9
$CECOLOR
 62
     7
  9
$DIMSCALE
 40
1.0
  9
$DIMASZ
 40
12.0
  9
$DIMEXO
 40
20.0
  9
$DIMDLI
 40
200.0
  9
$DIMRND
 40
0.0
  9
$DIMDLE
 40
0.0
  9
$DIMEXE
 40
20.0
  9
$DIMTP
 40
0.0
  9
$DIMTM
 40
0.0
  9
$DIMTXT
 40
64.0
  9
$DIMCEN
 40
0.09
  9
$DIMTSZ
 40
0.0
  9
$DIMTOL
 70
     0
  9
$DIMLIM
 70
     0
  9
$DIMTIH
 70
     0
  9
$DIMTOH
 70
     0
  9
$DIMSE1
 70
     0
  9
$DIMSE2
 70
     0
  9
$DIMTAD
 70
     1
  9
$DIMZIN
 70
     8
  9
$DIMBLK
  1

  9
$DIMASO
 70
     1
  9
$DIMSHO
 70
     0
  9
$DIMPOST
  1

  9
$DIMAPOST
  1

  9
$DIMALT
 70
     0
  9
$DIMALTD
 70
     2
  9
$DIMALTF
 40
25.399999999999999
  9
$DIMLFAC
 40
1.0
  9
$DIMTOFL
 70
     1
  9
$DIMTVP
 40
0.0
  9
$DIMTIX
 70
     1
  9
$DIMSOXD
 70
     0
  9
$DIMSAH
 70
     0
  9
$DIMBLK1
  1

  9
$DIMBLK2
  1

  9
$DIMSTYLE
  2
STANDARD
  9
$DIMCLRD
 70
     7
  9
$DIMCLRE
 70
     7
  9
$DIMCLRT
 70
     7
  9
$DIMTFAC
 40
1.0
  9
$DIMGAP
 40
25.0
  9
$LUNITS
 70
     2
  9
$LUPREC
 70
     4
  9
$SKETCHINC
 40
0.1
  9
$FILLETRAD
 40
3.0
  9
$AUNITS
 70
     1
  9
$AUPREC
 70
     3
  9
$MENU
  1
ACAD
  9
$ELEVATION
 40
0.0
  9
$PELEVATION
 40
0.0
  9
$THICKNESS
 40
0.0
  9
$LIMCHECK
 70
     0
  9
$CHAMFERA
 40
0.0
  9
$CHAMFERB
 40
0.0
  9
$SKPOLY
 70
     0
  9
$TDCREATE
 40
2453019.62301037
  9
$TDUPDATE
 40
2459025.49581191
  9
$TDINDWG
 40
1.7133608912
  9
$TDUSRTIMER
 40
1.7133608912
  9
$USRTIMER
 70
     1
  9
$ANGBASE
 50
0.0
  9
$ANGDIR
 70
     0
  9
$PDMODE
 70
     3
  9
$PDSIZE
 40
-2.0
  9
$PLINEWID
 40
0.0
  9
$SPLFRAME
 70
     0
  9
$SPLINETYPE
 70
     6
  9
$SPLINESEGS
 70
     8
  9
$SURFTAB1
 70
     6
  9
$SURFTAB2
 70
     6
  9
$SURFTYPE
 70
     6
  9
$SURFU
 70
     6
  9
$SURFV
 70
     6
  9
$UCSNAME
  2

  9
$UCSORG
 10
0.0
 20
0.0
 30
0.0
  9
$UCSXDIR
 10
1.0
 20
0.0
 30
0.0
  9
$UCSYDIR
 10
0.0
 20
1.0
 30
0.0
  9
$PUCSNAME
  2

  9
$PUCSORG
 10
0.0
 20
0.0
 30
0.0
  9
$PUCSXDIR
 10
1.0
 20
0.0
 30
0.0
  9
$PUCSYDIR
 10
0.0
 20
1.0
 30
0.0
  9
$USERI1
 70
     0
  9
$USERI2
 70
     0
  9
$USERI3
 70
     0
  9
$USERI4
 70
     0
  9
$USERI5
 70
     0
  9
$USERR1
 40
20.0
  9
$USERR2
 40
0.0
  9
$USERR3
 40
0.0
  9
$USERR4
 40
0.0
  9
$USERR5
 40
0.0
  9
$WORLDVIEW
 70
     1
  9
$SHADEDGE
 70
     3
  9
$SHADEDIF
 70
    70
  9
$TILEMODE
 70
     1
  9
$MAXACTVP
 70
    48
  9
$PINSBASE
 10
0.0
 20
0.0
 30
0.0
  9
$PLIMCHECK
 70
     0
  9
$PEXTMIN
 10
-100000000000000000000.0
 20
-100000000000000000000.0
 30
-100000000000000000000.0
  9
$PEXTMAX
 10
100000000000000000000.0
 20
100000000000000000000.0
 30
100000000000000000000.0
  9
$PLIMMIN
 10
0.0
 20
0.0
  9
$PLIMMAX
 10
12.0
 20
9.0
  9
$UNITMODE
 70
     0
  9
$VISRETAIN
 70
     0
  9
$PLINEGEN
 70
     0
  9
$PSLTSCALE
 70
     0
  9
$TREEDEPTH
 70
  3020
  9
$ATTDIA
 70
     0
  9
$ATTREQ
 70
     1
  9
$BLIPMODE
 70
     1
  9
$COORDS
 70
     1
  9
$DRAGMODE
 70
     2
  9
$OSMODE
 70
     0
  9
$HANDLING
 70
     0
  9
$HANDSEED
  5
F3A2
  0
ENDSEC
  0
SECTION
  2
TABLES
  0
TABLE
  2
LTYPE
 70
     3
  0
LTYPE
  2
CONTINUOUS
 70
     0
  3
実線
 72
    65
 73
     0
 40
0.0
  0
LTYPE
  2
DASHDOT
 70
     0
  3
____ _ ____ _ ____ _ ____ _ ____ _ ____ _ ____
 72
    65
 73
     4
 40
5.5
 49
4.0
 49
-0.6
 49
0.3
 49
-0.6
  0
LTYPE
  2
CENTER
 70
     0
  3
Center ____ _ ____ _ ____ _ ____ _ ____ _ ____
 72
    65
 73
     4
 40
1.0
 49
0.5
 49
-0.25
 49
0.0
 49
-0.25
  0
ENDTAB
  0
TABLE
  2
LAYER
 70
    12
  0
LAYER
  2
0
 70
     0
 62
     7
  6
CONTINUOUS
  0
LAYER
  2
BASIS
 70
     0
 62
     6
  6
DASHDOT
  0
LAYER
  2
OUTLINE
 70
     0
 62
     3
  6
CONTINUOUS
  0
LAYER
  2
DETAIL
 70
     0
 62
     5
  6
CONTINUOUS
  0
LAYER
  2
SIZE
 70
     0
 62
    30
  6
CONTINUOUS
  0
LAYER
  2
ARRANGE
 70
     0
 62
     1
  6
CONTINUOUS
  0
LAYER
  2
DEFPOINTS
 70
     0
 62
     7
  6
CONTINUOUS
  0
LAYER
  2
ETC
 70
     0
 62
    61
  6
CONTINUOUS
  0
LAYER
  2
FIX
 70
     0
 62
    11
  6
CONTINUOUS
  0
LAYER
  2
NOTE
 70
     0
 62
     4
  6
CONTINUOUS
  0
LAYER
  2
SERVICESPACE
 70
    64
 62
     2
  6
DASHDOT
  0
LAYER
  2
SYMBOLLINE
 70
    64
 62
    15
  6
CONTINUOUS
  0
ENDTAB
  0
TABLE
  2
STYLE
 70
     1
  0
STYLE
  2
STANDARD
 70
     0
 40
64.0
 41
0.9
 50
0.0
 71
     0
 42
64.0
  3
SIMPLEX.shx
  4
BIGFONT.shx
  0
ENDTAB
  0
TABLE
  2
APPID
 70
    19
  0
APPID
  2
ACAD
 70
     0
  0
APPID
  2
AUTOCAD_POSTSCRIPT_FIGURE
 70
     0
  0
APPID
  2
ACAD_EXEMPT_FROM_CAD_STANDARDS
 70
     0
  0
APPID
  2
ACAD_PSEXT
 70
     0
  0
APPID
  2
ACAUTHENVIRON
 70
     0
  0
APPID
  2
GENIUS_GENOENT_13
 70
     0
  0
APPID
  2
GENIUS_GENCFG_13
 70
     0
  0
APPID
  2
GENIUS_GENCFG0_13
 70
     0
  0
APPID
  2
GENIUS_GENCFG1_13
 70
     0
  0
APPID
  2
GENIUS_GENCFG2_13
 70
     0
  0
APPID
  2
GENIUS_GENCFG3_13
 70
     0
  0
APPID
  2
GENIUS_GENCFG4_13
 70
     0
  0
APPID
  2
GENIUS_GEVCFG0_13
 70
     0
  0
APPID
  2
CONTENTBLOCKICON
 70
     0
  0
APPID
  2
CONTENTBLOCKDESCRIPTION
 70
     0
  0
APPID
  2
ACAD_NAV_VCDISPLAY
 70
     0
  0
APPID
  2
ACAD_MLEADERVER
 70
     0
  0
APPID
  2
ACDBDYNAMICBLOCKTRUENAME
 70
     0
  0
APPID
  2
ACDBDYNAMICBLOCKGUID
 70
     0
  0
ENDTAB
  0
TABLE
  2
DIMSTYLE
 70
     1
  0
DIMSTYLE
  2
STANDARD
 70
     0
  3

  4

  5
_ORIGIN
  6

  7

 40
1.0
 41
12.0
 42
20.0
 43
200.0
 44
20.0
 45
0.0
 46
0.0
 47
0.0
 48
0.0
140
64.0
141
0.09
142
0.0
143
25.399999999999999
144
1.0
145
0.0
146
1.0
147
25.0
 71
     0
 72
     0
 73
     0
 74
     0
 75
     0
 76
     0
 77
     1
 78
     8
170
     0
171
     2
172
     1
173
     0
174
     1
175
     0
176
     7
177
     7
178
     7
  0
ENDTAB
  0
TABLE
  2
VIEW
 70
     1
  0
VIEW
  2
ALL
 70
     0
 40
4282.6198079999986
 10
0.0
 20
41.309904000000003
 41
5940.0
 11
0.0
 21
0.0
 31
1.0
 12
0.0
 22
0.0
 32
0.0
 42
50.0
 43
0.0
 44
0.0
 50
0.0
 71
     0
  0
ENDTAB
  0
TABLE
  2
UCS
 70
     0
  0
ENDTAB
  0
TABLE
  2
VPORT
 70
     1
  0
VPORT
  2
*ACTIVE
 70
     0
 10
0.0
 20
0.0
 11
1.0
 21
1.0
 12
228.85896185047281
 22
71.617136327104163
 13
0.0
 23
0.0
 14
1.0
 24
1.0
 15
0.0
 25
0.0
 16
0.0
 26
0.0
 36
1.0
 17
0.0
 27
0.0
 37
0.0
 40
1069.9281940263511
 41
1.747787610619469
 42
50.0
 43
0.0
 44
0.0
 50
0.0
 51
0.0
 71
     0
 72
  1000
 73
     1
 74
     3
 75
     0
 76
     0
 77
     0
 78
     0
  0
ENDTAB
  0
ENDSEC
  0
SECTION
  2
BLOCKS
  0
BLOCK
  8
0
  2
_ORIGIN
 70
     0
 10
0.0
 20
0.0
 30
0.0
  3
_ORIGIN
  1
_ORIGIN
  0
CIRCLE
  8
0
  6
CONTINUOUS
 62
     7
 10
0.0
 20
0.0
 30
0.0
 40
0.5
  0
LINE
  8
0
  6
CONTINUOUS
 62
     7
 10
0.0
 20
0.0
 30
0.0
 11
-1.0
 21
0.0
 31
0.0
  0
ENDBLK
  8
0
  0
ENDSEC
  0
SECTION
  2
ENTITIES
  0
TEXT
  8
NOTE
  6
CONTINUOUS
 62
     4
 10
-312.01916793135479
 20
393.65351321966517
 30
0.0
 40
64.0
  1
EL
 41
0.9
  0
LINE
  8
NOTE
  6
CONTINUOUS
 62
     4
 10
-375.8209440906212
 20
381.59841560060141
 30
0.0
 11
-207.29645256420139
 21
381.59841560055918
 31
0.0
  0
LINE
  8
NOTE
  6
CONTINUOUS
 62
     4
 10
-90.0
 20
165.0
 30
0.0
 11
-207.29645256420139
 21
381.59841560055918
 31
0.0
  0
LINE
  8
NOTE
  6
CONTINUOUS
 62
     4
 10
-90.0
 20
165.0
 30
0.0
 11
-118.0733740441128
 21
191.64394918744981
 31
0.0
  0
LINE
  8
NOTE
  6
CONTINUOUS
 62
     4
 10
-97.302562394578672
 20
204.25804970384539
 30
0.0
 11
-90.0
 21
165.0
 31
0.0
  0
CIRCLE
  8
ARRANGE
  6
CONTINUOUS
 62
     1
 10
0.0
 20
0.0
 30
0.0
 40
40.0
  0
POINT
  8
ARRANGE
  6
CONTINUOUS
 62
     1
 10
0.0
 20
0.0
 30
0.0
 50
90.000000000000014
  0
CIRCLE
  8
FIX
  6
CONTINUOUS
 62
    11
 10
141.5
 20
0.0
 30
0.0
 40
10.0
  0
CIRCLE
  8
FIX
  6
CONTINUOUS
 62
    11
 10
85.0
 20
0.0
 30
0.0
 40
10.0
  0
CIRCLE
  8
FIX
  6
CONTINUOUS
 62
    11
 10
-85.0
 20
0.0
 30
0.0
 40
10.0
  0
CIRCLE
  8
FIX
  6
CONTINUOUS
 62
    11
 10
-141.5
 20
0.0
 30
0.0
 40
10.0
  0
LINE
  8
SIZE
  6
CONTINUOUS
 62
    30
 10
127.09999999999989
 20
20.0
 30
0.0
 11
127.09999999999989
 21
485.10318425994052
 31
0.0
  0
LINE
  8
SIZE
  6
CONTINUOUS
 62
    30
 10
-127.10000000000041
 20
20.0
 30
0.0
 11
-127.10000000000041
 21
485.10318425994052
 31
0.0
  0
LINE
  8
SIZE
  6
CONTINUOUS
 62
    30
 10
115.09999999999989
 20
465.10318425994052
 30
0.0
 11
-115.10000000000041
 21
465.10318425994052
 31
0.0
  0
CIRCLE
  8
SIZE
  6
CONTINUOUS
 62
    30
 10
127.09999999999989
 20
465.10318425994052
 30
0.0
 40
6.0
  0
LINE
  8
SIZE
  6
CONTINUOUS
 62
    30
 10
127.09999999999989
 20
465.10318425994052
 30
0.0
 11
115.09999999999989
 21
465.10318425994052
 31
0.0
  0
CIRCLE
  8
SIZE
  6
CONTINUOUS
 62
    30
 10
-127.10000000000041
 20
465.10318425994052
 30
0.0
 40
6.0
  0
LINE
  8
SIZE
  6
CONTINUOUS
 62
    30
 10
-127.10000000000041
 20
465.10318425994052
 30
0.0
 11
-115.10000000000041
 21
465.10318425994052
 31
0.0
  0
TEXT
  8
SIZE
  6
CONTINUOUS
 62
    30
 10
-111.9085714285717
 20
490.10318425994052
 30
0.0
 40
64.0
  1
□254
 41
0.9
 72
     1
 11
-0.0000000000002274
 21
490.10318425994052
 31
0.0
  0
POINT
  8
DEFPOINTS
  6
CONTINUOUS
 62
    30
 10
127.09999999999989
 20
0.0
 30
0.0
  0
POINT
  8
DEFPOINTS
  6
CONTINUOUS
 62
    30
 10
-127.10000000000041
 20
0.0
 30
0.0
  0
POINT
  8
DEFPOINTS
  6
CONTINUOUS
 62
    30
 10
-127.10000000000041
 20
465.10318425994052
 30
0.0
  0
LINE
  8
SIZE
  6
CONTINUOUS
 62
    30
 10
-74.500002000000222
 20
199.15039999999999
 30
0.0
 11
-462.39263692914932
 21
199.1504000000001
 31
0.0
  0
LINE
  8
SIZE
  6
CONTINUOUS
 62
    30
 10
-184.47310999999991
 20
0.0
 30
0.0
 11
-462.39263692914938
 21
0.0000000000000568
 31
0.0
  0
LINE
  8
SIZE
  6
CONTINUOUS
 62
    30
 10
-442.39263692914932
 20
187.1504000000001
 30
0.0
 11
-442.39263692914938
 21
12.00000000000006
 31
0.0
  0
CIRCLE
  8
SIZE
  6
CONTINUOUS
 62
    30
 10
-442.39263692914932
 20
199.1504000000001
 30
0.0
 40
6.0
  0
LINE
  8
SIZE
  6
CONTINUOUS
 62
    30
 10
-442.39263692914932
 20
199.1504000000001
 30
0.0
 11
-442.39263692914932
 21
187.1504000000001
 31
0.0
  0
CIRCLE
  8
SIZE
  6
CONTINUOUS
 62
    30
 10
-442.39263692914938
 20
0.0000000000000568
 30
0.0
 40
6.0
  0
LINE
  8
SIZE
  6
CONTINUOUS
 62
    30
 10
-442.39263692914938
 20
0.0000000000000568
 30
0.0
 11
-442.39263692914938
 21
12.00000000000006
 31
0.0
  0
TEXT
  8
SIZE
  6
CONTINUOUS
 62
    30
 10
-467.39263692914938
 20
25.518057142857149
 30
0.0
 40
64.0
  1
200
 50
90.0
 41
0.9
 72
     1
 11
-467.39263692914938
 21
99.575199999999995
 31
0.0
  0
POINT
  8
DEFPOINTS
  6
CONTINUOUS
 62
    30
 10
-54.500002000000222
 20
199.15039999999999
 30
0.0
  0
POINT
  8
DEFPOINTS
  6
CONTINUOUS
 62
    30
 10
-164.47310999999991
 20
0.0
 30
0.0
  0
POINT
  8
DEFPOINTS
  6
CONTINUOUS
 62
    30
 10
-442.39263692914938
 20
0.0000000000000568
 30
0.0
  0
LINE
  8
SIZE
  6
CONTINUOUS
 62
    30
 10
-184.47310999999991
 20
0.0
 30
0.0
 11
-462.39263692914938
 21
0.0000000000000568
 31
0.0
  0
LINE
  8
SIZE
  6
CONTINUOUS
 62
    30
 10
-177.64946700000019
 20
-18.0
 30
0.0
 11
-462.39263692914938
 21
-17.99999999999989
 31
0.0
  0
LINE
  8
SIZE
  6
CONTINUOUS
 62
    30
 10
-442.39263692914938
 20
12.00000000000006
 30
0.0
 11
-442.39263692914938
 21
24.00000000000006
 31
0.0
  0
LINE
  8
SIZE
  6
CONTINUOUS
 62
    30
 10
-442.39263692914938
 20
-29.99999999999994
 30
0.0
 11
-442.39263692914938
 21
-174.28571428571419
 31
0.0
  0
LINE
  8
SIZE
  6
CONTINUOUS
 62
    30
 10
-442.39263692914938
 20
0.0000000000000568
 30
0.0
 11
-442.39263692914938
 21
-17.99999999999994
 31
0.0
  0
CIRCLE
  8
SIZE
  6
CONTINUOUS
 62
    30
 10
-442.39263692914938
 20
0.0000000000000568
 30
0.0
 40
6.0
  0
LINE
  8
SIZE
  6
CONTINUOUS
 62
    30
 10
-442.39263692914938
 20
0.0000000000000568
 30
0.0
 11
-442.39263692914938
 21
12.00000000000006
 31
0.0
  0
CIRCLE
  8
SIZE
  6
CONTINUOUS
 62
    30
 10
-442.39263692914938
 20
-17.99999999999994
 30
0.0
 40
6.0
  0
LINE
  8
SIZE
  6
CONTINUOUS
 62
    30
 10
-442.39263692914938
 20
-17.99999999999994
 30
0.0
 11
-442.39263692914938
 21
-29.99999999999994
 31
0.0
  0
TEXT
  8
SIZE
  6
CONTINUOUS
 62
    30
 10
-467.39263692914938
 20
-149.28571428571419
 30
0.0
 40
64.0
  1
18
 50
90.0
 41
0.9
 72
     1
 11
-467.39263692914938
 21
-108.1428571428571
 31
0.0
  0
POINT
  8
DEFPOINTS
  6
CONTINUOUS
 62
    30
 10
-164.47310999999991
 20
0.0
 30
0.0
  0
POINT
  8
DEFPOINTS
  6
CONTINUOUS
 62
    30
 10
-157.64946700000019
 20
-18.0
 30
0.0
  0
POINT
  8
DEFPOINTS
  6
CONTINUOUS
 62
    30
 10
-442.39263692914938
 20
-17.99999999999994
 30
0.0
  0
LINE
  8
SIZE
  6
CONTINUOUS
 62
    30
 10
85.0
 20
-27.08202400000005
 30
0.0
 11
85.0
 21
-190.31497259975001
 31
0.0
  0
LINE
  8
SIZE
  6
CONTINUOUS
 62
    30
 10
-85.0
 20
-27.08202400000005
 30
0.0
 11
-85.0
 21
-190.31497259975001
 31
0.0
  0
LINE
  8
SIZE
  6
CONTINUOUS
 62
    30
 10
-73.0
 20
-170.31497259975001
 30
0.0
 11
73.0
 21
-170.31497259975001
 31
0.0
  0
LINE
  8
SIZE
  6
CONTINUOUS
 62
    30
 10
85.0
 20
-170.31497259975001
 30
0.0
 11
392.4831651887007
 21
-170.31497259975001
 31
0.0
  0
CIRCLE
  8
SIZE
  6
CONTINUOUS
 62
    30
 10
-85.0
 20
-170.31497259975001
 30
0.0
 40
6.0
  0
LINE
  8
SIZE
  6
CONTINUOUS
 62
    30
 10
-85.0
 20
-170.31497259975001
 30
0.0
 11
-73.0
 21
-170.31497259975001
 31
0.0
  0
CIRCLE
  8
SIZE
  6
CONTINUOUS
 62
    30
 10
85.0
 20
-170.31497259975001
 30
0.0
 40
6.0
  0
LINE
  8
SIZE
  6
CONTINUOUS
 62
    30
 10
85.0
 20
-170.31497259975001
 30
0.0
 11
73.0
 21
-170.31497259975001
 31
0.0
  0
TEXT
  8
SIZE
  6
CONTINUOUS
 62
    30
 10
230.3403080458437
 20
-145.31497259975001
 30
0.0
 40
64.0
  1
170
 41
0.9
 72
     1
 11
298.91173661727231
 21
-145.31497259975001
 31
0.0
  0
POINT
  8
DEFPOINTS
  6
CONTINUOUS
 62
    30
 10
85.0
 20
-7.0820240000000467
 30
0.0
  0
POINT
  8
DEFPOINTS
  6
CONTINUOUS
 62
    30
 10
-85.0
 20
-7.0820240000000467
 30
0.0
  0
POINT
  8
DEFPOINTS
  6
CONTINUOUS
 62
    30
 10
-85.0
 20
-170.31497259975001
 30
0.0
  0
LINE
  8
SIZE
  6
CONTINUOUS
 62
    30
 10
141.5
 20
-27.08202400000005
 30
0.0
 11
141.5
 21
-331.59060550404052
 31
0.0
  0
LINE
  8
SIZE
  6
CONTINUOUS
 62
    30
 10
-141.5
 20
-27.08202400000005
 30
0.0
 11
-141.5
 21
-331.59060550404052
 31
0.0
  0
LINE
  8
SIZE
  6
CONTINUOUS
 62
    30
 10
129.5
 20
-311.59060550404052
 30
0.0
 11
-129.5
 21
-311.59060550404052
 31
0.0
  0
CIRCLE
  8
SIZE
  6
CONTINUOUS
 62
    30
 10
141.5
 20
-311.59060550404052
 30
0.0
 40
6.0
  0
LINE
  8
SIZE
  6
CONTINUOUS
 62
    30
 10
141.5
 20
-311.59060550404052
 30
0.0
 11
129.5
 21
-311.59060550404052
 31
0.0
  0
CIRCLE
  8
SIZE
  6
CONTINUOUS
 62
    30
 10
-141.5
 20
-311.59060550404052
 30
0.0
 40
6.0
  0
LINE
  8
SIZE
  6
CONTINUOUS
 62
    30
 10
-141.5
 20
-311.59060550404052
 30
0.0
 11
-129.5
 21
-311.59060550404052
 31
0.0
  0
TEXT
  8
SIZE
  6
CONTINUOUS
 62
    30
 10
-74.057142857142836
 20
-286.59060550404052
 30
0.0
 40
64.0
  1
283
 41
0.9
 72
     1
 11
0.0
 21
-286.59060550404052
 31
0.0
  0
POINT
  8
DEFPOINTS
  6
CONTINUOUS
 62
    30
 10
141.5
 20
-7.0820240000000467
 30
0.0
  0
POINT
  8
DEFPOINTS
  6
CONTINUOUS
 62
    30
 10
-141.5
 20
-7.0820240000000467
 30
0.0
  0
POINT
  8
DEFPOINTS
  6
CONTINUOUS
 62
    30
 10
-141.5
 20
-311.59060550404052
 30
0.0
  0
LINE
  8
SIZE
  6
CONTINUOUS
 62
    30
 10
164.97242399999999
 20
-20.526168000000101
 30
0.0
 11
164.97242399999999
 21
-459.50709692640442
 31
0.0
  0
LINE
  8
SIZE
  6
CONTINUOUS
 62
    30
 10
-164.9724249999999
 20
-20.526168000000101
 30
0.0
 11
-164.9724249999999
 21
-459.50709692640442
 31
0.0
  0
LINE
  8
SIZE
  6
CONTINUOUS
 62
    30
 10
152.97242399999999
 20
-439.50709692640442
 30
0.0
 11
-152.9724249999999
 21
-439.50709692640442
 31
0.0
  0
CIRCLE
  8
SIZE
  6
CONTINUOUS
 62
    30
 10
164.97242399999999
 20
-439.50709692640442
 30
0.0
 40
6.0
  0
LINE
  8
SIZE
  6
CONTINUOUS
 62
    30
 10
164.97242399999999
 20
-439.50709692640442
 30
0.0
 11
152.97242399999999
 21
-439.50709692640442
 31
0.0
  0
CIRCLE
  8
SIZE
  6
CONTINUOUS
 62
    30
 10
-164.9724249999999
 20
-439.50709692640442
 30
0.0
 40
6.0
  0
LINE
  8
SIZE
  6
CONTINUOUS
 62
    30
 10
-164.9724249999999
 20
-439.50709692640442
 30
0.0
 11
-152.9724249999999
 21
-439.50709692640442
 31
0.0
  0
TEXT
  8
SIZE
  6
CONTINUOUS
 62
    30
 10
-110.5371433571428
 20
-414.50709692640442
 30
0.0
 40
64.0
  1
□330
 41
0.9
 72
     1
 11
-0.0000004999999419
 21
-414.50709692640442
 31
0.0
  0
POINT
  8
DEFPOINTS
  6
CONTINUOUS
 62
    30
 10
164.97242399999999
 20
-0.5261680000000979
 30
0.0
  0
POINT
  8
DEFPOINTS
  6
CONTINUOUS
 62
    30
 10
-164.9724249999999
 20
-0.5261680000000979
 30
0.0
  0
POINT
  8
DEFPOINTS
  6
CONTINUOUS
 62
    30
 10
-164.9724249999999
 20
-439.50709692640442
 30
0.0
  0
LINE
  8
NOTE
  6
CONTINUOUS
 62
     4
 10
-141.5
 20
0.0
 30
0.0
 11
-376.78356798458663
 21
264.8116364789787
 31
0.0
  0
LINE
  8
NOTE
  6
CONTINUOUS
 62
     4
 10
-141.5
 20
0.0
 30
0.0
 11
-172.81274534757901
 21
22.683422418883421
 31
0.0
  0
LINE
  8
NOTE
  6
CONTINUOUS
 62
     4
 10
-160.49527469402349
 20
35.19929633376114
 30
0.0
 11
-141.5
 21
0.0
 31
0.0
  0
TEXT
  8
NOTE
  6
CONTINUOUS
 62
     4
 10
-43.120086753215929
 20
80.635429328613782
 30
0.0
 40
64.0
  1
RA
 41
0.9
 72
     2
 11
58.365627532498372
 21
80.635429328613782
 31
0.0
  0
LINE
  8
SIZE
  6
CONTINUOUS
 62
    30
 10
-77.814000000000306
 20
109.0003999999999
 30
0.0
 11
-357.80892818432778
 21
109.0004
 31
0.0
  0
LINE
  8
SIZE
  6
CONTINUOUS
 62
    30
 10
-184.47310999999991
 20
0.0
 30
0.0
 11
-357.80892818432778
 21
0.0000000000000568
 31
0.0
  0
LINE
  8
SIZE
  6
CONTINUOUS
 62
    30
 10
-337.80892818432773
 20
97.0003999999999
 30
0.0
 11
-337.80892818432773
 21
12.00000000000006
 31
0.0
  0
LINE
  8
SIZE
  6
CONTINUOUS
 62
    30
 10
-337.80892818432773
 20
0.0000000000000568
 30
0.0
 11
-337.80892818432773
 21
-221.37311035280831
 31
0.0
  0
CIRCLE
  8
SIZE
  6
CONTINUOUS
 62
    30
 10
-337.80892818432773
 20
109.0004
 30
0.0
 40
6.0
  0
LINE
  8
SIZE
  6
CONTINUOUS
 62
    30
 10
-337.80892818432773
 20
109.0004
 30
0.0
 11
-337.80892818432773
 21
97.000400000000013
 31
0.0
  0
CIRCLE
  8
SIZE
  6
CONTINUOUS
 62
    30
 10
-337.80892818432773
 20
0.0000000000000568
 30
0.0
 40
6.0
  0
LINE
  8
SIZE
  6
CONTINUOUS
 62
    30
 10
-337.80892818432773
 20
0.0000000000000568
 30
0.0
 11
-337.80892818432773
 21
12.00000000000006
 31
0.0
  0
TEXT
  8
SIZE
  6
CONTINUOUS
 62
    30
 10
-362.80892818432773
 20
-196.37311035280831
 30
0.0
 40
64.0
  1
109
 50
90.0
 41
0.9
 72
     1
 11
-362.80892818432773
 21
-129.17311035280829
 31
0.0
  0
POINT
  8
DEFPOINTS
  6
CONTINUOUS
 62
    30
 10
-57.814000000000313
 20
109.0003999999999
 30
0.0
  0
POINT
  8
DEFPOINTS
  6
CONTINUOUS
 62
    30
 10
-164.47310999999991
 20
0.0
 30
0.0
  0
POINT
  8
DEFPOINTS
  6
CONTINUOUS
 62
    30
 10
-337.80892818432773
 20
0.0000000000000568
 30
0.0
  0
LINE
  8
SIZE
  6
CONTINUOUS
 62
    30
 10
-70.0
 20
40.0
 30
0.0
 11
-242.0697310683081
 21
40.000000000000057
 31
0.0
  0
LINE
  8
SIZE
  6
CONTINUOUS
 62
    30
 10
-184.47310999999991
 20
0.0
 30
0.0
 11
-242.0697310683081
 21
0.0
 31
0.0
  0
LINE
  8
SIZE
  6
CONTINUOUS
 62
    30
 10
-222.0697310683081
 20
52.000000000000057
 30
0.0
 11
-222.0697310683081
 21
64.0
 31
0.0
  0
LINE
  8
SIZE
  6
CONTINUOUS
 62
    30
 10
-222.0697310683081
 20
-12.0
 30
0.0
 11
-222.0697310683081
 21
-186.43885384221991
 31
0.0
  0
LINE
  8
SIZE
  6
CONTINUOUS
 62
    30
 10
-222.0697310683081
 20
40.000000000000057
 30
0.0
 11
-222.0697310683081
 21
0.0
 31
0.0
  0
CIRCLE
  8
SIZE
  6
CONTINUOUS
 62
    30
 10
-222.0697310683081
 20
40.000000000000057
 30
0.0
 40
6.0
  0
LINE
  8
SIZE
  6
CONTINUOUS
 62
    30
 10
-222.0697310683081
 20
40.000000000000057
 30
0.0
 11
-222.0697310683081
 21
52.000000000000057
 31
0.0
  0
CIRCLE
  8
SIZE
  6
CONTINUOUS
 62
    30
 10
-222.0697310683081
 20
0.0
 30
0.0
 40
6.0
  0
LINE
  8
SIZE
  6
CONTINUOUS
 62
    30
 10
-222.0697310683081
 20
0.0
 30
0.0
 11
-222.0697310683081
 21
-12.0
 31
0.0
  0
TEXT
  8
SIZE
  6
CONTINUOUS
 62
    30
 10
-247.0697310683081
 20
-161.43885384222
 30
0.0
 40
64.0
  1
40
 50
90.0
 41
0.9
 72
     1
 11
-247.0697310683081
 21
-114.81028241364859
 31
0.0
  0
POINT
  8
DEFPOINTS
  6
CONTINUOUS
 62
    30
 10
-50.0
 20
40.0
 30
0.0
  0
POINT
  8
DEFPOINTS
  6
CONTINUOUS
 62
    30
 10
-164.47310999999991
 20
0.0
 30
0.0
  0
POINT
  8
DEFPOINTS
  6
CONTINUOUS
 62
    30
 10
-222.0697310683081
 20
0.0
 30
0.0
  0
LINE
  8
NOTE
  6
CENTER
 62
     4
 10
-90.0
 20
146.6435469999999
 30
0.0
 11
-90.0
 21
190.02854161491271
 31
0.0
  0
LINE
  8
OUTLINE
  6
CONTINUOUS
 62
     3
 10
-127.10000000000041
 20
0.0
 30
0.0
 11
-164.47310999999991
 21
0.0
 31
0.0
  0
ARC
  8
OUTLINE
  6
CONTINUOUS
 62
     3
 10
-157.64946700000019
 20
-17.0
 30
0.0
 40
1.0
 50
226.5000000000073
 51
270.0
  0
LINE
  8
OUTLINE
  6
CONTINUOUS
 62
     3
 10
-164.08171200000021
 20
-12.2746259999999
 30
0.0
 11
-158.3378210000001
 21
-17.725374999999989
 31
0.0
  0
LINE
  8
OUTLINE
  6
CONTINUOUS
 62
     3
 10
-164.9724249999999
 20
-0.5261679999998705
 30
0.0
 11
-164.391987
 21
-11.60158699999965
 31
0.0
  0
ARC
  8
OUTLINE
  6
CONTINUOUS
 62
     3
 10
-163.39335800000029
 20
-11.549250999999909
 30
0.0
 40
1.0
 50
183.0000000000056
 51
226.5000000000073
  0
ARC
  8
OUTLINE
  6
CONTINUOUS
 62
     3
 10
-164.47310999999991
 20
-0.5
 30
0.0
 40
0.5
 50
90.0
 51
183.0000000000056
  0
LINE
  8
OUTLINE
  6
CONTINUOUS
 62
     3
 10
0.0
 20
-18.0
 30
0.0
 11
-157.64946700000019
 21
-18.0
 31
0.0
  0
LINE
  8
OUTLINE
  6
CONTINUOUS
 62
     3
 10
127.09999999999989
 20
0.0
 30
0.0
 11
164.47310899999999
 21
0.0
 31
0.0
  0
LINE
  8
OUTLINE
  6
CONTINUOUS
 62
     3
 10
0.0
 20
-18.0
 30
0.0
 11
157.64946599999979
 21
-18.0
 31
0.0
  0
ARC
  8
OUTLINE
  6
CONTINUOUS
 62
     3
 10
157.64946599999979
 20
-17.0
 30
0.0
 40
1.0
 50
270.0
 51
313.49999999999272
  0
LINE
  8
OUTLINE
  6
CONTINUOUS
 62
     3
 10
164.08171099999981
 20
-12.2746259999999
 30
0.0
 11
158.33781999999971
 21
-17.725374999999989
 31
0.0
  0
LINE
  8
OUTLINE
  6
CONTINUOUS
 62
     3
 10
164.97242399999999
 20
-0.5261679999998705
 30
0.0
 11
164.3919859999996
 21
-11.60158699999965
 31
0.0
  0
ARC
  8
OUTLINE
  6
CONTINUOUS
 62
     3
 10
163.3933569999999
 20
-11.549250999999909
 30
0.0
 40
1.0
 50
313.49999999999272
 51
356.99999999999437
  0
ARC
  8
OUTLINE
  6
CONTINUOUS
 62
     3
 10
164.47310899999999
 20
-0.5
 30
0.0
 40
0.5
 50
356.99999999999437
 51
90.0
  0
ARC
  8
OUTLINE
  6
CONTINUOUS
 62
     3
 10
16.29999799999996
 20
193.4504000000002
 30
0.0
 40
5.7000000000000002
 50
0.0
 51
90.0
  0
LINE
  8
OUTLINE
  6
CONTINUOUS
 62
     3
 10
21.999997999999781
 20
193.4504000000002
 30
0.0
 11
21.999997999999781
 21
182.7000000000003
 31
0.0
  0
ARC
  8
OUTLINE
  6
CONTINUOUS
 62
     3
 10
-54.500002000000222
 20
193.65039999999999
 30
0.0
 40
5.5
 50
90.0
 51
180.0
  0
LINE
  8
OUTLINE
  6
CONTINUOUS
 62
     3
 10
-60.000002000000222
 20
193.65039999999999
 30
0.0
 11
-60.000002000000222
 21
182.7000000000003
 31
0.0
  0
LINE
  8
OUTLINE
  6
CONTINUOUS
 62
     3
 10
16.29999799999996
 20
199.15039999999999
 30
0.0
 11
-54.500002000000222
 21
199.15039999999999
 31
0.0
  0
LINE
  8
OUTLINE
  6
CONTINUOUS
 62
     3
 10
-124.13207700000019
 20
177.78345800000031
 30
0.0
 11
-127.10000000000041
 21
0.0
 31
0.0
  0
ARC
  8
OUTLINE
  6
CONTINUOUS
 62
     3
 10
-119.1327740000002
 20
177.7000000000003
 30
0.0
 40
5.0
 50
90.0
 51
179.0435910000015
  0
LINE
  8
OUTLINE
  6
CONTINUOUS
 62
     3
 10
21.999997999999781
 20
182.7000000000003
 30
0.0
 11
119.0
 21
182.7000000000003
 31
0.0
  0
LINE
  8
OUTLINE
  6
CONTINUOUS
 62
     3
 10
124.1320759999999
 20
177.78345800000031
 30
0.0
 11
127.09999999999989
 21
0.0
 31
0.0
  0
ARC
  8
OUTLINE
  6
CONTINUOUS
 62
     3
 10
119.1327729999998
 20
177.7000000000003
 30
0.0
 40
5.0
 50
0.9564089999985347
 51
90.0
  0
LINE
  8
OUTLINE
  6
CONTINUOUS
 62
     3
 10
-60.000002000000222
 20
182.7000000000003
 30
0.0
 11
-119.0
 21
182.7000000000003
 31
0.0
  0
LINE
  8
NOTE
  6
CENTER
 62
     4
 10
-141.5
 20
-7.0820240000000467
 30
0.0
 11
-141.5
 21
9.4269509999999173
 31
0.0
  0
LINE
  8
NOTE
  6
CENTER
 62
     4
 10
-85.0
 20
-7.0820240000000467
 30
0.0
 11
-85.0
 21
5.8380429999999706
 31
0.0
  0
LINE
  8
NOTE
  6
CENTER
 62
     4
 10
85.0
 20
-7.0820240000000467
 30
0.0
 11
85.0
 21
5.8380429999999706
 31
0.0
  0
LINE
  8
NOTE
  6
CENTER
 62
     4
 10
141.5
 20
-7.0820240000000467
 30
0.0
 11
141.5
 21
9.4269509999999173
 31
0.0
  0
LINE
  8
DETAIL
  6
CONTINUOUS
 62
     5
 10
0.0
 20
182.69999999999999
 30
0.0
 11
119.0
 21
182.69999999999999
 31
0.0
  0
ARC
  8
DETAIL
  6
CONTINUOUS
 62
     5
 10
-119.1327740000002
 20
177.69999999999999
 30
0.0
 40
5.0
 50
90.0
 51
179.0435910000015
  0
LINE
  8
DETAIL
  6
CONTINUOUS
 62
     5
 10
-124.13207700000019
 20
177.78345799999991
 30
0.0
 11
-127.10000000000041
 21
0.0
 31
0.0
  0
LINE
  8
DETAIL
  6
CONTINUOUS
 62
     5
 10
-124.1668589999999
 20
175.69999999999999
 30
0.0
 11
0.0
 21
175.69999999999999
 31
0.0
  0
LINE
  8
DETAIL
  6
CONTINUOUS
 62
     5
 10
0.0
 20
182.69999999999999
 30
0.0
 11
-119.0
 21
182.69999999999999
 31
0.0
  0
ARC
  8
DETAIL
  6
CONTINUOUS
 62
     5
 10
119.1327729999998
 20
177.69999999999999
 30
0.0
 40
5.0
 50
0.9564089999985347
 51
90.0
  0
LINE
  8
DETAIL
  6
CONTINUOUS
 62
     5
 10
124.1320759999999
 20
177.78345799999991
 30
0.0
 11
127.09999999999989
 21
0.0
 31
0.0
  0
LINE
  8
DETAIL
  6
CONTINUOUS
 62
     5
 10
124.166858
 20
175.69999999999999
 30
0.0
 11
0.0
 21
175.69999999999999
 31
0.0
  0
LINE
  8
DETAIL
  6
CONTINUOUS
 62
     5
 10
16.29999799999996
 20
199.15039999999999
 30
0.0
 11
-54.500002000000222
 21
199.15039999999999
 31
0.0
  0
LINE
  8
DETAIL
  6
CONTINUOUS
 62
     5
 10
-60.000002000000222
 20
193.65039999999999
 30
0.0
 11
-60.000002000000222
 21
182.69999999999999
 31
0.0
  0
ARC
  8
DETAIL
  6
CONTINUOUS
 62
     5
 10
-54.500002000000222
 20
193.65039999999999
 30
0.0
 40
5.5
 50
90.0
 51
180.0
  0
LINE
  8
DETAIL
  6
CONTINUOUS
 62
     5
 10
21.999997999999781
 20
193.45039999999989
 30
0.0
 11
21.999997999999781
 21
182.69999999999999
 31
0.0
  0
ARC
  8
DETAIL
  6
CONTINUOUS
 62
     5
 10
16.29999799999996
 20
193.45039999999989
 30
0.0
 40
5.7000000000000002
 50
0.0
 51
90.0
  0
ARC
  8
DETAIL
  6
CONTINUOUS
 62
     5
 10
-164.47310999999991
 20
-0.5
 30
0.0
 40
0.5
 50
90.0
 51
183.0000000000056
  0
ARC
  8
DETAIL
  6
CONTINUOUS
 62
     5
 10
-163.39335800000029
 20
-11.54925100000014
 30
0.0
 40
1.0
 50
183.0000000000056
 51
226.5000000000073
  0
LINE
  8
DETAIL
  6
CONTINUOUS
 62
     5
 10
-164.9724249999999
 20
-0.5261680000000979
 30
0.0
 11
-164.391987
 21
-11.60158700000011
 31
0.0
  0
LINE
  8
DETAIL
  6
CONTINUOUS
 62
     5
 10
-164.08171200000021
 20
-12.274626000000129
 30
0.0
 11
-158.3378210000001
 21
-17.725374999999989
 31
0.0
  0
ARC
  8
DETAIL
  6
CONTINUOUS
 62
     5
 10
-157.64946700000019
 20
-17.0
 30
0.0
 40
1.0
 50
226.5000000000073
 51
270.0
  0
LINE
  8
DETAIL
  6
CONTINUOUS
 62
     5
 10
0.0
 20
-18.0
 30
0.0
 11
-157.64946700000019
 21
-18.0
 31
0.0
  0
LINE
  8
DETAIL
  6
CONTINUOUS
 62
     5
 10
0.0
 20
0.0
 30
0.0
 11
-164.47310999999991
 21
0.0
 31
0.0
  0
LINE
  8
DETAIL
  6
CONTINUOUS
 62
     5
 10
-164.28600800000001
 20
-12.0
 30
0.0
 11
0.0
 21
-12.0
 31
0.0
  0
LINE
  8
DETAIL
  6
CONTINUOUS
 62
     5
 10
164.2860069999997
 20
-12.0
 30
0.0
 11
0.0
 21
-12.0
 31
0.0
  0
LINE
  8
DETAIL
  6
CONTINUOUS
 62
     5
 10
0.0
 20
-18.0
 30
0.0
 11
157.64946599999979
 21
-18.0
 31
0.0
  0
ARC
  8
DETAIL
  6
CONTINUOUS
 62
     5
 10
164.47310899999999
 20
-0.5
 30
0.0
 40
0.5
 50
356.99999999999437
 51
90.0
  0
ARC
  8
DETAIL
  6
CONTINUOUS
 62
     5
 10
163.3933569999999
 20
-11.54925100000014
 30
0.0
 40
1.0
 50
313.49999999999272
 51
356.99999999999437
  0
LINE
  8
DETAIL
  6
CONTINUOUS
 62
     5
 10
164.97242399999999
 20
-0.5261680000000979
 30
0.0
 11
164.3919859999996
 21
-11.60158700000011
 31
0.0
  0
LINE
  8
DETAIL
  6
CONTINUOUS
 62
     5
 10
164.08171099999981
 20
-12.274626000000129
 30
0.0
 11
158.33781999999971
 21
-17.725374999999989
 31
0.0
  0
ARC
  8
DETAIL
  6
CONTINUOUS
 62
     5
 10
157.64946599999979
 20
-17.0
 30
0.0
 40
1.0
 50
270.0
 51
313.49999999999272
  0
LINE
  8
DETAIL
  6
CONTINUOUS
 62
     5
 10
0.0
 20
0.0
 30
0.0
 11
164.47310899999999
 21
0.0
 31
0.0
  0
ARC
  8
DETAIL
  6
CONTINUOUS
 62
     5
 10
-98.5
 20
192.5
 30
0.0
 40
0.5
 50
0.0
 51
90.0
  0
LINE
  8
DETAIL
  6
CONTINUOUS
 62
     5
 10
-98.5
 20
193.0
 30
0.0
 11
-99.5
 21
193.0
 31
0.0
  0
ARC
  8
DETAIL
  6
CONTINUOUS
 62
     5
 10
-99.5
 20
192.5
 30
0.0
 40
0.5
 50
90.0
 51
180.0
  0
LINE
  8
DETAIL
  6
CONTINUOUS
 62
     5
 10
-103.5989979999999
 20
182.69999999999999
 30
0.0
 11
-99.9698470000003
 21
192.67101
 31
0.0
  0
LINE
  8
DETAIL
  6
CONTINUOUS
 62
     5
 10
-98.0
 20
182.69999999999999
 30
0.0
 11
-98.0
 21
192.5
 31
0.0
  0
ARC
  8
DETAIL
  6
CONTINUOUS
 62
     5
 10
-81.5
 20
192.5
 30
0.0
 40
0.5
 50
90.0
 51
180.0
  0
LINE
  8
DETAIL
  6
CONTINUOUS
 62
     5
 10
-81.5
 20
193.0
 30
0.0
 11
-80.5
 21
193.0
 31
0.0
  0
ARC
  8
DETAIL
  6
CONTINUOUS
 62
     5
 10
-80.5
 20
192.5
 30
0.0
 40
0.5
 50
0.0
 51
90.0
  0
LINE
  8
DETAIL
  6
CONTINUOUS
 62
     5
 10
-76.401002999999946
 20
182.69999999999999
 30
0.0
 11
-80.030154000000039
 21
192.67101
 31
0.0
  0
LINE
  8
DETAIL
  6
CONTINUOUS
 62
     5
 10
-82.0
 20
182.69999999999999
 30
0.0
 11
-82.0
 21
192.5
 31
0.0
  0
ARC
  8
DETAIL
  6
CONTINUOUS
 62
     5
 10
98.5
 20
192.5
 30
0.0
 40
0.5
 50
90.0
 51
180.0
  0
LINE
  8
DETAIL
  6
CONTINUOUS
 62
     5
 10
98.5
 20
193.0
 30
0.0
 11
99.5
 21
193.0
 31
0.0
  0
ARC
  8
DETAIL
  6
CONTINUOUS
 62
     5
 10
99.5
 20
192.5
 30
0.0
 40
0.5
 50
0.0
 51
90.0
  0
LINE
  8
DETAIL
  6
CONTINUOUS
 62
     5
 10
103.5989970000001
 20
182.69999999999999
 30
0.0
 11
99.969845999999961
 21
192.67101
 31
0.0
  0
LINE
  8
DETAIL
  6
CONTINUOUS
 62
     5
 10
98.0
 20
182.69999999999999
 30
0.0
 11
98.0
 21
192.5
 31
0.0
  0
ARC
  8
DETAIL
  6
CONTINUOUS
 62
     5
 10
81.5
 20
192.5
 30
0.0
 40
0.5
 50
0.0
 51
90.0
  0
LINE
  8
DETAIL
  6
CONTINUOUS
 62
     5
 10
81.5
 20
193.0
 30
0.0
 11
80.5
 21
193.0
 31
0.0
  0
ARC
  8
DETAIL
  6
CONTINUOUS
 62
     5
 10
80.5
 20
192.5
 30
0.0
 40
0.5
 50
90.0
 51
180.0
  0
LINE
  8
DETAIL
  6
CONTINUOUS
 62
     5
 10
76.401001999999608
 20
182.69999999999999
 30
0.0
 11
80.030153000000155
 21
192.67101
 31
0.0
  0
LINE
  8
DETAIL
  6
CONTINUOUS
 62
     5
 10
82.0
 20
182.69999999999999
 30
0.0
 11
82.0
 21
192.5
 31
0.0
  0
LINE
  8
BASIS
  6
DASHDOT
 62
     6
 10
0.0
 20
-25.687899000000019
 30
0.0
 11
0.0
 21
214.96338700000001
 31
0.0
  0
LINE
  8
BASIS
  6
DASHDOT
 62
     6
 10
57.813999999999851
 20
109.0003999999999
 30
0.0
 11
-57.814000000000313
 21
109.0003999999999
 31
0.0
  0
LINE
  8
SIZE
  6
CONTINUOUS
 62
    30
 10
282.83212953384702
 20
356.85118058292801
 30
0.0
 11
45.783197887441929
 21
149.1210233276519
 31
0.0
  0
LINE
  8
SIZE
  6
CONTINUOUS
 62
    30
 10
-45.783197887441823
 20
68.87977667234793
 30
0.0
 11
-54.808222522338042
 21
60.970988500983253
 31
0.0
  0
TEXT
  8
SIZE
  6
CONTINUOUS
 62
    30
 10
127.49473942534691
 20
253.96719399850281
 30
0.0
 40
64.0
  1
φ98
 50
41.228655182389957
 41
0.9
 72
     1
 11
192.88748935133731
 21
311.2720134344479
 31
0.0
  0
LINE
  8
SIZE
  6
CONTINUOUS
 62
    30
 10
-36.758173252545703
 20
76.788564843712606
 30
0.0
 11
36.758173252545816
 21
141.21223515628719
 31
0.0
  0
CIRCLE
  8
SIZE
  6
CONTINUOUS
 62
    30
 10
-36.758173252545703
 20
76.788564843712606
 30
0.0
 40
6.0
  0
LINE
  8
SIZE
  6
CONTINUOUS
 62
    30
 10
-36.758173252545703
 20
76.788564843712606
 30
0.0
 11
-45.783197887441823
 21
68.87977667234793
 31
0.0
  0
CIRCLE
  8
SIZE
  6
CONTINUOUS
 62
    30
 10
36.758173252545816
 20
141.21223515628719
 30
0.0
 40
6.0
  0
LINE
  8
SIZE
  6
CONTINUOUS
 62
    30
 10
36.758173252545816
 20
141.21223515628719
 30
0.0
 11
45.783197887441929
 21
149.1210233276519
 31
0.0
  0
POINT
  8
DEFPOINTS
  6
CONTINUOUS
 62
    30
 10
36.758173252545816
 20
141.21223515628719
 30
0.0
  0
POINT
  8
DEFPOINTS
  6
CONTINUOUS
 62
    30
 10
-36.758173252545703
 20
76.788564843712606
 30
0.0
  0
LINE
  8
SIZE
  6
CONTINUOUS
 62
    30
 10
365.44061963249487
 20
198.19404239720609
 30
0.0
 11
63.188181963141012
 21
124.42283473486241
 31
0.0
  0
LINE
  8
SIZE
  6
CONTINUOUS
 62
    30
 10
-63.188181963140892
 20
93.57796526513664
 30
0.0
 11
-74.845972152697755
 21
90.732630856622677
 31
0.0
  0
TEXT
  8
SIZE
  6
CONTINUOUS
 62
    30
 10
140.174292862577
 20
168.9468158564998
 30
0.0
 40
64.0
  1
φ105
 50
13.71610357575179
 41
0.9
 72
     1
 11
245.96041183981239
 21
194.76619323204341
 31
0.0
  0
LINE
  8
SIZE
  6
CONTINUOUS
 62
    30
 10
-51.530391773584142
 20
96.423299673650604
 30
0.0
 11
51.530391773584142
 21
121.5775003263485
 31
0.0
  0
CIRCLE
  8
SIZE
  6
CONTINUOUS
 62
    30
 10
-51.530391773584142
 20
96.423299673650604
 30
0.0
 40
6.0
  0
LINE
  8
SIZE
  6
CONTINUOUS
 62
    30
 10
-51.530391773584142
 20
96.423299673650604
 30
0.0
 11
-63.188181963140892
 21
93.57796526513664
 31
0.0
  0
CIRCLE
  8
SIZE
  6
CONTINUOUS
 62
    30
 10
51.530391773584142
 20
121.5775003263485
 30
0.0
 40
6.0
  0
LINE
  8
SIZE
  6
CONTINUOUS
 62
    30
 10
51.530391773584142
 20
121.5775003263485
 30
0.0
 11
63.188181963141012
 21
124.42283473486251
 31
0.0
  0
POINT
  8
DEFPOINTS
  6
CONTINUOUS
 62
    30
 10
51.530391773584142
 20
121.5775003263485
 30
0.0
  0
POINT
  8
DEFPOINTS
  6
CONTINUOUS
 62
    30
 10
-51.530391773584142
 20
96.423299673650604
 30
0.0
  0
LINE
  8
DETAIL
  6
CONTINUOUS
 62
     5
 10
-91.003502000000026
 20
130.7056229999998
 30
0.0
 11
-91.003502000000026
 21
58.871514999999931
 31
0.0
  0
LINE
  8
DETAIL
  6
CONTINUOUS
 62
     5
 10
-86.012258999999631
 20
131.30951499999989
 30
0.0
 11
-86.012258999999631
 21
57.873266999999828
 31
0.0
  0
ARC
  8
DETAIL
  6
CONTINUOUS
 62
     5
 10
-92.001750999999786
 20
60.877296999999878
 30
0.0
 40
0.9982490000000001
 50
180.0
 51
270.0
  0
LINE
  8
DETAIL
  6
CONTINUOUS
 62
     5
 10
-91.003502000000026
 20
59.879048999999902
 30
0.0
 11
-92.001750999999786
 21
59.879048999999902
 31
0.0
  0
ARC
  8
DETAIL
  6
CONTINUOUS
 62
     5
 10
-90.005253999999695
 20
58.871514999999931
 30
0.0
 40
0.9982490000000001
 50
180.0
 51
270.0
  0
LINE
  8
DETAIL
  6
CONTINUOUS
 62
     5
 10
-90.005253999999695
 20
57.873266999999828
 30
0.0
 11
-86.012258999999631
 21
57.873266999999828
 31
0.0
  0
ARC
  8
DETAIL
  6
CONTINUOUS
 62
     5
 10
-79.523641999999654
 20
143.3964219999998
 30
0.0
 40
0.9982490000000001
 50
90.0
 51
180.0
  0
LINE
  8
DETAIL
  6
CONTINUOUS
 62
     5
 10
-79.523641999999654
 20
144.3946709999999
 30
0.0
 11
-76.528895999999804
 21
144.3946709999999
 31
0.0
  0
LINE
  8
DETAIL
  6
CONTINUOUS
 62
     5
 10
-76.528895999999804
 20
144.3946709999999
 30
0.0
 11
-76.528895999999804
 21
129.3130179999998
 31
0.0
  0
LINE
  8
DETAIL
  6
CONTINUOUS
 62
     5
 10
-80.521890999999869
 20
137.45048799999969
 30
0.0
 11
-86.6628639999999
 21
131.30951499999989
 31
0.0
  0
LINE
  8
DETAIL
  6
CONTINUOUS
 62
     5
 10
-80.521890999999869
 20
143.3964219999998
 30
0.0
 11
-80.521890999999869
 21
137.45048799999969
 31
0.0
  0
LINE
  8
DETAIL
  6
CONTINUOUS
 62
     5
 10
-76.528895999999804
 20
129.3130179999998
 30
0.0
 11
-86.012258999999631
 21
129.3130179999998
 31
0.0
  0
LINE
  8
DETAIL
  6
CONTINUOUS
 62
     5
 10
-78.525393999999778
 20
129.3130179999998
 30
0.0
 11
-78.525393999999778
 21
128.83122199999991
 31
0.0
  0
ARC
  8
DETAIL
  6
CONTINUOUS
 62
     5
 10
-90.005253999999695
 20
130.7056229999998
 30
0.0
 40
0.9982490000000001
 50
90.0
 51
180.0
  0
LINE
  8
DETAIL
  6
CONTINUOUS
 62
     5
 10
-90.005253999999695
 20
131.7038719999999
 30
0.0
 11
-86.268506999999772
 21
131.7038719999999
 31
0.0
  0
LINE
  8
DETAIL
  6
CONTINUOUS
 62
     5
 10
-93.0
 20
60.877296999999878
 30
0.0
 11
-93.0
 21
128.7007559999997
 31
0.0
  0
ARC
  8
DETAIL
  6
CONTINUOUS
 62
     5
 10
-92.001750999999786
 20
128.7007559999997
 30
0.0
 40
0.9982490000000001
 50
90.0
 51
180.0
  0
LINE
  8
DETAIL
  6
CONTINUOUS
 62
     5
 10
-91.003502000000026
 20
129.6990049999998
 30
0.0
 11
-92.001750999999786
 21
129.6990049999998
 31
0.0
  0
LINE
  8
DETAIL
  6
CONTINUOUS
 62
     5
 10
-86.012258999999631
 20
131.30951499999989
 30
0.0
 11
-86.6628639999999
 21
131.30951499999989
 31
0.0
  0
LINE
  8
DETAIL
  6
CONTINUOUS
 62
     5
 10
-53.070052000000032
 20
60.36500599999988
 30
0.0
 11
-86.012258999999631
 21
60.36500599999988
 31
0.0
  0
LINE
  8
DETAIL
  6
CONTINUOUS
 62
     5
 10
-53.070052000000032
 20
98.626294999999914
 30
0.0
 11
-53.070052000000032
 21
60.36500599999988
 31
0.0
  0
ARC
  8
DETAIL
  6
CONTINUOUS
 62
     5
 10
0.3362520000000586
 20
109.0003999999999
 30
0.0
 40
54.404553
 50
169.0072669999949
 51
190.9927330000051
  0
LINE
  8
DETAIL
  6
CONTINUOUS
 62
     5
 10
-53.070052000000032
 20
128.83122199999991
 30
0.0
 11
-53.070052000000032
 21
119.3745049999999
 31
0.0
  0
LINE
  8
DETAIL
  6
CONTINUOUS
 62
     5
 10
-45.539220999999998
 20
142.77814099999989
 30
0.0
 11
-76.528895999999804
 21
142.77814099999989
 31
0.0
  0
LINE
  8
DETAIL
  6
CONTINUOUS
 62
     5
 10
-53.070052000000032
 20
128.83122199999991
 30
0.0
 11
-78.525393999999778
 21
128.83122199999991
 31
0.0
  0
ARC
  8
DETAIL
  6
CONTINUOUS
 62
     5
 10
0.3362520000000586
 20
109.0003999999999
 30
0.0
 40
56.969244999999987
 50
143.6360840000047
 51
159.62903900000359
  0
LINE
  8
SIZE
  6
CONTINUOUS
 62
    30
 10
0.0
 20
234.96338700000001
 30
0.0
 11
0.0
 21
371.08834798606398
 31
0.0
  0
LINE
  8
SIZE
  6
CONTINUOUS
 62
    30
 10
93.336252500000228
 20
177.12350299999991
 30
0.0
 11
93.336252500000228
 21
371.08834798606398
 31
0.0
  0
LINE
  8
SIZE
  6
CONTINUOUS
 62
    30
 10
12.0
 20
351.08834798606398
 30
0.0
 11
81.336252500000228
 21
351.08834798606398
 31
0.0
  0
CIRCLE
  8
SIZE
  6
CONTINUOUS
 62
    30
 10
0.0
 20
351.08834798606398
 30
0.0
 40
6.0
  0
LINE
  8
SIZE
  6
CONTINUOUS
 62
    30
 10
0.0
 20
351.08834798606398
 30
0.0
 11
12.0
 21
351.08834798606398
 31
0.0
  0
CIRCLE
  8
SIZE
  6
CONTINUOUS
 62
    30
 10
93.336252500000228
 20
351.08834798606398
 30
0.0
 40
6.0
  0
LINE
  8
SIZE
  6
CONTINUOUS
 62
    30
 10
93.336252500000228
 20
351.08834798606398
 30
0.0
 11
81.336252500000228
 21
351.08834798606398
 31
0.0
  0
TEXT
  8
SIZE
  6
CONTINUOUS
 62
    30
 10
-1.331873749999879
 20
376.08834798606398
 30
0.0
 40
64.0
  1
94
 41
0.9
 72
     1
 11
46.668126250000107
 21
376.08834798606398
 31
0.0
  0
POINT
  8
DEFPOINTS
  6
CONTINUOUS
 62
    30
 10
0.0
 20
214.96338700000001
 30
0.0
  0
POINT
  8
DEFPOINTS
  6
CONTINUOUS
 62
    30
 10
93.336252500000228
 20
157.12350299999991
 30
0.0
  0
POINT
  8
DEFPOINTS
  6
CONTINUOUS
 62
    30
 10
93.336252500000228
 20
351.08834798606398
 30
0.0
  0
CIRCLE
  8
DETAIL
  6
CONTINUOUS
 62
     5
 10
0.0
 20
109.0003999999999
 30
0.0
 40
48.875
  0
CIRCLE
  8
DETAIL
  6
CONTINUOUS
 62
     5
 10
0.0
 20
109.0003999999999
 30
0.0
 40
53.043045999999997
  0
CIRCLE
  8
DETAIL
  6
CONTINUOUS
 62
     5
 10
0.0
 20
109.0003999999999
 30
0.0
 40
46.875
  0
LINE
  8
DETAIL
  6
CONTINUOUS
 62
     5
 10
73.650266000000101
 20
166.77508
 30
0.0
 11
-51.929611999999914
 21
166.77508
 31
0.0
  0
ARC
  8
DETAIL
  6
CONTINUOUS
 62
     5
 10
-51.929611999999914
 20
164.77777800000001
 30
0.0
 40
1.9973019999999999
 50
90.0
 51
180.8667380000031
  0
LINE
  8
DETAIL
  6
CONTINUOUS
 62
     5
 10
-51.434291999999907
 20
0.0003999999998996
 30
0.0
 11
-52.347523626426778
 21
60.36500599999988
 31
0.0
  0
LINE
  8
DETAIL
  6
CONTINUOUS
 62
     5
 10
73.154946000000109
 20
0.0003999999998996
 30
0.0
 11
75.64733947386776
 21
164.74756510245331
 31
0.0
  0
ARC
  8
DETAIL
  6
CONTINUOUS
 62
     5
 10
-47.443676999999752
 20
60.955556000000001
 30
0.0
 40
4.9932540000000003
 50
191.20322800000241
 51
270.0
  0
ARC
  8
DETAIL
  6
CONTINUOUS
 62
     5
 10
-47.189456999999948
 20
44.93968499999994
 30
0.0
 40
4.9932540000000003
 50
190.4107840000033
 51
270.0
  0
ARC
  8
DETAIL
  6
CONTINUOUS
 62
     5
 10
69.413994000000457
 20
60.955556000000001
 30
0.0
 40
4.9932540000000003
 50
270.0
 51
338.16466200000019
  0
ARC
  8
DETAIL
  6
CONTINUOUS
 62
     5
 10
69.159773999999743
 20
44.93968499999994
 30
0.0
 40
4.9932540000000003
 50
270.0
 51
338.55030500000572
  0
LINE
  8
DETAIL
  6
CONTINUOUS
 62
     5
 10
-47.443676999999752
 20
55.962301999999909
 30
0.0
 11
69.413994000000457
 21
55.962301999999909
 31
0.0
  0
LINE
  8
DETAIL
  6
CONTINUOUS
 62
     5
 10
69.159773999999743
 20
39.946430999999961
 30
0.0
 11
-47.189456999999948
 21
39.946430999999961
 31
0.0
  0
ARC
  8
DETAIL
  6
CONTINUOUS
 62
     5
 10
73.650266000000101
 20
164.77777800000001
 30
0.0
 40
1.9973019999999999
 50
359.13326199999688
 51
90.0
  0
LINE
  8
DETAIL
  6
CONTINUOUS
 62
     5
 10
-30.958173999999872
 20
172.76698500000001
 30
0.0
 11
30.958173999999872
 21
172.76698500000001
 31
0.0
  0
LINE
  8
DETAIL
  6
CONTINUOUS
 62
     5
 10
-29.95952299999999
 20
166.77508
 30
0.0
 11
-29.95952299999999
 21
171.76833400000001
 31
0.0
  0
LINE
  8
DETAIL
  6
CONTINUOUS
 62
     5
 10
-35.891274999999951
 20
167.773731
 30
0.0
 11
-31.95682499999975
 21
167.773731
 31
0.0
  0
LINE
  8
DETAIL
  6
CONTINUOUS
 62
     5
 10
31.956825000000212
 20
167.773731
 30
0.0
 11
36.950079000000187
 21
167.773731
 31
0.0
  0
ARC
  8
DETAIL
  6
CONTINUOUS
 62
     5
 10
-37.948730000000069
 20
171.76833400000001
 30
0.0
 40
0.9986510000000001
 50
0.0
 51
180.0
  0
ARC
  8
DETAIL
  6
CONTINUOUS
 62
     5
 10
-30.958173999999872
 20
171.76833400000001
 30
0.0
 40
0.9986510000000001
 50
0.0
 51
180.0
  0
ARC
  8
DETAIL
  6
CONTINUOUS
 62
     5
 10
30.958173999999872
 20
171.76833400000001
 30
0.0
 40
0.9986510000000001
 50
0.0
 51
180.0
  0
ARC
  8
DETAIL
  6
CONTINUOUS
 62
     5
 10
37.948729000000178
 20
171.76833400000001
 30
0.0
 40
0.9986510000000001
 50
0.0
 51
180.0
  0
LINE
  8
DETAIL
  6
CONTINUOUS
 62
     5
 10
29.95952299999999
 20
171.76833400000001
 30
0.0
 11
29.95952299999999
 21
166.77508
 31
0.0
  0
LINE
  8
DETAIL
  6
CONTINUOUS
 62
     5
 10
31.956825000000212
 20
166.77508
 30
0.0
 11
31.956825000000212
 21
171.76833400000001
 31
0.0
  0
LINE
  8
DETAIL
  6
CONTINUOUS
 62
     5
 10
-36.658846999999703
 20
167.34970300000001
 30
0.0
 11
-36.597360000000208
 21
167.43292
 31
0.0
  0
LINE
  8
DETAIL
  6
CONTINUOUS
 62
     5
 10
-36.597360000000208
 20
167.43292
 30
0.0
 11
-36.525628999999753
 21
167.5110560000002
 31
0.0
  0
LINE
  8
DETAIL
  6
CONTINUOUS
 62
     5
 10
-36.525628999999753
 20
167.5110560000002
 30
0.0
 11
-36.443499999999858
 21
167.582595
 31
0.0
  0
LINE
  8
DETAIL
  6
CONTINUOUS
 62
     5
 10
-36.443499999999858
 20
167.582595
 30
0.0
 11
-36.351053999999749
 21
167.64567700000001
 31
0.0
  0
LINE
  8
DETAIL
  6
CONTINUOUS
 62
     5
 10
-36.351053999999749
 20
167.64567700000001
 30
0.0
 11
-36.247519000000011
 21
167.69879499999999
 31
0.0
  0
LINE
  8
DETAIL
  6
CONTINUOUS
 62
     5
 10
-36.247519000000011
 20
167.69879499999999
 30
0.0
 11
-36.135303000000022
 21
167.73938000000001
 31
0.0
  0
LINE
  8
DETAIL
  6
CONTINUOUS
 62
     5
 10
-36.135303000000022
 20
167.73938000000001
 30
0.0
 11
-36.016822999999931
 21
167.76397499999999
 31
0.0
  0
LINE
  8
DETAIL
  6
CONTINUOUS
 62
     5
 10
-36.016822999999931
 20
167.76397499999999
 30
0.0
 11
-35.891274999999951
 21
167.773731
 31
0.0
  0
LINE
  8
DETAIL
  6
CONTINUOUS
 62
     5
 10
-38.947380000000067
 20
171.76833400000001
 30
0.0
 11
-38.947380000000067
 21
166.77508
 31
0.0
  0
LINE
  8
DETAIL
  6
CONTINUOUS
 62
     5
 10
-36.950078999999732
 20
166.77508
 30
0.0
 11
-36.950078999999732
 21
171.76833400000001
 31
0.0
  0
LINE
  8
DETAIL
  6
CONTINUOUS
 62
     5
 10
-31.95682499999975
 20
171.76833400000001
 30
0.0
 11
-31.95682499999975
 21
166.77508
 31
0.0
  0
LINE
  8
DETAIL
  6
CONTINUOUS
 62
     5
 10
36.950079000000187
 20
171.76833400000001
 30
0.0
 11
36.950079000000187
 21
166.77508
 31
0.0
  0
LINE
  8
DETAIL
  6
CONTINUOUS
 62
     5
 10
38.947380000000067
 20
166.77508
 30
0.0
 11
38.947380000000067
 21
171.76833400000001
 31
0.0
  0
LINE
  8
DETAIL
  6
CONTINUOUS
 62
     5
 10
-53.914513171826798
 20
165.0
 30
0.0
 11
-124.3454844758394
 21
165.0
 31
0.0
  0
LINE
  8
DETAIL
  6
CONTINUOUS
 62
     5
 10
75.635167171827106
 20
165.0
 30
0.0
 11
124.3454844758394
 21
165.0
 31
0.0
  0
LINE
  8
DETAIL
  6
CONTINUOUS
 62
     5
 10
-53.594318500147658
 20
142.77814099999989
 30
0.0
 11
-53.926684999999907
 21
164.74756500000001
 31
0.0
  0
TEXT
  8
ETC
  6
CONTINUOUS
 62
    61
 10
410.89091193711369
 20
538.82458581492142
 30
0.0
 40
64.0
  1
VD-13ZFCD13_3
 41
0.9
  0
TEXT
  8
ETC
  6
CONTINUOUS
 62
    61
 10
406.70491793711341
 20
420.86927580009018
 30
0.0
 40
64.0
  1
換気扇
 41
0.9
  0
TEXT
  8
ETC
  6
CONTINUOUS
 62
    61
 10
454.46778909939212
 20
315.78780295423547
 30
0.0
 40
40.0
  1
VD-13ZFCD13
 41
0.9
  0
TEXT
  8
ETC
  6
CONTINUOUS
 62
    61
 10
454.46778909939212
 20
249.7878029542355
 30
0.0
 40
40.0
  1
VD-15ZFCD13
 41
0.9
  0
TEXT
  8
NOTE
  6
CONTINUOUS
 62
     4
 10
-629.9400470774126
 20
294.39193966257108
 30
0.0
 40
63.999999999999993
  1
8-φ5
 41
0.9
  0
LINE
  8
NOTE
  6
CONTINUOUS
 62
     4
 10
-376.78356798458663
 20
264.8116364789787
 30
0.0
 11
-658.36576009572161
 21
264.8116659579573
 31
0.0
  0
ENDSEC
  0
EOF
