  0
SECTION
  2
HEADER
  9
$ACADVER
  1
AC1009
  9
$INSBASE
 10
0.0
 20
0.0
 30
0.0
  9
$EXTMIN
 10
-955.70551300000011
 20
-911.6128779999998
 30
0.0
  9
$EXTMAX
 10
1350.7817702595371
 20
857.71850800000016
 30
0.0
  9
$LIMMIN
 10
-2970.0
 20
-2100.0
  9
$LIMMAX
 10
2970.0
 20
2100.0
  9
$ORTHOMODE
 70
     1
  9
$REGENMODE
 70
     1
  9
$FILLMODE
 70
     1
  9
$QTEXTMODE
 70
     0
  9
$MIRRTEXT
 70
     0
  9
$DRAGMODE
 70
     2
  9
$LTSCALE
 40
20.0
  9
$OSMODE
 70
   167
  9
$ATTMODE
 70
     1
  9
$TEXTSIZE
 40
64.0
  9
$TRACEWID
 40
0.05
  9
$TEXTSTYLE
  7
STANDARD
  9
$CLAYER
  8
SIZE
  9
$CELTYPE
  6
CONTINUOUS
  9
$CECOLOR
 62
    30
  9
$DIMSCALE
 40
0.0
  9
$DIMASZ
 40
12.0
  9
$DIMEXO
 40
20.0
  9
$DIMDLI
 40
200.0
  9
$DIMRND
 40
0.0
  9
$DIMDLE
 40
0.0
  9
$DIMEXE
 40
30.0
  9
$DIMTP
 40
0.0
  9
$DIMTM
 40
0.0
  9
$DIMTXT
 40
64.0
  9
$DIMCEN
 40
0.09
  9
$DIMTSZ
 40
0.0
  9
$DIMTOL
 70
     0
  9
$DIMLIM
 70
     0
  9
$DIMTIH
 70
     0
  9
$DIMTOH
 70
     0
  9
$DIMSE1
 70
     0
  9
$DIMSE2
 70
     0
  9
$DIMTAD
 70
     1
  9
$DIMZIN
 70
     8
  9
$DIMBLK
  1
NONE
  9
$DIMASO
 70
     1
  9
$DIMSHO
 70
     0
  9
$DIMPOST
  1

  9
$DIMAPOST
  1

  9
$DIMALT
 70
     0
  9
$DIMALTD
 70
     2
  9
$DIMALTF
 40
25.399999999999999
  9
$DIMLFAC
 40
1.0
  9
$DIMTOFL
 70
     1
  9
$DIMTVP
 40
0.0
  9
$DIMTIX
 70
     0
  9
$DIMSOXD
 70
     0
  9
$DIMSAH
 70
     0
  9
$DIMBLK1
  1

  9
$DIMBLK2
  1

  9
$DIMSTYLE
  2
STANDARD
  9
$DIMCLRD
 70
   256
  9
$DIMCLRE
 70
   256
  9
$DIMCLRT
 70
   256
  9
$DIMTFAC
 40
1.0
  9
$DIMGAP
 40
20.0
  9
$LUNITS
 70
     2
  9
$LUPREC
 70
     4
  9
$SKETCHINC
 40
0.1
  9
$FILLETRAD
 40
15.0
  9
$AUNITS
 70
     1
  9
$AUPREC
 70
     3
  9
$MENU
  1
ACAD
  9
$ELEVATION
 40
0.0
  9
$PELEVATION
 40
0.0
  9
$THICKNESS
 40
0.0
  9
$LIMCHECK
 70
     1
  9
$BLIPMODE
 70
     0
  9
$CHAMFERA
 40
0.0
  9
$CHAMFERB
 40
0.0
  9
$SKPOLY
 70
     0
  9
$TDCREATE
 40
2450943.3858101852
  9
$TDUPDATE
 40
2454151.7564234259
  9
$TDINDWG
 40
0.0867073727
  9
$TDUSRTIMER
 40
0.0867073727
  9
$USRTIMER
 70
     1
  9
$ANGBASE
 50
0.0
  9
$ANGDIR
 70
     0
  9
$PDMODE
 70
     3
  9
$PDSIZE
 40
-2.0
  9
$PLINEWID
 40
0.0
  9
$COORDS
 70
     0
  9
$SPLFRAME
 70
     0
  9
$SPLINETYPE
 70
     6
  9
$SPLINESEGS
 70
     8
  9
$ATTDIA
 70
     0
  9
$ATTREQ
 70
     1
  9
$HANDLING
 70
 22529
  9
$HANDSEED
  5
2AA
  9
$SURFTAB1
 70
     6
  9
$SURFTAB2
 70
     6
  9
$SURFTYPE
 70
     6
  9
$SURFU
 70
     6
  9
$SURFV
 70
     6
  9
$UCSNAME
  2

  9
$UCSORG
 10
0.0
 20
0.0
 30
0.0
  9
$UCSXDIR
 10
1.0
 20
0.0
 30
0.0
  9
$UCSYDIR
 10
0.0
 20
1.0
 30
0.0
  9
$PUCSNAME
  2

  9
$PUCSORG
 10
0.0
 20
0.0
 30
0.0
  9
$PUCSXDIR
 10
1.0
 20
0.0
 30
0.0
  9
$PUCSYDIR
 10
0.0
 20
1.0
 30
0.0
  9
$USERI1
 70
     0
  9
$USERI2
 70
     0
  9
$USERI3
 70
     0
  9
$USERI4
 70
     0
  9
$USERI5
 70
     0
  9
$USERR1
 40
20.0
  9
$USERR2
 40
0.0
  9
$USERR3
 40
0.0
  9
$USERR4
 40
0.0
  9
$USERR5
 40
0.0
  9
$WORLDVIEW
 70
     1
  9
$SHADEDGE
 70
     3
  9
$SHADEDIF
 70
    70
  9
$TILEMODE
 70
     1
  9
$MAXACTVP
 70
    48
  9
$PLIMCHECK
 70
     0
  9
$PEXTMIN
 10
-1.0000000000000000E+020
 20
-1.0000000000000000E+020
 30
-1.0000000000000000E+020
  9
$PEXTMAX
 10
1.0000000000000000E+020
 20
1.0000000000000000E+020
 30
1.0000000000000000E+020
  9
$PLIMMIN
 10
0.0
 20
0.0
  9
$PLIMMAX
 10
12.0
 20
9.0
  9
$UNITMODE
 70
     0
  9
$VISRETAIN
 70
     1
  9
$PLINEGEN
 70
     0
  9
$PSLTSCALE
 70
     1
  0
ENDSEC
  0
SECTION
  2
TABLES
  0
TABLE
  2
VPORT
 70
     3
  0
VPORT
  2
*ACTIVE
 70
     0
 10
0.0
 20
0.0
 11
1.0
 21
1.0
 12
182.13044819807661
 22
-27.377596248716369
 13
0.0
 23
0.0
 14
400.0
 24
400.0
 15
400.0
 25
400.0
 16
0.0
 26
0.0
 36
1.0
 17
0.0
 27
0.0
 37
0.0
 40
1789.748258678818
 41
1.710526315789473
 42
50.0
 43
0.0
 44
0.0
 50
0.0
 51
0.0
 71
     0
 72
   500
 73
     1
 74
     0
 75
     0
 76
     0
 77
     0
 78
     0
  0
ENDTAB
  0
TABLE
  2
LTYPE
 70
     2
  0
LTYPE
  2
CONTINUOUS
 70
     0
  3
実線
 72
    65
 73
     0
 40
0.0
  0
LTYPE
  2
DASHDOT
 70
     0
  3
____ _ ____ _ ____ _ ____ _ ____ _ ____ _ ____
 72
    65
 73
     4
 40
5.5
 49
4.0
 49
-0.6
 49
0.3
 49
-0.6
  0
ENDTAB
  0
TABLE
  2
LAYER
 70
    12
  0
LAYER
  2
0
 70
     0
 62
     7
  6
CONTINUOUS
  0
LAYER
  2
DETAIL
 70
     0
 62
     5
  6
CONTINUOUS
  0
LAYER
  2
SIZE
 70
     0
 62
    30
  6
CONTINUOUS
  0
LAYER
  2
OUTLINE
 70
     0
 62
     3
  6
CONTINUOUS
  0
LAYER
  2
BASIS
 70
     0
 62
     6
  6
DASHDOT
  0
LAYER
  2
NOTE
 70
     0
 62
     4
  6
CONTINUOUS
  0
LAYER
  2
FIX
 70
     0
 62
    11
  6
CONTINUOUS
  0
LAYER
  2
ARRANGE
 70
     0
 62
     1
  6
CONTINUOUS
  0
LAYER
  2
ETC
 70
     0
 62
    61
  6
CONTINUOUS
  0
LAYER
  2
DEFPOINTS
 70
     0
 62
     7
  6
CONTINUOUS
  0
LAYER
  2
SERVICESPACE
 70
     0
 62
     2
  6
DASHDOT
  0
LAYER
  2
SYMBOLLINE
 70
     0
 62
    15
  6
CONTINUOUS
  0
ENDTAB
  0
TABLE
  2
STYLE
 70
     1
  0
STYLE
  2
STANDARD
 70
     0
 40
0.0
 41
0.9
 50
0.0
 71
     0
 42
64.0
  3
SIMPLEX
  4
BIGFONT
  0
ENDTAB
  0
TABLE
  2
VIEW
 70
     1
  0
VIEW
  2
ALL
 70
     0
 40
4508.0208510000002
 10
0.0
 20
41.309903999999989
 41
6252.631578999999
 11
0.0
 21
0.0
 31
1.0
 12
0.0
 22
0.0
 32
0.0
 42
50.0
 43
0.0
 44
0.0
 50
0.0
 71
     0
  0
ENDTAB
  0
TABLE
  2
UCS
 70
     0
  0
ENDTAB
  0
TABLE
  2
APPID
 70
     1
  0
APPID
  2
ACAD
 70
     0
  0
ENDTAB
  0
TABLE
  2
DIMSTYLE
 70
     1
  0
DIMSTYLE
  2
STANDARD
 70
     0
  3

  4

  5

  6

  7

 40
1.0
 41
0.18
 42
0.0625
 43
0.38
 44
0.18
 45
0.0
 46
0.0
 47
0.0
 48
0.0
140
0.18
141
0.09
142
0.0
143
25.399999999999999
144
1.0
145
0.0
146
1.0
147
0.09
 71
     0
 72
     0
 73
     1
 74
     1
 75
     0
 76
     0
 77
     0
 78
     0
170
     0
171
     2
172
     0
173
     0
174
     0
175
     0
176
     7
177
     7
178
     7
  0
ENDTAB
  0
ENDSEC
  0
SECTION
  2
BLOCKS
  0
BLOCK
  8
0
  2
$MODEL_SPACE
 70
     0
 10
0.0
 20
0.0
 30
0.0
  3
$MODEL_SPACE
  1

  0
ENDBLK
  5
20
  8
0
  0
BLOCK
 67
     1
  8
0
  2
$PAPER_SPACE
 70
     0
 10
0.0
 20
0.0
 30
0.0
  3
$PAPER_SPACE
  1

  0
ENDBLK
  5
1C
 67
     1
  8
0
  0
BLOCK
  8
0
  2
_ORIGIN
 70
     0
 10
0.0
 20
0.0
 30
0.0
  3
_ORIGIN
  1

  0
CIRCLE
  5
35
  8
0
  6
CONTINUOUS
 62
     7
 10
0.0
 20
0.0
 30
0.0
 40
0.5
  0
LINE
  5
36
  8
0
  6
CONTINUOUS
 62
     7
 10
0.0
 20
0.0
 30
0.0
 11
-1.0
 21
0.0
 31
0.0
  0
ENDBLK
  5
37
  8
0
  0
BLOCK
  8
0
 62
     7
  2
_NONE
 70
     0
 10
0.0
 20
0.0
 30
0.0
  3
_NONE
  1

  0
ENDBLK
  5
1AE
  8
0
 62
     7
  0
BLOCK
  8
0
 62
     7
  2
_OPEN30
 70
     0
 10
0.0
 20
0.0
 30
0.0
  3
_OPEN30
  1

  0
LINE
  5
1B0
  8
0
  6
BYBLOCK
 62
     0
 10
-1.0
 20
0.26794919
 30
0.0
 11
0.0
 21
0.0
 31
0.0
  0
LINE
  5
1B1
  8
0
  6
BYBLOCK
 62
     0
 10
0.0
 20
0.0
 30
0.0
 11
-1.0
 21
-0.26794919
 31
0.0
  0
LINE
  5
1B2
  8
0
  6
BYBLOCK
 62
     0
 10
0.0
 20
0.0
 30
0.0
 11
-1.0
 21
0.0
 31
0.0
  0
ENDBLK
  5
1B4
  8
0
 62
     7
  0
BLOCK
  8
0
 62
    30
  2
*D4
 70
     1
 10
0.0
 20
0.0
 30
0.0
  3
*D4
  1

  0
LINE
  5
25B
  8
SIZE
  6
CONTINUOUS
 10
90.0
 20
226.158458
 30
0.0
 11
90.0
 21
288.84513597410557
 31
0.0
  0
LINE
  5
25C
  8
SIZE
  6
CONTINUOUS
 10
0.0000000000000012
 20
271.602529
 30
0.0
 11
0.0000000000000023
 21
288.84513597410557
 31
0.0
  0
LINE
  5
25D
  8
SIZE
  6
CONTINUOUS
 10
90.0
 20
258.84513597410569
 30
0.0
 11
0.0000000000000004
 21
258.84513597410569
 31
0.0
  0
LINE
  5
25E
  8
SIZE
  6
CONTINUOUS
 10
320.32507230233477
 20
258.84513597410569
 30
0.0
 11
90.0
 21
258.84513597410569
 31
0.0
  0
TEXT
  5
25F
  8
SIZE
  6
CONTINUOUS
 10
207.06792944519191
 20
278.84513597410557
 30
0.0
 40
64.0
  1
90
 41
0.9
  0
POINT
  5
260
  8
DEFPOINTS
  6
CONTINUOUS
 62
     0
 10
90.0
 20
206.15845799999991
 30
0.0
  0
POINT
  5
261
  8
DEFPOINTS
  6
CONTINUOUS
 62
     0
 10
0.0
 20
251.60252899999989
 30
0.0
  0
POINT
  5
262
  8
DEFPOINTS
  6
CONTINUOUS
 62
     0
 10
0.0000000000000004
 20
258.84513597410569
 30
0.0
  0
ENDBLK
  5
25A
  8
0
 62
    30
  0
ENDSEC
  0
SECTION
  2
ENTITIES
  0
LINE
  5
38
  8
DETAIL
  6
CONTINUOUS
 62
     5
 10
-159.49999999999989
 20
172.0
 30
0.0
 11
-159.49999999999989
 21
170.0
 31
0.0
  0
LINE
  5
39
  8
DETAIL
  6
CONTINUOUS
 62
     5
 10
-127.2499999999999
 20
172.0
 30
0.0
 11
-127.2499999999999
 21
0.0
 31
0.0
  0
LINE
  5
3A
  8
DETAIL
  6
CONTINUOUS
 62
     5
 10
-129.24999999999989
 20
170.0
 30
0.0
 11
-129.24999999999989
 21
0.0
 31
0.0
  0
LINE
  5
3B
  8
DETAIL
  6
CONTINUOUS
 62
     5
 10
-159.49999999999989
 20
170.0
 30
0.0
 11
-129.24999999999989
 21
170.0
 31
0.0
  0
LINE
  5
3C
  8
DETAIL
  6
CONTINUOUS
 62
     5
 10
-159.49999999999989
 20
172.0
 30
0.0
 11
-127.2499999999999
 21
172.0
 31
0.0
  0
LINE
  5
3D
  8
DETAIL
  6
CONTINUOUS
 62
     5
 10
-85.0
 20
172.0
 30
0.0
 11
-85.0
 21
170.0
 31
0.0
  0
LINE
  5
3E
  8
DETAIL
  6
CONTINUOUS
 62
     5
 10
-125.0
 20
170.0
 30
0.0
 11
-85.0
 21
170.0
 31
0.0
  0
LINE
  5
3F
  8
DETAIL
  6
CONTINUOUS
 62
     5
 10
-125.0
 20
172.0
 30
0.0
 11
-85.0
 21
172.0
 31
0.0
  0
LINE
  5
40
  8
DETAIL
  6
CONTINUOUS
 62
     5
 10
127.2499999999999
 20
172.0
 30
0.0
 11
127.2499999999999
 21
0.0
 31
0.0
  0
LINE
  5
41
  8
DETAIL
  6
CONTINUOUS
 62
     5
 10
129.24999999999989
 20
170.0
 30
0.0
 11
129.24999999999989
 21
0.0
 31
0.0
  0
LINE
  5
42
  8
DETAIL
  6
CONTINUOUS
 62
     5
 10
159.49999999999989
 20
172.0
 30
0.0
 11
127.2499999999999
 21
172.0
 31
0.0
  0
LINE
  5
43
  8
DETAIL
  6
CONTINUOUS
 62
     5
 10
159.49999999999989
 20
170.0
 30
0.0
 11
129.24999999999989
 21
170.0
 31
0.0
  0
LINE
  5
44
  8
DETAIL
  6
CONTINUOUS
 62
     5
 10
159.49999999999989
 20
172.0
 30
0.0
 11
159.49999999999989
 21
170.0
 31
0.0
  0
POINT
  5
45
  8
ARRANGE
  6
CONTINUOUS
 62
     1
 10
0.0
 20
0.0
 30
0.0
  0
LINE
  5
46
  8
NOTE
  6
CONTINUOUS
 62
     4
 10
-162.5
 20
170.0
 30
0.0
 11
-122.5
 21
170.0
 31
0.0
  0
LINE
  5
47
  8
NOTE
  6
CONTINUOUS
 62
     4
 10
-142.5
 20
190.0
 30
0.0
 11
-142.5
 21
150.0
 31
0.0
  0
LINE
  5
48
  8
NOTE
  6
CONTINUOUS
 62
     4
 10
105.0
 20
190.0
 30
0.0
 11
105.0
 21
150.0
 31
0.0
  0
LINE
  5
49
  8
NOTE
  6
CONTINUOUS
 62
     4
 10
85.0
 20
170.0
 30
0.0
 11
125.0
 21
170.0
 31
0.0
  0
LINE
  5
4A
  8
NOTE
  6
CONTINUOUS
 62
     4
 10
142.5
 20
190.0
 30
0.0
 11
142.5
 21
150.0
 31
0.0
  0
LINE
  5
4B
  8
NOTE
  6
CONTINUOUS
 62
     4
 10
122.5
 20
170.0
 30
0.0
 11
162.5
 21
170.0
 31
0.0
  0
LINE
  5
4E
  8
DETAIL
  6
CONTINUOUS
 62
     5
 10
124.0
 20
193.0
 30
0.0
 11
-124.0
 21
193.0
 31
0.0
  0
CIRCLE
  5
4F
  8
DETAIL
  6
CONTINUOUS
 62
     5
 10
0.0
 20
109.0
 30
0.0
 40
49.0
  0
LINE
  5
50
  8
DETAIL
  6
CONTINUOUS
 62
     5
 10
60.0
 20
200.0
 30
0.0
 11
-22.0
 21
200.0
 31
0.0
  0
LINE
  5
51
  8
DETAIL
  6
CONTINUOUS
 62
     5
 10
125.0
 20
-20.0
 30
0.0
 11
-125.0
 21
-20.0
 31
0.0
  0
LINE
  5
52
  8
DETAIL
  6
CONTINUOUS
 62
     5
 10
165.0
 20
0.0
 30
0.0
 11
-165.0
 21
0.0
 31
0.0
  0
LINE
  5
53
  8
DETAIL
  6
CONTINUOUS
 62
     5
 10
-165.0
 20
-8.0
 30
0.0
 11
-165.0
 21
0.0
 31
0.0
  0
LINE
  5
54
  8
NOTE
  6
CONTINUOUS
 62
     4
 10
-85.0
 20
170.0
 30
0.0
 11
-125.0
 21
170.0
 31
0.0
  0
LINE
  5
55
  8
NOTE
  6
CONTINUOUS
 62
     4
 10
-105.0
 20
190.0
 30
0.0
 11
-105.0
 21
150.0
 31
0.0
  0
CIRCLE
  5
56
  8
ARRANGE
  6
CONTINUOUS
 62
     1
 10
0.0
 20
0.0
 30
0.0
 40
40.0
  0
LINE
  5
57
  8
DETAIL
  6
CONTINUOUS
 62
     5
 10
-125.0
 20
-20.0
 30
0.0
 11
-125.0
 21
0.0
 31
0.0
  0
LINE
  5
58
  8
DETAIL
  6
CONTINUOUS
 62
     5
 10
125.0
 20
-20.0
 30
0.0
 11
125.0
 21
0.0
 31
0.0
  0
LINE
  5
59
  8
DETAIL
  6
CONTINUOUS
 62
     5
 10
165.0
 20
-8.0
 30
0.0
 11
165.0
 21
0.0
 31
0.0
  0
CIRCLE
  5
5A
  8
FIX
  6
CONTINUOUS
 62
    11
 10
142.5
 20
170.0
 30
0.0
 40
7.5
  0
CIRCLE
  5
5B
  8
FIX
  6
CONTINUOUS
 62
    11
 10
105.0
 20
170.0
 30
0.0
 40
7.5
  0
CIRCLE
  5
5C
  8
FIX
  6
CONTINUOUS
 62
    11
 10
-105.0
 20
170.0
 30
0.0
 40
7.5
  0
CIRCLE
  5
5D
  8
FIX
  6
CONTINUOUS
 62
    11
 10
-142.5
 20
170.0
 30
0.0
 40
7.5
  0
LINE
  5
5E
  8
DETAIL
  6
CONTINUOUS
 62
     5
 10
124.0
 20
193.0
 30
0.0
 11
127.0
 21
0.0
 31
0.0
  0
LINE
  5
5F
  8
DETAIL
  6
CONTINUOUS
 62
     5
 10
-124.0
 20
193.0
 30
0.0
 11
-127.0
 21
0.0
 31
0.0
  0
LINE
  5
60
  8
DETAIL
  6
CONTINUOUS
 62
     5
 10
92.0
 20
87.750210999999993
 30
0.0
 11
92.0
 21
157.75021100000001
 31
0.0
  0
LINE
  5
61
  8
DETAIL
  6
CONTINUOUS
 62
     5
 10
92.0
 20
157.75021100000001
 30
0.0
 11
52.5
 21
157.75021100000001
 31
0.0
  0
LINE
  5
62
  8
DETAIL
  6
CONTINUOUS
 62
     5
 10
52.5
 20
157.75021100000001
 30
0.0
 11
52.5
 21
87.750210999999993
 31
0.0
  0
CIRCLE
  5
63
  8
DETAIL
  6
CONTINUOUS
 62
     5
 10
0.0
 20
109.0
 30
0.0
 40
52.5
  0
LINE
  5
64
  8
NOTE
  6
CONTINUOUS
 62
     4
 10
-142.5
 20
170.0
 30
0.0
 11
-269.34457900000001
 21
374.47350399999999
 31
0.0
  0
LINE
  5
65
  8
NOTE
  6
CONTINUOUS
 62
     4
 10
-269.34457900000001
 20
374.47350399999999
 30
0.0
 11
-493.35196999999988
 21
374.47350399999999
 31
0.0
  0
LINE
  5
66
  8
NOTE
  6
CONTINUOUS
 62
     4
 10
211.013362
 20
383.39030200000002
 30
0.0
 11
378.11053099999998
 21
383.39030200000002
 31
0.0
  0
TEXT
  5
67
  8
NOTE
  6
CONTINUOUS
 62
     4
 10
-494.37122599999992
 20
388.61182700000001
 30
0.0
 40
64.0
  1
AH×4
 41
0.9
  0
TEXT
  5
68
  8
NOTE
  6
CONTINUOUS
 62
     4
 10
246.137922
 20
407.35149000000001
 30
0.0
 40
64.0
  1
EL
 41
0.9
  0
LINE
  5
69
  8
NOTE
  6
CONTINUOUS
 62
     4
 10
-141.5
 20
0.0
 30
0.0
 11
-260.40507400000001
 21
245.11583999999999
 31
0.0
  0
LINE
  5
6A
  8
NOTE
  6
CONTINUOUS
 62
     4
 10
-260.40507400000001
 20
245.11583999999999
 30
0.0
 11
-955.70551300000011
 21
245.11583999999999
 31
0.0
  0
TEXT
  5
6B
  8
NOTE
  6
CONTINUOUS
 62
     4
 10
-947.04389500000002
 20
264.07332000000002
 30
0.0
 40
64.0
  1
8×φ5取付穴（薄肉）
 41
0.9
  0
LINE
  5
70
  8
DETAIL
  6
CONTINUOUS
 62
     5
 10
92.0
 20
87.750210999999993
 30
0.0
 11
52.5
 21
87.750210999999993
 31
0.0
  0
LINE
  5
72
  8
DETAIL
  6
CONTINUOUS
 62
     5
 10
-125.0
 20
170.0
 30
0.0
 11
-125.0
 21
172.0
 31
0.0
  0
LINE
  5
73
  8
DETAIL
  6
CONTINUOUS
 62
     5
 10
-125.0
 20
172.0
 30
0.0
 11
-85.0
 21
172.0
 31
0.0
  0
LINE
  5
74
  8
SIZE
  6
CONTINUOUS
 62
    30
 10
316.88450799999998
 20
60.0
 30
0.0
 11
316.88450799999998
 21
-182.05653299999989
 31
0.0
  0
LINE
  5
75
  8
SIZE
  6
CONTINUOUS
 62
    30
 10
443.97961500000002
 20
56.5
 30
0.0
 11
443.97961500000002
 21
-218.8195959999999
 31
0.0
  0
LINE
  5
76
  8
SIZE
  6
CONTINUOUS
 62
    30
 10
0.0
 20
271.602529
 30
0.0
 11
0.0
 21
317.55394200000001
 31
0.0
  0
LINE
  5
77
  8
SIZE
  6
CONTINUOUS
 62
    30
 10
19.0
 20
240.6591919999999
 30
0.0
 11
19.0
 21
317.55394200000001
 31
0.0
  0
LINE
  5
78
  8
SIZE
  6
CONTINUOUS
 62
    30
 10
2.0
 20
287.55394199999989
 30
0.0
 11
9.5
 21
287.55394199999989
 31
0.0
  0
LINE
  5
79
  8
SIZE
  6
CONTINUOUS
 62
    30
 10
17.0
 20
287.55394199999989
 30
0.0
 11
9.5
 21
287.55394199999989
 31
0.0
  0
TEXT
  5
7A
  8
SIZE
  6
CONTINUOUS
 62
    30
 10
-42.014899
 20
319.55394200000001
 30
0.0
 40
64.0
  1
19
 41
0.9
  0
LINE
  5
7B
  8
SIZE
  6
CONTINUOUS
 62
    30
 10
-179.49999999999989
 20
170.0
 30
0.0
 11
-394.88904100000002
 21
170.0
 31
0.0
  0
LINE
  5
7C
  8
SIZE
  6
CONTINUOUS
 62
    30
 10
-181.49999999999989
 20
0.0
 30
0.0
 11
-394.88904100000002
 21
0.0
 31
0.0
  0
LINE
  5
7D
  8
SIZE
  6
CONTINUOUS
 62
    30
 10
-364.88904100000002
 20
168.0
 30
0.0
 11
-364.88904100000002
 21
-171.30519040385749
 31
0.0
  0
TEXT
  5
7E
  8
SIZE
  6
CONTINUOUS
 62
    30
 10
-396.88904100000002
 20
16.428570999999991
 30
0.0
 40
64.0
  1
170
 50
90.0
 41
0.9
  0
LINE
  5
7F
  8
SIZE
  6
CONTINUOUS
 62
    30
 10
-142.5
 20
208.0
 30
0.0
 11
-142.5
 21
791.71850800000004
 31
0.0
  0
LINE
  5
80
  8
SIZE
  6
CONTINUOUS
 62
    30
 10
142.5
 20
208.0
 30
0.0
 11
142.5
 21
791.71850800000004
 31
0.0
  0
LINE
  5
81
  8
SIZE
  6
CONTINUOUS
 62
    30
 10
-140.5
 20
761.71850800000004
 30
0.0
 11
140.5
 21
761.71850800000004
 31
0.0
  0
TEXT
  5
82
  8
SIZE
  6
CONTINUOUS
 62
    30
 10
-74.057143000000011
 20
793.71850800000004
 30
0.0
 40
64.0
  1
285
 41
0.9
  0
LINE
  5
83
  8
SIZE
  6
CONTINUOUS
 62
    30
 10
-105.0
 20
208.0
 30
0.0
 11
-105.0
 21
551.73903799999994
 31
0.0
  0
LINE
  5
84
  8
SIZE
  6
CONTINUOUS
 62
    30
 10
105.0
 20
208.0
 30
0.0
 11
105.0
 21
551.73903799999994
 31
0.0
  0
LINE
  5
85
  8
SIZE
  6
CONTINUOUS
 62
    30
 10
-103.0
 20
521.73903799999994
 30
0.0
 11
103.0
 21
521.73903799999994
 31
0.0
  0
TEXT
  5
86
  8
SIZE
  6
CONTINUOUS
 62
    30
 10
-68.571429000000009
 20
553.73903799999994
 30
0.0
 40
64.0
  1
210
 41
0.9
  0
LINE
  5
87
  8
SIZE
  6
CONTINUOUS
 62
    30
 10
141.5
 20
-40.0
 30
0.0
 11
141.5
 21
-617.71616651119757
 31
0.0
  0
LINE
  5
88
  8
SIZE
  6
CONTINUOUS
 62
    30
 10
-141.5
 20
-40.0
 30
0.0
 11
-141.5
 21
-616.03722819004849
 31
0.0
  0
LINE
  5
89
  8
SIZE
  6
CONTINUOUS
 62
    30
 10
139.5
 20
-588.49129527359833
 30
0.0
 11
0.0
 21
-588.49129527359833
 31
0.0
  0
LINE
  5
8A
  8
SIZE
  6
CONTINUOUS
 62
    30
 10
-139.5
 20
-588.49129527359833
 30
0.0
 11
0.0
 21
-588.49129527359833
 31
0.0
  0
TEXT
  5
8B
  8
SIZE
  6
CONTINUOUS
 62
    30
 10
-74.057143000000011
 20
-556.49129527359833
 30
0.0
 40
64.0
  1
283
 41
0.9
  0
LINE
  5
8C
  8
SIZE
  6
CONTINUOUS
 62
    30
 10
85.0
 20
-40.0
 30
0.0
 11
85.0
 21
-357.48072673312879
 31
0.0
  0
LINE
  5
8D
  8
SIZE
  6
CONTINUOUS
 62
    30
 10
-85.0
 20
-40.0
 30
0.0
 11
-85.0
 21
-357.48072673312879
 31
0.0
  0
LINE
  5
8E
  8
SIZE
  6
CONTINUOUS
 62
    30
 10
83.0
 20
-328.93877527359831
 30
0.0
 11
0.0
 21
-328.93877527359831
 31
0.0
  0
LINE
  5
8F
  8
SIZE
  6
CONTINUOUS
 62
    30
 10
-83.0
 20
-328.93877527359831
 30
0.0
 11
0.0
 21
-328.93877527359831
 31
0.0
  0
TEXT
  5
90
  8
SIZE
  6
CONTINUOUS
 62
    30
 10
-68.571429000000009
 20
-296.93877527359831
 30
0.0
 40
64.0
  1
170
 41
0.9
  0
LINE
  5
91
  8
SIZE
  6
CONTINUOUS
 62
    30
 10
185.0
 20
0.0
 30
0.0
 11
614.82059400000003
 21
0.0
 31
0.0
  0
LINE
  5
92
  8
SIZE
  6
CONTINUOUS
 62
    30
 10
85.5
 20
200.0
 30
0.0
 11
614.82059400000003
 21
200.0
 31
0.0
  0
LINE
  5
93
  8
SIZE
  6
CONTINUOUS
 62
    30
 10
584.82059400000003
 20
2.0
 30
0.0
 11
584.82059400000003
 21
198.0
 31
0.0
  0
TEXT
  5
94
  8
SIZE
  6
CONTINUOUS
 62
    30
 10
552.82059400000003
 20
25.942857
 30
0.0
 40
64.0
  1
200
 50
90.0
 41
0.9
  0
LINE
  5
95
  8
SIZE
  6
CONTINUOUS
 62
    30
 10
20.0
 20
161.5
 30
0.0
 11
473.97961500000002
 21
161.5
 31
0.0
  0
LINE
  5
96
  8
SIZE
  6
CONTINUOUS
 62
    30
 10
20.0
 20
56.5
 30
0.0
 11
473.97961500000002
 21
56.5
 31
0.0
  0
LINE
  5
97
  8
SIZE
  6
CONTINUOUS
 62
    30
 10
443.97961500000002
 20
159.49999999999989
 30
0.0
 11
443.97961500000002
 21
109.0
 31
0.0
  0
LINE
  5
98
  8
SIZE
  6
CONTINUOUS
 62
    30
 10
443.97961500000002
 20
58.5
 30
0.0
 11
443.97961500000002
 21
109.0
 31
0.0
  0
TEXT
  5
99
  8
SIZE
  6
CONTINUOUS
 62
    30
 10
411.97961499999991
 20
-219.091342
 30
0.0
 40
64.0
  1
φ105
 50
90.0
 41
0.9
  0
LINE
  5
9A
  8
SIZE
  6
CONTINUOUS
 62
    30
 10
20.0
 20
158.0
 30
0.0
 11
346.88450799999993
 21
158.0
 31
0.0
  0
LINE
  5
9B
  8
SIZE
  6
CONTINUOUS
 62
    30
 10
20.0
 20
60.0
 30
0.0
 11
346.88450799999993
 21
60.0
 31
0.0
  0
LINE
  5
9C
  8
SIZE
  6
CONTINUOUS
 62
    30
 10
316.88450799999998
 20
156.0
 30
0.0
 11
316.88450799999998
 21
109.0
 31
0.0
  0
LINE
  5
9D
  8
SIZE
  6
CONTINUOUS
 62
    30
 10
316.88450799999998
 20
62.0
 30
0.0
 11
316.88450799999998
 21
109.0
 31
0.0
  0
TEXT
  5
9E
  8
SIZE
  6
CONTINUOUS
 62
    30
 10
284.88450799999993
 20
-174.33003199999999
 30
0.0
 40
64.0
  1
φ98
 50
90.0
 41
0.9
  0
LINE
  5
9F
  8
SIZE
  6
CONTINUOUS
 62
    30
 10
92.0
 20
67.377985999999993
 30
0.0
 11
92.0
 21
-221.951773
 31
0.0
  0
LINE
  5
A0
  8
SIZE
  6
CONTINUOUS
 62
    30
 10
94.0
 20
-191.951773
 30
0.0
 11
96.0
 21
-191.951773
 31
0.0
  0
LINE
  5
A1
  8
SIZE
  6
CONTINUOUS
 62
    30
 10
-2.0
 20
-191.951773
 30
0.0
 11
-4.0
 21
-191.951773
 31
0.0
  0
LINE
  5
A2
  8
SIZE
  6
CONTINUOUS
 62
    30
 10
92.0
 20
-191.951773
 30
0.0
 11
0.0
 21
-191.951773
 31
0.0
  0
TEXT
  5
A3
  8
SIZE
  6
CONTINUOUS
 62
    30
 10
-0.628571
 20
-159.951773
 30
0.0
 40
64.0
  1
92
 41
0.9
  0
LINE
  5
A4
  8
SIZE
  6
CONTINUOUS
 62
    30
 10
-185.0
 20
0.0
 30
0.0
 11
-256.30191200000002
 21
0.0
 31
0.0
  0
LINE
  5
A5
  8
SIZE
  6
CONTINUOUS
 62
    30
 10
-100.7663909999999
 20
109.0
 30
0.0
 11
-256.30191200000002
 21
109.0
 31
0.0
  0
LINE
  5
A6
  8
SIZE
  6
CONTINUOUS
 62
    30
 10
-226.30191199999999
 20
2.0
 30
0.0
 11
-226.30191199999999
 21
54.5
 31
0.0
  0
LINE
  5
A7
  8
SIZE
  6
CONTINUOUS
 62
    30
 10
-226.30191199999999
 20
107.0
 30
0.0
 11
-226.30191199999999
 21
54.5
 31
0.0
  0
TEXT
  5
A8
  8
SIZE
  6
CONTINUOUS
 62
    30
 10
-258.30191200000002
 20
10.88757599999999
 30
0.0
 40
64.0
  1
109
 50
90.0
 41
0.9
  0
LINE
  5
A9
  8
SIZE
  6
CONTINUOUS
 62
    30
 10
-124.0
 20
213.0
 30
0.0
 11
-124.0
 21
665.58427699999993
 31
0.0
  0
LINE
  5
AA
  8
SIZE
  6
CONTINUOUS
 62
    30
 10
124.0
 20
213.0
 30
0.0
 11
124.0
 21
665.58427699999993
 31
0.0
  0
LINE
  5
AB
  8
SIZE
  6
CONTINUOUS
 62
    30
 10
-122.0
 20
635.58427699999993
 30
0.0
 11
0.0
 21
635.58427699999993
 31
0.0
  0
LINE
  5
AC
  8
SIZE
  6
CONTINUOUS
 62
    30
 10
122.0
 20
635.58427699999993
 30
0.0
 11
0.0
 21
635.58427699999993
 31
0.0
  0
TEXT
  5
AD
  8
SIZE
  6
CONTINUOUS
 62
    30
 10
-74.057143000000011
 20
667.58427699999993
 30
0.0
 40
64.0
  1
248
 41
0.9
  0
LINE
  5
AE
  8
SIZE
  6
CONTINUOUS
 62
    30
 10
127.0
 20
-20.0
 30
0.0
 11
127.0
 21
-496.83260738848139
 31
0.0
  0
LINE
  5
AF
  8
SIZE
  6
CONTINUOUS
 62
    30
 10
-127.0
 20
-20.0
 30
0.0
 11
-127.0
 21
-496.83260738848139
 31
0.0
  0
LINE
  5
B0
  8
SIZE
  6
CONTINUOUS
 62
    30
 10
125.0
 20
-466.98246727359827
 30
0.0
 11
0.0
 21
-466.98246727359827
 31
0.0
  0
LINE
  5
B1
  8
SIZE
  6
CONTINUOUS
 62
    30
 10
-125.0
 20
-466.98246727359827
 30
0.0
 11
0.0
 21
-466.98246727359827
 31
0.0
  0
TEXT
  5
B2
  8
SIZE
  6
CONTINUOUS
 62
    30
 10
-108.06857100000001
 20
-434.98246727359839
 30
0.0
 40
64.0
  1
□254
 41
0.9
  0
LINE
  5
B3
  8
SIZE
  6
CONTINUOUS
 62
    30
 10
165.0
 20
-28.0
 30
0.0
 11
165.0
 21
-743.63654476444196
 31
0.0
  0
LINE
  5
B4
  8
SIZE
  6
CONTINUOUS
 62
    30
 10
-165.0
 20
-20.0
 30
0.0
 11
-165.0
 21
-743.63654476444196
 31
0.0
  0
LINE
  5
B5
  8
SIZE
  6
CONTINUOUS
 62
    30
 10
163.0
 20
-713.45726727359818
 30
0.0
 11
0.0
 21
-713.45726727359818
 31
0.0
  0
LINE
  5
B6
  8
SIZE
  6
CONTINUOUS
 62
    30
 10
-163.0
 20
-713.45726727359818
 30
0.0
 11
0.0
 21
-713.45726727359818
 31
0.0
  0
TEXT
  5
B7
  8
SIZE
  6
CONTINUOUS
 62
    30
 10
-106.6971429999999
 20
-681.45726727359829
 30
0.0
 40
64.0
  1
□330
 41
0.9
  0
CIRCLE
  5
B8
  8
SIZE
  6
CONTINUOUS
 62
    30
 10
-165.0
 20
-713.45726727359818
 30
0.0
 40
6.0
  0
CIRCLE
  5
B9
  8
SIZE
  6
CONTINUOUS
 62
    30
 10
165.0
 20
-713.45726727359818
 30
0.0
 40
6.0
  0
CIRCLE
  5
BA
  8
SIZE
  6
CONTINUOUS
 62
    30
 10
-127.0
 20
-466.98246727359827
 30
0.0
 40
6.0
  0
CIRCLE
  5
BB
  8
SIZE
  6
CONTINUOUS
 62
    30
 10
127.0
 20
-466.98246727359827
 30
0.0
 40
6.0
  0
CIRCLE
  5
BC
  8
SIZE
  6
CONTINUOUS
 62
    30
 10
124.0
 20
635.58427699999993
 30
0.0
 40
6.0
  0
CIRCLE
  5
BD
  8
SIZE
  6
CONTINUOUS
 62
    30
 10
-124.0
 20
635.58427699999993
 30
0.0
 40
6.0
  0
CIRCLE
  5
BE
  8
SIZE
  6
CONTINUOUS
 62
    30
 10
-226.30191199999999
 20
109.0
 30
0.0
 40
6.0
  0
CIRCLE
  5
BF
  8
SIZE
  6
CONTINUOUS
 62
    30
 10
-226.30191199999999
 20
0.0
 30
0.0
 40
6.0
  0
CIRCLE
  5
C0
  8
SIZE
  6
CONTINUOUS
 62
    30
 10
0.0
 20
-191.951773
 30
0.0
 40
6.0
  0
CIRCLE
  5
C1
  8
SIZE
  6
CONTINUOUS
 62
    30
 10
92.0
 20
-191.951773
 30
0.0
 40
6.0
  0
CIRCLE
  5
C2
  8
SIZE
  6
CONTINUOUS
 62
    30
 10
316.88450799999998
 20
60.0
 30
0.0
 40
6.0
  0
CIRCLE
  5
C3
  8
SIZE
  6
CONTINUOUS
 62
    30
 10
316.88450799999998
 20
158.0
 30
0.0
 40
6.0
  0
CIRCLE
  5
C4
  8
SIZE
  6
CONTINUOUS
 62
    30
 10
443.97961500000002
 20
56.5
 30
0.0
 40
6.0
  0
CIRCLE
  5
C5
  8
SIZE
  6
CONTINUOUS
 62
    30
 10
443.97961500000002
 20
161.5
 30
0.0
 40
6.0
  0
CIRCLE
  5
C6
  8
SIZE
  6
CONTINUOUS
 62
    30
 10
584.82059400000003
 20
200.0
 30
0.0
 40
6.0
  0
CIRCLE
  5
C7
  8
SIZE
  6
CONTINUOUS
 62
    30
 10
584.82059400000003
 20
0.0
 30
0.0
 40
6.0
  0
CIRCLE
  5
C8
  8
SIZE
  6
CONTINUOUS
 62
    30
 10
-85.0
 20
-328.93877527359831
 30
0.0
 40
6.0
  0
CIRCLE
  5
C9
  8
SIZE
  6
CONTINUOUS
 62
    30
 10
85.0
 20
-328.93877527359831
 30
0.0
 40
6.0
  0
CIRCLE
  5
CA
  8
SIZE
  6
CONTINUOUS
 62
    30
 10
-141.5
 20
-588.49129527359833
 30
0.0
 40
6.0
  0
CIRCLE
  5
CB
  8
SIZE
  6
CONTINUOUS
 62
    30
 10
141.5
 20
-588.49129527359833
 30
0.0
 40
6.0
  0
CIRCLE
  5
CC
  8
SIZE
  6
CONTINUOUS
 62
    30
 10
105.0
 20
521.73903799999994
 30
0.0
 40
6.0
  0
CIRCLE
  5
CD
  8
SIZE
  6
CONTINUOUS
 62
    30
 10
-105.0
 20
521.73903799999994
 30
0.0
 40
6.0
  0
CIRCLE
  5
CE
  8
SIZE
  6
CONTINUOUS
 62
    30
 10
142.5
 20
761.71850800000004
 30
0.0
 40
6.0
  0
CIRCLE
  5
CF
  8
SIZE
  6
CONTINUOUS
 62
    30
 10
-142.5
 20
761.71850800000004
 30
0.0
 40
6.0
  0
CIRCLE
  5
D0
  8
SIZE
  6
CONTINUOUS
 62
    30
 10
-364.88904100000002
 20
0.0
 30
0.0
 40
6.0
  0
CIRCLE
  5
D1
  8
SIZE
  6
CONTINUOUS
 62
    30
 10
-364.88904100000002
 20
170.0
 30
0.0
 40
6.0
  0
CIRCLE
  5
D2
  8
SIZE
  6
CONTINUOUS
 62
    30
 10
19.0
 20
287.55394199999989
 30
0.0
 40
6.0
  0
CIRCLE
  5
D3
  8
SIZE
  6
CONTINUOUS
 62
    30
 10
0.0
 20
287.55394199999989
 30
0.0
 40
6.0
  0
LINE
  5
D4
  8
NOTE
  6
CONTINUOUS
 62
     4
 10
85.0
 20
-20.0
 30
0.0
 11
85.0
 21
20.0
 31
0.0
  0
LINE
  5
D5
  8
NOTE
  6
CONTINUOUS
 62
     4
 10
65.0
 20
0.0
 30
0.0
 11
105.0
 21
0.0
 31
0.0
  0
LINE
  5
D6
  8
NOTE
  6
CONTINUOUS
 62
     4
 10
141.5
 20
-20.0
 30
0.0
 11
141.5
 21
20.0
 31
0.0
  0
LINE
  5
D7
  8
NOTE
  6
CONTINUOUS
 62
     4
 10
121.5
 20
0.0
 30
0.0
 11
161.5
 21
0.0
 31
0.0
  0
LINE
  5
D8
  8
NOTE
  6
CONTINUOUS
 62
     4
 10
-85.0
 20
-20.0
 30
0.0
 11
-85.0
 21
20.0
 31
0.0
  0
LINE
  5
D9
  8
NOTE
  6
CONTINUOUS
 62
     4
 10
-105.0
 20
0.0
 30
0.0
 11
-65.0
 21
0.0
 31
0.0
  0
LINE
  5
DA
  8
NOTE
  6
CONTINUOUS
 62
     4
 10
-141.5
 20
-20.0
 30
0.0
 11
-141.5
 21
20.0
 31
0.0
  0
LINE
  5
DB
  8
NOTE
  6
CONTINUOUS
 62
     4
 10
-161.5
 20
0.0
 30
0.0
 11
-121.5
 21
0.0
 31
0.0
  0
LINE
  5
DC
  8
NOTE
  6
CONTINUOUS
 62
     4
 10
66.995634999999993
 20
186.15845799999991
 30
0.0
 11
109.4768439999999
 21
186.15845799999991
 31
0.0
  0
LINE
  5
E1
  8
NOTE
  6
CONTINUOUS
 62
     4
 10
90.0
 20
166.15845799999991
 30
0.0
 11
90.0
 21
206.15845799999991
 31
0.0
  0
LINE
  5
E2
  8
NOTE
  6
CONTINUOUS
 62
     4
 10
90.0
 20
186.15845799999991
 30
0.0
 11
211.013362
 21
381.68089600000002
 31
0.0
1001
ACAD
1000
R13OBJECT
1002
{
1005
3A5
1002
}
  0
LINE
  5
E3
  8
DETAIL
  6
CONTINUOUS
 62
     5
 10
-22.0
 20
193.0
 30
0.0
 11
-22.0
 21
200.0
 31
0.0
  0
LINE
  5
E4
  8
DETAIL
  6
CONTINUOUS
 62
     5
 10
60.0
 20
193.0
 30
0.0
 11
60.0
 21
200.0
 31
0.0
  0
LINE
  5
E5
  8
SIZE
  6
CONTINUOUS
 62
    30
 10
-22.0
 20
220.0
 30
0.0
 11
-22.0
 21
445.92417599999999
 31
0.0
  0
LINE
  5
E6
  8
SIZE
  6
CONTINUOUS
 62
    30
 10
60.0
 20
220.0
 30
0.0
 11
60.0
 21
445.92417599999999
 31
0.0
  0
LINE
  5
E7
  8
SIZE
  6
CONTINUOUS
 62
    30
 10
-10.0
 20
415.92417599999987
 30
0.0
 11
48.0
 21
415.92417599999987
 31
0.0
  0
TEXT
  5
E8
  8
SIZE
  6
CONTINUOUS
 62
    30
 10
-65.771379428571393
 20
439.33533999999997
 30
0.0
 40
64.0
  1
φ82
 41
0.9
 72
     1
 11
21.177192000000002
 21
439.33533999999997
 31
0.0
  0
CIRCLE
  5
E9
  8
SIZE
  6
CONTINUOUS
 62
    30
 10
-22.0
 20
415.92417599999987
 30
0.0
 40
6.0
  0
LINE
  5
EA
  8
SIZE
  6
CONTINUOUS
 62
    30
 10
-22.0
 20
415.92417599999987
 30
0.0
 11
-10.0
 21
415.92417599999987
 31
0.0
  0
CIRCLE
  5
EB
  8
SIZE
  6
CONTINUOUS
 62
    30
 10
60.0
 20
415.92417599999987
 30
0.0
 40
6.0
  0
LINE
  5
EC
  8
SIZE
  6
CONTINUOUS
 62
    30
 10
60.0
 20
415.92417599999987
 30
0.0
 11
48.0
 21
415.92417599999987
 31
0.0
  0
LINE
  5
ED
  8
SIZE
  6
CONTINUOUS
 62
    30
 10
0.0
 20
-91.266295999999997
 30
0.0
 11
0.0
 21
-222.2207775
 31
0.0
  0
LINE
  5
F5
  8
NOTE
  6
CONTINUOUS
 62
     4
 10
-150.87962999999999
 20
38.884734000000002
 30
0.0
 11
-141.5
 21
0.0
 31
0.0
  0
LINE
  5
F6
  8
NOTE
  6
CONTINUOUS
 62
     4
 10
-141.5
 20
0.0
 30
0.0
 11
-169.0653649999999
 21
28.985351999999999
 31
0.0
  0
ARC
  5
F7
  8
DETAIL
  6
CONTINUOUS
 62
     5
 10
-160.653131
 20
-8.0000020000000003
 30
0.0
 40
4.346868999999999
 50
179.99996899999991
 51
234.48040499999999
  0
ARC
  5
F8
  8
DETAIL
  6
CONTINUOUS
 62
     5
 10
-143.85271299999991
 20
15.536205000000001
 30
0.0
 40
33.264114999999997
 50
234.48032499999999
 51
253.528671
  0
ARC
  5
F9
  8
DETAIL
  6
CONTINUOUS
 62
     5
 10
-132.52209500000001
 20
53.857805999999997
 30
0.0
 40
73.225695999999999
 50
253.52859699999999
 51
263.01776899999999
  0
ARC
  5
FA
  8
DETAIL
  6
CONTINUOUS
 62
     5
 10
-124.999911
 20
115.2785219999999
 30
0.0
 40
135.1053179999999
 50
263.01776799999999
 51
269.99996199999998
  0
LINE
  5
FB
  8
NOTE
  6
CONTINUOUS
 62
     4
 10
-172.7355499999999
 20
196.18800400000001
 30
0.0
 11
-142.5
 21
170.0
 31
0.0
  0
LINE
  5
FC
  8
NOTE
  6
CONTINUOUS
 62
     4
 10
-142.5
 20
170.0
 30
0.0
 11
-155.59075200000001
 21
207.79725199999999
 31
0.0
  0
ARC
  5
FD
  8
DETAIL
  6
CONTINUOUS
 62
     5
 10
160.653131
 20
-8.0000020000000003
 30
0.0
 40
4.346868999999999
 50
305.51959499999998
 51
0.000031
  0
ARC
  5
FE
  8
DETAIL
  6
CONTINUOUS
 62
     5
 10
143.85271299999991
 20
15.536205000000001
 30
0.0
 40
33.264114999999997
 50
286.47132900000003
 51
305.51967500000001
  0
ARC
  5
FF
  8
DETAIL
  6
CONTINUOUS
 62
     5
 10
132.52209500000001
 20
53.857805999999997
 30
0.0
 40
73.225695999999999
 50
276.98223100000001
 51
286.4714029999999
  0
ARC
  5
100
  8
DETAIL
  6
CONTINUOUS
 62
     5
 10
124.999911
 20
115.2785219999999
 30
0.0
 40
135.1053179999999
 50
270.0000379999999
 51
276.98223200000001
  0
LINE
  5
101
  8
NOTE
  6
CONTINUOUS
 62
     4
 10
118.9492959999999
 20
215.769488
 30
0.0
 11
90.0
 21
186.15845799999991
 31
0.0
  0
LINE
  5
102
  8
NOTE
  6
CONTINUOUS
 62
     4
 10
90.0
 20
186.15845799999991
 30
0.0
 11
100.265311
 21
226.27700999999999
 31
0.0
  0
LINE
  5
103
  8
DETAIL
  6
CONTINUOUS
 62
     5
 10
83.869099000000006
 20
193.0
 30
0.0
 11
83.869099000000006
 21
198.0
 31
0.0
  0
LINE
  5
104
  8
DETAIL
  6
CONTINUOUS
 62
     5
 10
83.869099000000006
 20
198.0
 30
0.0
 11
81.869099000000006
 21
198.0
 31
0.0
  0
LINE
  5
105
  8
DETAIL
  6
CONTINUOUS
 62
     5
 10
81.869099000000006
 20
198.0
 30
0.0
 11
78.869099000000006
 21
193.0
 31
0.0
  0
LINE
  5
106
  8
DETAIL
  6
CONTINUOUS
 62
     5
 10
101.8142939999999
 20
198.0
 30
0.0
 11
104.8142939999999
 21
193.0
 31
0.0
  0
LINE
  5
107
  8
DETAIL
  6
CONTINUOUS
 62
     5
 10
99.81429399999999
 20
198.0
 30
0.0
 11
101.8142939999999
 21
198.0
 31
0.0
  0
LINE
  5
108
  8
DETAIL
  6
CONTINUOUS
 62
     5
 10
99.81429399999999
 20
193.0
 30
0.0
 11
99.81429399999999
 21
198.0
 31
0.0
  0
LINE
  5
109
  8
DETAIL
  6
CONTINUOUS
 62
     5
 10
-81.591794999999976
 20
198.0
 30
0.0
 11
-78.591794999999991
 21
193.0
 31
0.0
  0
LINE
  5
10A
  8
DETAIL
  6
CONTINUOUS
 62
     5
 10
-83.591794999999991
 20
198.0
 30
0.0
 11
-81.591794999999976
 21
198.0
 31
0.0
  0
LINE
  5
10B
  8
DETAIL
  6
CONTINUOUS
 62
     5
 10
-83.591794999999991
 20
193.0
 30
0.0
 11
-83.591794999999991
 21
198.0
 31
0.0
  0
LINE
  5
10C
  8
DETAIL
  6
CONTINUOUS
 62
     5
 10
-101.53699
 20
198.0
 30
0.0
 11
-104.53699
 21
193.0
 31
0.0
  0
LINE
  5
10D
  8
DETAIL
  6
CONTINUOUS
 62
     5
 10
-99.536990000000003
 20
198.0
 30
0.0
 11
-101.53699
 21
198.0
 31
0.0
  0
LINE
  5
10E
  8
DETAIL
  6
CONTINUOUS
 62
     5
 10
-99.536990000000003
 20
193.0
 30
0.0
 11
-99.536990000000003
 21
198.0
 31
0.0
  0
LINE
  5
10F
  8
DETAIL
  6
CONTINUOUS
 62
     5
 10
-47.5
 20
51.5
 30
0.0
 11
47.5
 21
51.5
 31
0.0
  0
LINE
  5
110
  8
DETAIL
  6
CONTINUOUS
 62
     5
 10
62.5
 20
66.5
 30
0.0
 11
62.5
 21
87.750210999999993
 31
0.0
  0
LINE
  5
111
  8
DETAIL
  6
CONTINUOUS
 62
     5
 10
47.5
 20
166.5
 30
0.0
 11
-47.5
 21
166.5
 31
0.0
  0
LINE
  5
112
  8
DETAIL
  6
CONTINUOUS
 62
     5
 10
-62.5
 20
151.5
 30
0.0
 11
-62.5
 21
66.5
 31
0.0
  0
ARC
  5
113
  8
DETAIL
  6
CONTINUOUS
 62
     5
 10
-47.5
 20
151.5
 30
0.0
 40
15.0
 50
90.0
 51
180.0
  0
ARC
  5
114
  8
DETAIL
  6
CONTINUOUS
 62
     5
 10
47.5
 20
151.5
 30
0.0
 40
15.0
 50
24.625205000000001
 51
90.0
  0
ARC
  5
115
  8
DETAIL
  6
CONTINUOUS
 62
     5
 10
47.5
 20
66.5
 30
0.0
 40
15.0
 50
270.0
 51
0.0
  0
ARC
  5
116
  8
DETAIL
  6
CONTINUOUS
 62
     5
 10
-47.5
 20
66.5
 30
0.0
 40
15.0
 50
180.0
 51
270.0
  0
LINE
  5
117
  8
DETAIL
  6
CONTINUOUS
 62
     5
 10
-124.10634499999991
 20
186.15845799999991
 30
0.0
 11
124.10634499999991
 21
186.15845799999991
 31
0.0
  0
TEXT
  5
121
  8
ETC
  6
CONTINUOUS
 62
    61
 10
823.10164683096468
 20
224.89593239390609
 30
0.0
 40
50.0
  1
VD-15ZFCD7
 41
0.9
  0
TEXT
  5
122
  8
ETC
  6
CONTINUOUS
 62
    61
 10
819.92668483096463
 20
351.84570339390609
 30
0.0
 40
50.0
  1
VD-13ZFCD7
 41
0.9
  0
TEXT
  5
123
  8
ETC
  6
CONTINUOUS
 62
    61
 10
687.14486683096482
 20
451.33398339390612
 30
0.0
 40
64.0
  1
換気扇
 41
0.9
  0
TEXT
  5
124
  8
ETC
  6
CONTINUOUS
 62
    61
 10
689.75319883096483
 20
567.66031839390621
 30
0.0
 40
64.0
  1
VD-13ZFCD7_2
 41
0.9
  0
LINE
  5
125
  8
OUTLINE
  6
CONTINUOUS
 62
     3
 10
124.0
 20
193.0
 30
0.0
 11
127.0
 21
0.0
 31
0.0
  0
LINE
  5
126
  8
BASIS
  6
DASHDOT
 62
     6
 10
0.0
 20
-71.266295999999997
 30
0.0
 11
0.0
 21
251.60252899999989
 31
0.0
  0
LINE
  5
127
  8
OUTLINE
  6
CONTINUOUS
 62
     3
 10
-124.0
 20
193.0
 30
0.0
 11
-127.0
 21
0.0
 31
0.0
  0
LINE
  5
128
  8
OUTLINE
  6
CONTINUOUS
 62
     3
 10
165.0
 20
0.0
 30
0.0
 11
-165.0
 21
0.0
 31
0.0
  0
LINE
  5
129
  8
BASIS
  6
DASHDOT
 62
     6
 10
83.370051999999987
 20
109.0
 30
0.0
 11
-80.766390999999985
 21
109.0
 31
0.0
  0
LINE
  5
12A
  8
OUTLINE
  6
CONTINUOUS
 62
     3
 10
124.0
 20
193.0
 30
0.0
 11
-124.0
 21
193.0
 31
0.0
  0
LINE
  5
12B
  8
BASIS
  6
DASHDOT
 62
     6
 10
19.0
 20
166.7073419999999
 30
0.0
 11
19.0
 21
220.65919199999999
 31
0.0
  0
LINE
  5
1C2
  8
SIZE
  6
CONTINUOUS
 10
-145.0
 20
-19.999999999999989
 30
0.0
 11
-391.51865879524303
 21
-19.999999999999879
 31
0.0
  0
TEXT
  5
1C8
  8
SIZE
  6
CONTINUOUS
 10
-398.23965178610069
 20
-151.1579297622429
 30
0.0
 40
64.0
  1
20
 50
90.0
 41
0.9
  0
CIRCLE
  5
1C9
  8
SIZE
  6
CONTINUOUS
 62
    30
 10
-364.88904100000002
 20
-19.999999999999911
 30
0.0
 40
6.0
  0
LINE
  5
263
  8
SIZE
  6
CONTINUOUS
 10
90.0
 20
226.158458
 30
0.0
 11
90.0
 21
265.56088925870148
 31
0.0
  0
LINE
  5
264
  8
SIZE
  6
CONTINUOUS
 10
0.0000000000000012
 20
271.602529
 30
0.0
 11
0.0000000000000023
 21
288.84513597410557
 31
0.0
  0
LINE
  5
265
  8
SIZE
  6
CONTINUOUS
 10
90.0
 20
245.4136294049149
 30
0.0
 11
0.0
 21
245.4136294049149
 31
0.0
  0
LINE
  5
266
  8
SIZE
  6
CONTINUOUS
 10
320.32507230233477
 20
245.4136294049149
 30
0.0
 11
90.0
 21
245.4136294049149
 31
0.0
  0
TEXT
  5
268
  8
SIZE
  6
CONTINUOUS
 10
207.06792944519191
 20
262.20301261640361
 30
0.0
 40
64.0
  1
90
 41
0.9
  0
CIRCLE
  5
269
  8
SIZE
  6
CONTINUOUS
 62
    30
 10
90.0
 20
245.4136294049149
 30
0.0
 40
6.0
  0
CIRCLE
  5
26A
  8
SIZE
  6
CONTINUOUS
 62
    30
 10
0.0
 20
245.4136294049149
 30
0.0
 40
6.0
  0
ENDSEC
  0
EOF
