  0
SECTION
  2
HEADER
  9
$ACADVER
  1
AC1009
  9
$DWGCODEPAGE
  3
dos932
  9
$INSBASE
 10
0.0
 20
0.0
 30
0.0
  9
$EXTMIN
 10
-534.30631878355962
 20
-738.92210777723449
 30
-0.0015258207003583
  9
$EXTMAX
 10
1349.5880246390441
 20
629.33350416055509
 30
0.0000000349246037
  9
$LIMMIN
 10
-2970.0
 20
-2100.0
  9
$LIMMAX
 10
2970.0
 20
2100.0
  9
$ORTHOMODE
 70
     1
  9
$REGENMODE
 70
     1
  9
$FILLMODE
 70
     1
  9
$QTEXTMODE
 70
     0
  9
$MIRRTEXT
 70
     0
  9
$LTSCALE
 40
20.0
  9
$ATTMODE
 70
     1
  9
$TEXTSIZE
 40
64.0
  9
$TRACEWID
 40
0.05
  9
$TEXTSTYLE
  7
STANDARD
  9
$CLAYER
  8
SIZE
  9
$CELTYPE
  6
CONTINUOUS
  9
$CECOLOR
 62
     7
  9
$DIMSCALE
 40
1.0
  9
$DIMASZ
 40
12.0
  9
$DIMEXO
 40
20.0
  9
$DIMDLI
 40
200.0
  9
$DIMRND
 40
0.0
  9
$DIMDLE
 40
0.0
  9
$DIMEXE
 40
20.0
  9
$DIMTP
 40
0.0
  9
$DIMTM
 40
0.0
  9
$DIMTXT
 40
64.0
  9
$DIMCEN
 40
0.09
  9
$DIMTSZ
 40
0.0
  9
$DIMTOL
 70
     0
  9
$DIMLIM
 70
     0
  9
$DIMTIH
 70
     0
  9
$DIMTOH
 70
     0
  9
$DIMSE1
 70
     0
  9
$DIMSE2
 70
     0
  9
$DIMTAD
 70
     1
  9
$DIMZIN
 70
     8
  9
$DIMBLK
  1

  9
$DIMASO
 70
     1
  9
$DIMSHO
 70
     0
  9
$DIMPOST
  1

  9
$DIMAPOST
  1

  9
$DIMALT
 70
     0
  9
$DIMALTD
 70
     2
  9
$DIMALTF
 40
25.399999999999999
  9
$DIMLFAC
 40
1.0
  9
$DIMTOFL
 70
     1
  9
$DIMTVP
 40
0.0
  9
$DIMTIX
 70
     1
  9
$DIMSOXD
 70
     0
  9
$DIMSAH
 70
     0
  9
$DIMBLK1
  1

  9
$DIMBLK2
  1

  9
$DIMSTYLE
  2
STANDARD
  9
$DIMCLRD
 70
     7
  9
$DIMCLRE
 70
     7
  9
$DIMCLRT
 70
     7
  9
$DIMTFAC
 40
1.0
  9
$DIMGAP
 40
25.0
  9
$LUNITS
 70
     2
  9
$LUPREC
 70
     4
  9
$SKETCHINC
 40
0.1
  9
$FILLETRAD
 40
3.0
  9
$AUNITS
 70
     1
  9
$AUPREC
 70
     3
  9
$MENU
  1
ACAD
  9
$ELEVATION
 40
0.0
  9
$PELEVATION
 40
0.0
  9
$THICKNESS
 40
0.0
  9
$LIMCHECK
 70
     0
  9
$CHAMFERA
 40
0.0
  9
$CHAMFERB
 40
0.0
  9
$SKPOLY
 70
     0
  9
$TDCREATE
 40
2453019.62301037
  9
$TDUPDATE
 40
2459025.497264306
  9
$TDINDWG
 40
1.7129905208
  9
$TDUSRTIMER
 40
1.7129905208
  9
$USRTIMER
 70
     1
  9
$ANGBASE
 50
0.0
  9
$ANGDIR
 70
     0
  9
$PDMODE
 70
     3
  9
$PDSIZE
 40
-2.0
  9
$PLINEWID
 40
0.0
  9
$SPLFRAME
 70
     0
  9
$SPLINETYPE
 70
     6
  9
$SPLINESEGS
 70
     8
  9
$SURFTAB1
 70
     6
  9
$SURFTAB2
 70
     6
  9
$SURFTYPE
 70
     6
  9
$SURFU
 70
     6
  9
$SURFV
 70
     6
  9
$UCSNAME
  2

  9
$UCSORG
 10
0.0
 20
0.0
 30
0.0
  9
$UCSXDIR
 10
1.0
 20
0.0
 30
0.0
  9
$UCSYDIR
 10
0.0
 20
1.0
 30
0.0
  9
$PUCSNAME
  2

  9
$PUCSORG
 10
0.0
 20
0.0
 30
0.0
  9
$PUCSXDIR
 10
1.0
 20
0.0
 30
0.0
  9
$PUCSYDIR
 10
0.0
 20
1.0
 30
0.0
  9
$USERI1
 70
     0
  9
$USERI2
 70
     0
  9
$USERI3
 70
     0
  9
$USERI4
 70
     0
  9
$USERI5
 70
     0
  9
$USERR1
 40
20.0
  9
$USERR2
 40
0.0
  9
$USERR3
 40
0.0
  9
$USERR4
 40
0.0
  9
$USERR5
 40
0.0
  9
$WORLDVIEW
 70
     1
  9
$SHADEDGE
 70
     3
  9
$SHADEDIF
 70
    70
  9
$TILEMODE
 70
     1
  9
$MAXACTVP
 70
    48
  9
$PINSBASE
 10
0.0
 20
0.0
 30
0.0
  9
$PLIMCHECK
 70
     0
  9
$PEXTMIN
 10
-100000000000000000000.0
 20
-100000000000000000000.0
 30
-100000000000000000000.0
  9
$PEXTMAX
 10
100000000000000000000.0
 20
100000000000000000000.0
 30
100000000000000000000.0
  9
$PLIMMIN
 10
0.0
 20
0.0
  9
$PLIMMAX
 10
12.0
 20
9.0
  9
$UNITMODE
 70
     0
  9
$VISRETAIN
 70
     0
  9
$PLINEGEN
 70
     0
  9
$PSLTSCALE
 70
     0
  9
$TREEDEPTH
 70
  3020
  9
$ATTDIA
 70
     0
  9
$ATTREQ
 70
     1
  9
$BLIPMODE
 70
     1
  9
$COORDS
 70
     1
  9
$DRAGMODE
 70
     2
  9
$OSMODE
 70
     0
  9
$HANDLING
 70
     0
  9
$HANDSEED
  5
EDCC
  0
ENDSEC
  0
SECTION
  2
TABLES
  0
TABLE
  2
LTYPE
 70
     3
  0
LTYPE
  2
CONTINUOUS
 70
     0
  3
実線
 72
    65
 73
     0
 40
0.0
  0
LTYPE
  2
DASHDOT
 70
     0
  3
____ _ ____ _ ____ _ ____ _ ____ _ ____ _ ____
 72
    65
 73
     4
 40
5.5
 49
4.0
 49
-0.6
 49
0.3
 49
-0.6
  0
LTYPE
  2
CENTER
 70
     0
  3
Center ____ _ ____ _ ____ _ ____ _ ____ _ ____
 72
    65
 73
     4
 40
1.0
 49
0.5
 49
-0.25
 49
0.0
 49
-0.25
  0
ENDTAB
  0
TABLE
  2
LAYER
 70
    12
  0
LAYER
  2
0
 70
     0
 62
     7
  6
CONTINUOUS
  0
LAYER
  2
BASIS
 70
     0
 62
     6
  6
DASHDOT
  0
LAYER
  2
OUTLINE
 70
     0
 62
     3
  6
CONTINUOUS
  0
LAYER
  2
DETAIL
 70
     0
 62
     5
  6
CONTINUOUS
  0
LAYER
  2
SIZE
 70
     0
 62
    30
  6
CONTINUOUS
  0
LAYER
  2
ARRANGE
 70
     0
 62
     1
  6
CONTINUOUS
  0
LAYER
  2
DEFPOINTS
 70
     0
 62
     7
  6
CONTINUOUS
  0
LAYER
  2
ETC
 70
     0
 62
    61
  6
CONTINUOUS
  0
LAYER
  2
FIX
 70
     0
 62
    11
  6
CONTINUOUS
  0
LAYER
  2
NOTE
 70
     0
 62
     4
  6
CONTINUOUS
  0
LAYER
  2
SERVICESPACE
 70
    64
 62
     2
  6
DASHDOT
  0
LAYER
  2
SYMBOLLINE
 70
    64
 62
    15
  6
CONTINUOUS
  0
ENDTAB
  0
TABLE
  2
STYLE
 70
     1
  0
STYLE
  2
STANDARD
 70
     0
 40
64.0
 41
0.9
 50
0.0
 71
     0
 42
64.0
  3
SIMPLEX.shx
  4
BIGFONT.shx
  0
ENDTAB
  0
TABLE
  2
APPID
 70
    19
  0
APPID
  2
ACAD
 70
     0
  0
APPID
  2
AUTOCAD_POSTSCRIPT_FIGURE
 70
     0
  0
APPID
  2
ACAD_EXEMPT_FROM_CAD_STANDARDS
 70
     0
  0
APPID
  2
ACAD_PSEXT
 70
     0
  0
APPID
  2
ACAUTHENVIRON
 70
     0
  0
APPID
  2
GENIUS_GENOENT_13
 70
     0
  0
APPID
  2
GENIUS_GENCFG_13
 70
     0
  0
APPID
  2
GENIUS_GENCFG0_13
 70
     0
  0
APPID
  2
GENIUS_GENCFG1_13
 70
     0
  0
APPID
  2
GENIUS_GENCFG2_13
 70
     0
  0
APPID
  2
GENIUS_GENCFG3_13
 70
     0
  0
APPID
  2
GENIUS_GENCFG4_13
 70
     0
  0
APPID
  2
GENIUS_GEVCFG0_13
 70
     0
  0
APPID
  2
CONTENTBLOCKICON
 70
     0
  0
APPID
  2
CONTENTBLOCKDESCRIPTION
 70
     0
  0
APPID
  2
ACAD_NAV_VCDISPLAY
 70
     0
  0
APPID
  2
ACAD_MLEADERVER
 70
     0
  0
APPID
  2
ACDBDYNAMICBLOCKTRUENAME
 70
     0
  0
APPID
  2
ACDBDYNAMICBLOCKGUID
 70
     0
  0
ENDTAB
  0
TABLE
  2
DIMSTYLE
 70
     1
  0
DIMSTYLE
  2
STANDARD
 70
     0
  3

  4

  5
_ORIGIN
  6

  7

 40
1.0
 41
12.0
 42
20.0
 43
200.0
 44
20.0
 45
0.0
 46
0.0
 47
0.0
 48
0.0
140
64.0
141
0.09
142
0.0
143
25.399999999999999
144
1.0
145
0.0
146
1.0
147
25.0
 71
     0
 72
     0
 73
     0
 74
     0
 75
     0
 76
     0
 77
     1
 78
     8
170
     0
171
     2
172
     1
173
     0
174
     1
175
     0
176
     7
177
     7
178
     7
  0
ENDTAB
  0
TABLE
  2
VIEW
 70
     1
  0
VIEW
  2
ALL
 70
     0
 40
4282.6198079999986
 10
0.0
 20
41.309904000000003
 41
5940.0
 11
0.0
 21
0.0
 31
1.0
 12
0.0
 22
0.0
 32
0.0
 42
50.0
 43
0.0
 44
0.0
 50
0.0
 71
     0
  0
ENDTAB
  0
TABLE
  2
UCS
 70
     0
  0
ENDTAB
  0
TABLE
  2
VPORT
 70
     1
  0
VPORT
  2
*ACTIVE
 70
     0
 10
0.0
 20
0.0
 11
1.0
 21
1.0
 12
407.64085292774217
 22
-54.794301808339704
 13
0.0
 23
0.0
 14
1.0
 24
1.0
 15
0.0
 25
0.0
 16
0.0
 26
0.0
 36
1.0
 17
0.0
 27
0.0
 37
0.0
 40
1377.326919862239
 41
1.747787610619469
 42
50.0
 43
0.0
 44
0.0
 50
0.0
 51
0.0
 71
     0
 72
  1000
 73
     1
 74
     3
 75
     0
 76
     0
 77
     0
 78
     0
  0
ENDTAB
  0
ENDSEC
  0
SECTION
  2
BLOCKS
  0
BLOCK
  8
0
  2
_ORIGIN
 70
     0
 10
0.0
 20
0.0
 30
0.0
  3
_ORIGIN
  1
_ORIGIN
  0
CIRCLE
  8
0
  6
CONTINUOUS
 62
     7
 10
0.0
 20
0.0
 30
0.0
 40
0.5
  0
LINE
  8
0
  6
CONTINUOUS
 62
     7
 10
0.0
 20
0.0
 30
0.0
 11
-1.0
 21
0.0
 31
0.0
  0
ENDBLK
  8
0
  0
ENDSEC
  0
SECTION
  2
ENTITIES
  0
TEXT
  8
NOTE
  6
CONTINUOUS
 62
     4
 10
381.20928100289581
 20
366.03985584536258
 30
0.0
 40
63.999999999999993
  1
8-φ5
 41
0.9
  0
LINE
  8
NOTE
  6
CONTINUOUS
 62
     4
 10
625.19293671505739
 20
329.8116
 30
0.0
 11
352.78356798458663
 21
329.8116364789787
 31
0.0
  0
LINE
  8
NOTE
  6
CONTINUOUS
 62
     4
 10
117.5
 20
65.0
 30
0.0
 11
352.78356798458663
 21
329.8116364789787
 31
0.0
  0
LINE
  8
NOTE
  6
CONTINUOUS
 62
     4
 10
117.5
 20
65.0
 30
0.0
 11
148.81274534757901
 21
87.683422418883424
 31
0.0
  0
LINE
  8
NOTE
  6
CONTINUOUS
 62
     4
 10
136.49527469402349
 20
100.1992963337611
 30
0.0
 11
117.5
 21
65.0
 31
0.0
  0
TEXT
  8
NOTE
  6
CONTINUOUS
 62
     4
 10
-41.270290864104027
 20
-288.49171086862037
 30
0.0
 40
64.0
  1
EA
 41
0.9
  0
TEXT
  8
NOTE
  6
CONTINUOUS
 62
     4
 10
362.1352863021466
 20
-458.32688685288412
 30
0.0
 40
64.0
  1
EL
 41
0.9
  0
LINE
  8
NOTE
  6
CONTINUOUS
 62
     4
 10
485.27834406317379
 20
-492.19683120116042
 30
0.0
 11
316.75385253675449
 21
-492.1968312011179
 31
0.0
  0
LINE
  8
NOTE
  6
CONTINUOUS
 62
     4
 10
82.160947408352058
 20
-59.0
 30
0.0
 11
316.75385253675449
 21
-492.1968312011179
 31
0.0
  0
LINE
  8
NOTE
  6
CONTINUOUS
 62
     4
 10
82.160947408352058
 20
-59.0
 30
0.0
 11
110.2343214524644
 21
-85.643949187450062
 31
0.0
  0
LINE
  8
NOTE
  6
CONTINUOUS
 62
     4
 10
89.463509802930275
 20
-98.258049703845472
 30
0.0
 11
82.160947408352058
 21
-59.0
 31
0.0
  0
CIRCLE
  8
ARRANGE
  6
CONTINUOUS
 62
     1
 10
0.0
 20
0.0
 30
0.0
 40
40.0
  0
POINT
  8
ARRANGE
  6
CONTINUOUS
 62
     1
 10
0.0
 20
0.0
 30
0.0
 50
90.0
  0
LINE
  8
BASIS
  6
DASHDOT
 62
     6
 10
-183.9695530000001
 20
0.0
 30
0.0
 11
163.0453379999999
 21
0.0
 31
0.0
  0
LINE
  8
BASIS
  6
DASHDOT
 62
     6
 10
0.0
 20
173.2337719999999
 30
0.0
 11
0.0
 21
-240.5029260605497
 31
0.0
  0
CIRCLE
  8
FIX
  6
CONTINUOUS
 62
    11
 10
65.0
 20
117.5
 30
0.0
 40
10.0
  0
CIRCLE
  8
FIX
  6
CONTINUOUS
 62
    11
 10
117.5
 20
65.0
 30
0.0
 40
10.0
  0
CIRCLE
  8
FIX
  6
CONTINUOUS
 62
    11
 10
117.5
 20
-65.0
 30
0.0
 40
10.0
  0
CIRCLE
  8
FIX
  6
CONTINUOUS
 62
    11
 10
65.0
 20
-117.5
 30
0.0
 40
10.0
  0
LINE
  8
SIZE
  6
CONTINUOUS
 62
    30
 10
-48.1321539999999
 20
-231.5119390000001
 30
0.0
 11
-48.1321539999999
 21
-490.64574511375531
 31
0.0
  0
LINE
  8
SIZE
  6
CONTINUOUS
 62
    30
 10
48.132152999999562
 20
-231.5119390000001
 30
0.0
 11
48.132152999999562
 21
-490.64574511375531
 31
0.0
  0
LINE
  8
SIZE
  6
CONTINUOUS
 62
    30
 10
36.132152999999562
 20
-470.64574511375531
 30
0.0
 11
-36.1321539999999
 21
-470.64574511375531
 31
0.0
  0
LINE
  8
SIZE
  6
CONTINUOUS
 62
    30
 10
-48.1321539999999
 20
-470.64574511375531
 30
0.0
 11
-337.01879208800011
 21
-470.64574511375531
 31
0.0
  0
CIRCLE
  8
SIZE
  6
CONTINUOUS
 62
    30
 10
48.132152999999562
 20
-470.64574511375531
 30
0.0
 40
6.0
  0
LINE
  8
SIZE
  6
CONTINUOUS
 62
    30
 10
48.132152999999562
 20
-470.64574511375531
 30
0.0
 11
36.132152999999562
 21
-470.64574511375531
 31
0.0
  0
CIRCLE
  8
SIZE
  6
CONTINUOUS
 62
    30
 10
-48.1321539999999
 20
-470.64574511375531
 30
0.0
 40
6.0
  0
LINE
  8
SIZE
  6
CONTINUOUS
 62
    30
 10
-48.1321539999999
 20
-470.64574511375531
 30
0.0
 11
-36.1321539999999
 21
-470.64574511375531
 31
0.0
  0
TEXT
  8
SIZE
  6
CONTINUOUS
 62
    30
 10
-322.16736351657153
 20
-434.9790784470888
 30
0.0
 40
64.0
  1
φ98
 41
0.9
 72
     1
 11
-235.2187920880001
 21
-434.9790784470888
 31
0.0
  0
POINT
  8
DEFPOINTS
  6
CONTINUOUS
 62
    30
 10
-48.1321539999999
 20
-211.5119390000001
 30
0.0
  0
POINT
  8
DEFPOINTS
  6
CONTINUOUS
 62
    30
 10
48.132152999999562
 20
-211.5119390000001
 30
0.0
  0
POINT
  8
DEFPOINTS
  6
CONTINUOUS
 62
    30
 10
48.132152999999562
 20
-470.64574511375531
 30
0.0
  0
LINE
  8
SIZE
  6
CONTINUOUS
 62
    30
 10
-52.18983900000012
 20
-163.0700240000001
 30
0.0
 11
-52.18983900000012
 21
-614.13258656425182
 31
0.0
  0
LINE
  8
SIZE
  6
CONTINUOUS
 62
    30
 10
52.143713999999818
 20
-163.0699000000001
 30
0.0
 11
52.143713999999818
 21
-614.13258656425182
 31
0.0
  0
LINE
  8
SIZE
  6
CONTINUOUS
 62
    30
 10
40.143713999999818
 20
-594.13258656425182
 30
0.0
 11
-40.18983900000012
 21
-594.13258656425182
 31
0.0
  0
LINE
  8
SIZE
  6
CONTINUOUS
 62
    30
 10
-52.18983900000012
 20
-594.13258656425182
 30
0.0
 11
-392.04053247799237
 21
-594.13258656425182
 31
0.0
  0
CIRCLE
  8
SIZE
  6
CONTINUOUS
 62
    30
 10
52.143713999999818
 20
-594.13258656425182
 30
0.0
 40
6.0
  0
LINE
  8
SIZE
  6
CONTINUOUS
 62
    30
 10
52.143713999999818
 20
-594.13258656425182
 30
0.0
 11
40.143713999999818
 21
-594.13258656425182
 31
0.0
  0
CIRCLE
  8
SIZE
  6
CONTINUOUS
 62
    30
 10
-52.18983900000012
 20
-594.13258656425182
 30
0.0
 40
6.0
  0
LINE
  8
SIZE
  6
CONTINUOUS
 62
    30
 10
-52.18983900000012
 20
-594.13258656425182
 30
0.0
 11
-40.18983900000012
 21
-594.13258656425182
 31
0.0
  0
TEXT
  8
SIZE
  6
CONTINUOUS
 62
    30
 10
-377.18910390656401
 20
-558.4659198975852
 30
0.0
 40
64.0
  1
φ105
 41
0.9
 72
     1
 11
-268.29767533513541
 21
-558.4659198975852
 31
0.0
  0
POINT
  8
DEFPOINTS
  6
CONTINUOUS
 62
    30
 10
-52.18983900000012
 20
-143.0700240000001
 30
0.0
  0
POINT
  8
DEFPOINTS
  6
CONTINUOUS
 62
    30
 10
52.143713999999818
 20
-143.0699000000001
 30
0.0
  0
POINT
  8
DEFPOINTS
  6
CONTINUOUS
 62
    30
 10
52.143713999999818
 20
-594.13258656425182
 30
0.0
  0
LINE
  8
SIZE
  6
CONTINUOUS
 62
    30
 10
-143.0
 20
-162.0
 30
0.0
 11
-143.0
 21
-738.69919794629641
 31
0.0
  0
LINE
  8
SIZE
  6
CONTINUOUS
 62
    30
 10
143.0
 20
-162.0
 30
0.0
 11
143.0
 21
-738.69919794629641
 31
0.0
  0
LINE
  8
SIZE
  6
CONTINUOUS
 62
    30
 10
-131.0
 20
-718.69919794629595
 30
0.0
 11
131.0
 21
-718.69919794629595
 31
0.0
  0
CIRCLE
  8
SIZE
  6
CONTINUOUS
 62
    30
 10
-143.0
 20
-718.69919794629595
 30
0.0
 40
6.0
  0
LINE
  8
SIZE
  6
CONTINUOUS
 62
    30
 10
-143.0
 20
-718.69919794629595
 30
0.0
 11
-131.0
 21
-718.69919794629595
 31
0.0
  0
CIRCLE
  8
SIZE
  6
CONTINUOUS
 62
    30
 10
143.0
 20
-718.69919794629595
 30
0.0
 40
6.0
  0
LINE
  8
SIZE
  6
CONTINUOUS
 62
    30
 10
143.0
 20
-718.69919794629595
 30
0.0
 11
131.0
 21
-718.69919794629595
 31
0.0
  0
TEXT
  8
SIZE
  6
CONTINUOUS
 62
    30
 10
-109.1657142857143
 20
-693.69919794629595
 30
0.0
 40
64.0
  1
□286
 41
0.9
 72
     1
 11
0.0
 21
-693.69919794629595
 31
0.0
  0
POINT
  8
DEFPOINTS
  6
CONTINUOUS
 62
    30
 10
-143.0
 20
-142.0
 30
0.0
  0
POINT
  8
DEFPOINTS
  6
CONTINUOUS
 62
    30
 10
143.0
 20
-142.0
 30
0.0
  0
POINT
  8
DEFPOINTS
  6
CONTINUOUS
 62
    30
 10
143.0
 20
-718.69919794629595
 30
0.0
  0
LINE
  8
SIZE
  6
CONTINUOUS
 62
    30
 10
92.5
 20
-117.5
 30
0.0
 11
420.91021612287699
 21
-117.5000000000001
 31
0.0
  0
LINE
  8
SIZE
  6
CONTINUOUS
 62
    30
 10
92.5
 20
117.5
 30
0.0
 11
420.91021612287699
 21
117.4999999999999
 31
0.0
  0
LINE
  8
SIZE
  6
CONTINUOUS
 62
    30
 10
400.91021612287699
 20
-105.5000000000001
 30
0.0
 11
400.91021612287699
 21
105.4999999999999
 31
0.0
  0
CIRCLE
  8
SIZE
  6
CONTINUOUS
 62
    30
 10
400.91021612287699
 20
-117.5000000000001
 30
0.0
 40
6.0
  0
LINE
  8
SIZE
  6
CONTINUOUS
 62
    30
 10
400.91021612287699
 20
-117.5000000000001
 30
0.0
 11
400.91021612287699
 21
-105.5000000000001
 31
0.0
  0
CIRCLE
  8
SIZE
  6
CONTINUOUS
 62
    30
 10
400.91021612287699
 20
117.4999999999999
 30
0.0
 40
6.0
  0
LINE
  8
SIZE
  6
CONTINUOUS
 62
    30
 10
400.91021612287699
 20
117.4999999999999
 30
0.0
 11
400.91021612287699
 21
105.4999999999999
 31
0.0
  0
TEXT
  8
SIZE
  6
CONTINUOUS
 62
    30
 10
375.91021612287699
 20
-74.057142857142964
 30
0.0
 40
64.0
  1
235
 50
90.0
 41
0.9
 72
     1
 11
375.91021612287699
 21
-0.0000000000001137
 31
0.0
  0
POINT
  8
DEFPOINTS
  6
CONTINUOUS
 62
    30
 10
72.5
 20
-117.5
 30
0.0
  0
POINT
  8
DEFPOINTS
  6
CONTINUOUS
 62
    30
 10
72.5
 20
117.5
 30
0.0
  0
POINT
  8
DEFPOINTS
  6
CONTINUOUS
 62
    30
 10
400.91021612287699
 20
117.4999999999999
 30
0.0
  0
LINE
  8
SIZE
  6
CONTINUOUS
 62
    30
 10
145.0
 20
65.0
 30
0.0
 11
304.74803338317588
 21
64.999999999999886
 31
0.0
  0
LINE
  8
SIZE
  6
CONTINUOUS
 62
    30
 10
145.0
 20
-65.0
 30
0.0
 11
304.74803338317588
 21
-65.000000000000114
 31
0.0
  0
LINE
  8
SIZE
  6
CONTINUOUS
 62
    30
 10
284.74803338317588
 20
77.0
 30
0.0
 11
284.74803338317588
 21
89.0
 31
0.0
  0
LINE
  8
SIZE
  6
CONTINUOUS
 62
    30
 10
284.74803338317588
 20
-77.0
 30
0.0
 11
284.74803338317588
 21
-89.0
 31
0.0
  0
LINE
  8
SIZE
  6
CONTINUOUS
 62
    30
 10
284.74803338317588
 20
65.0
 30
0.0
 11
284.74803338317588
 21
-65.0
 31
0.0
  0
CIRCLE
  8
SIZE
  6
CONTINUOUS
 62
    30
 10
284.74803338317588
 20
65.0
 30
0.0
 40
6.0
  0
LINE
  8
SIZE
  6
CONTINUOUS
 62
    30
 10
284.74803338317588
 20
65.0
 30
0.0
 11
284.74803338317588
 21
77.0
 31
0.0
  0
CIRCLE
  8
SIZE
  6
CONTINUOUS
 62
    30
 10
284.74803338317588
 20
-65.0
 30
0.0
 40
6.0
  0
LINE
  8
SIZE
  6
CONTINUOUS
 62
    30
 10
284.74803338317588
 20
-65.0
 30
0.0
 11
284.74803338317588
 21
-77.0
 31
0.0
  0
TEXT
  8
SIZE
  6
CONTINUOUS
 62
    30
 10
259.74803338317588
 20
-68.571428571428569
 30
0.0
 40
64.0
  1
130
 50
90.0
 41
0.9
 72
     1
 11
259.74803338317588
 21
0.0
 31
0.0
  0
POINT
  8
DEFPOINTS
  6
CONTINUOUS
 62
    30
 10
125.0
 20
65.0
 30
0.0
  0
POINT
  8
DEFPOINTS
  6
CONTINUOUS
 62
    30
 10
125.0
 20
-65.0
 30
0.0
  0
POINT
  8
DEFPOINTS
  6
CONTINUOUS
 62
    30
 10
284.74803338317588
 20
-65.0
 30
0.0
  0
LINE
  8
SIZE
  6
CONTINUOUS
 62
    30
 10
140.5
 20
130.5
 30
0.0
 11
536.94617079177669
 21
130.49999999999989
 31
0.0
  0
LINE
  8
SIZE
  6
CONTINUOUS
 62
    30
 10
140.5
 20
-130.5
 30
0.0
 11
536.94617079177669
 21
-130.50000000000011
 31
0.0
  0
LINE
  8
SIZE
  6
CONTINUOUS
 62
    30
 10
516.94617079177669
 20
118.4999999999999
 30
0.0
 11
516.94617079177669
 21
-118.5000000000001
 31
0.0
  0
CIRCLE
  8
SIZE
  6
CONTINUOUS
 62
    30
 10
516.94617079177669
 20
130.49999999999989
 30
0.0
 40
6.0
  0
LINE
  8
SIZE
  6
CONTINUOUS
 62
    30
 10
516.94617079177669
 20
130.49999999999989
 30
0.0
 11
516.94617079177669
 21
118.4999999999999
 31
0.0
  0
CIRCLE
  8
SIZE
  6
CONTINUOUS
 62
    30
 10
516.94617079177669
 20
-130.50000000000011
 30
0.0
 40
6.0
  0
LINE
  8
SIZE
  6
CONTINUOUS
 62
    30
 10
516.94617079177669
 20
-130.50000000000011
 30
0.0
 11
516.94617079177669
 21
-118.5000000000001
 31
0.0
  0
TEXT
  8
SIZE
  6
CONTINUOUS
 62
    30
 10
491.94617079177669
 20
-61.714285714285701
 30
0.0
 40
64.0
  1
261
 50
90.0
 41
0.9
 72
     1
 11
491.94617079177669
 21
0.0
 31
0.0
  0
POINT
  8
DEFPOINTS
  6
CONTINUOUS
 62
    30
 10
120.5
 20
130.5
 30
0.0
  0
POINT
  8
DEFPOINTS
  6
CONTINUOUS
 62
    30
 10
120.5
 20
-130.5
 30
0.0
  0
POINT
  8
DEFPOINTS
  6
CONTINUOUS
 62
    30
 10
516.94617079177669
 20
-130.50000000000011
 30
0.0
  0
LINE
  8
SIZE
  6
CONTINUOUS
 62
    30
 10
-65.0
 20
145.0
 30
0.0
 11
-65.0
 21
247.498195692948
 31
0.0
  0
LINE
  8
SIZE
  6
CONTINUOUS
 62
    30
 10
65.0
 20
145.0
 30
0.0
 11
65.0
 21
247.498195692948
 31
0.0
  0
LINE
  8
SIZE
  6
CONTINUOUS
 62
    30
 10
-77.0
 20
227.498195692948
 30
0.0
 11
-89.0
 21
227.498195692948
 31
0.0
  0
LINE
  8
SIZE
  6
CONTINUOUS
 62
    30
 10
77.0
 20
227.498195692948
 30
0.0
 11
89.0
 21
227.498195692948
 31
0.0
  0
LINE
  8
SIZE
  6
CONTINUOUS
 62
    30
 10
-65.0
 20
227.498195692948
 30
0.0
 11
65.0
 21
227.498195692948
 31
0.0
  0
CIRCLE
  8
SIZE
  6
CONTINUOUS
 62
    30
 10
-65.0
 20
227.498195692948
 30
0.0
 40
6.0
  0
LINE
  8
SIZE
  6
CONTINUOUS
 62
    30
 10
-65.0
 20
227.498195692948
 30
0.0
 11
-77.0
 21
227.498195692948
 31
0.0
  0
CIRCLE
  8
SIZE
  6
CONTINUOUS
 62
    30
 10
65.0
 20
227.498195692948
 30
0.0
 40
6.0
  0
LINE
  8
SIZE
  6
CONTINUOUS
 62
    30
 10
65.0
 20
227.498195692948
 30
0.0
 11
77.0
 21
227.498195692948
 31
0.0
  0
TEXT
  8
SIZE
  6
CONTINUOUS
 62
    30
 10
-68.571428571428569
 20
252.498195692948
 30
0.0
 40
64.0
  1
130
 41
0.9
 72
     1
 11
0.0
 21
252.498195692948
 31
0.0
  0
POINT
  8
DEFPOINTS
  6
CONTINUOUS
 62
    30
 10
-65.0
 20
125.0
 30
0.0
  0
POINT
  8
DEFPOINTS
  6
CONTINUOUS
 62
    30
 10
65.0
 20
125.0
 30
0.0
  0
POINT
  8
DEFPOINTS
  6
CONTINUOUS
 62
    30
 10
65.0
 20
227.498195692948
 30
0.0
  0
LINE
  8
SIZE
  6
CONTINUOUS
 62
    30
 10
117.5
 20
92.5
 30
0.0
 11
117.5
 21
452.13783961873219
 31
0.0
  0
LINE
  8
SIZE
  6
CONTINUOUS
 62
    30
 10
-117.5
 20
92.5
 30
0.0
 11
-117.5
 21
452.13783961873219
 31
0.0
  0
LINE
  8
SIZE
  6
CONTINUOUS
 62
    30
 10
105.5
 20
432.13783961873219
 30
0.0
 11
-105.5
 21
432.13783961873219
 31
0.0
  0
CIRCLE
  8
SIZE
  6
CONTINUOUS
 62
    30
 10
117.5
 20
432.13783961873219
 30
0.0
 40
6.0
  0
LINE
  8
SIZE
  6
CONTINUOUS
 62
    30
 10
117.5
 20
432.13783961873219
 30
0.0
 11
105.5
 21
432.13783961873219
 31
0.0
  0
CIRCLE
  8
SIZE
  6
CONTINUOUS
 62
    30
 10
-117.5
 20
432.13783961873219
 30
0.0
 40
6.0
  0
LINE
  8
SIZE
  6
CONTINUOUS
 62
    30
 10
-117.5
 20
432.13783961873219
 30
0.0
 11
-105.5
 21
432.13783961873219
 31
0.0
  0
TEXT
  8
SIZE
  6
CONTINUOUS
 62
    30
 10
-74.05714285714285
 20
457.13783961873219
 30
0.0
 40
64.0
  1
235
 41
0.9
 72
     1
 11
0.0
 21
457.13783961873219
 31
0.0
  0
POINT
  8
DEFPOINTS
  6
CONTINUOUS
 62
    30
 10
117.5
 20
72.5
 30
0.0
  0
POINT
  8
DEFPOINTS
  6
CONTINUOUS
 62
    30
 10
-117.5
 20
72.5
 30
0.0
  0
POINT
  8
DEFPOINTS
  6
CONTINUOUS
 62
    30
 10
-117.5
 20
432.13783961873219
 30
0.0
  0
LINE
  8
SIZE
  6
CONTINUOUS
 62
    30
 10
-130.5
 20
140.5
 30
0.0
 11
-130.5
 21
560.24162874968374
 31
0.0
  0
LINE
  8
SIZE
  6
CONTINUOUS
 62
    30
 10
130.5
 20
140.5
 30
0.0
 11
130.5
 21
560.24162874968374
 31
0.0
  0
LINE
  8
SIZE
  6
CONTINUOUS
 62
    30
 10
-118.5
 20
540.24162874968374
 30
0.0
 11
118.5
 21
540.24162874968374
 31
0.0
  0
CIRCLE
  8
SIZE
  6
CONTINUOUS
 62
    30
 10
-130.5
 20
540.24162874968374
 30
0.0
 40
6.0
  0
LINE
  8
SIZE
  6
CONTINUOUS
 62
    30
 10
-130.5
 20
540.24162874968374
 30
0.0
 11
-118.5
 21
540.24162874968374
 31
0.0
  0
CIRCLE
  8
SIZE
  6
CONTINUOUS
 62
    30
 10
130.5
 20
540.24162874968374
 30
0.0
 40
6.0
  0
LINE
  8
SIZE
  6
CONTINUOUS
 62
    30
 10
130.5
 20
540.24162874968374
 30
0.0
 11
118.5
 21
540.24162874968374
 31
0.0
  0
TEXT
  8
SIZE
  6
CONTINUOUS
 62
    30
 10
-61.714285714285701
 20
565.24162874968351
 30
0.0
 40
64.0
  1
261
 41
0.9
 72
     1
 11
0.0
 21
565.24162874968351
 31
0.0
  0
POINT
  8
DEFPOINTS
  6
CONTINUOUS
 62
    30
 10
-130.5
 20
120.5
 30
0.0
  0
POINT
  8
DEFPOINTS
  6
CONTINUOUS
 62
    30
 10
130.5
 20
120.5
 30
0.0
  0
POINT
  8
DEFPOINTS
  6
CONTINUOUS
 62
    30
 10
130.5
 20
540.24162874968374
 30
0.0
  0
LINE
  8
SIZE
  6
CONTINUOUS
 62
    30
 10
-102.0
 20
107.0
 30
0.0
 11
-102.0
 21
346.87887431343029
 31
0.0
  0
LINE
  8
SIZE
  6
CONTINUOUS
 62
    30
 10
102.0
 20
107.0
 30
0.0
 11
102.0
 21
346.87887431343029
 31
0.0
  0
LINE
  8
SIZE
  6
CONTINUOUS
 62
    30
 10
-114.0
 20
326.87887431343029
 30
0.0
 11
-126.0
 21
326.87887431343029
 31
0.0
  0
LINE
  8
SIZE
  6
CONTINUOUS
 62
    30
 10
114.0
 20
326.87887431343029
 30
0.0
 11
126.0
 21
326.87887431343029
 31
0.0
  0
LINE
  8
SIZE
  6
CONTINUOUS
 62
    30
 10
-102.0
 20
326.87887431343029
 30
0.0
 11
102.0
 21
326.87887431343029
 31
0.0
  0
CIRCLE
  8
SIZE
  6
CONTINUOUS
 62
    30
 10
-102.0
 20
326.87887431343029
 30
0.0
 40
6.0
  0
LINE
  8
SIZE
  6
CONTINUOUS
 62
    30
 10
-102.0
 20
326.87887431343029
 30
0.0
 11
-114.0
 21
326.87887431343029
 31
0.0
  0
CIRCLE
  8
SIZE
  6
CONTINUOUS
 62
    30
 10
102.0
 20
326.87887431343029
 30
0.0
 40
6.0
  0
LINE
  8
SIZE
  6
CONTINUOUS
 62
    30
 10
102.0
 20
326.87887431343029
 30
0.0
 11
114.0
 21
326.87887431343029
 31
0.0
  0
TEXT
  8
SIZE
  6
CONTINUOUS
 62
    30
 10
-111.90857142857141
 20
351.87887431343029
 30
0.0
 40
64.0
  1
□204
 41
0.9
 72
     1
 11
0.0
 21
351.87887431343029
 31
0.0
  0
POINT
  8
DEFPOINTS
  6
CONTINUOUS
 62
    30
 10
-102.0
 20
87.0
 30
0.0
  0
POINT
  8
DEFPOINTS
  6
CONTINUOUS
 62
    30
 10
102.0
 20
87.0
 30
0.0
  0
POINT
  8
DEFPOINTS
  6
CONTINUOUS
 62
    30
 10
102.0
 20
326.87887431343029
 30
0.0
  0
LINE
  8
SIZE
  6
CONTINUOUS
 62
    30
 10
-120.0
 20
-102.0
 30
0.0
 11
-464.95189724302099
 21
-101.9999999999999
 31
0.0
  0
LINE
  8
SIZE
  6
CONTINUOUS
 62
    30
 10
-67.639814999999999
 20
-212.0
 30
0.0
 11
-464.95189724302099
 21
-211.99999999999989
 31
0.0
  0
LINE
  8
SIZE
  6
CONTINUOUS
 62
    30
 10
-444.95189724302099
 20
-89.999999999999886
 30
0.0
 11
-444.95189724302099
 21
-77.999999999999886
 31
0.0
  0
LINE
  8
SIZE
  6
CONTINUOUS
 62
    30
 10
-444.95189724302099
 20
-223.99999999999989
 30
0.0
 11
-444.95189724302099
 21
-235.99999999999989
 31
0.0
  0
LINE
  8
SIZE
  6
CONTINUOUS
 62
    30
 10
-444.95189724302099
 20
-101.9999999999999
 30
0.0
 11
-444.95189724302099
 21
-211.99999999999989
 31
0.0
  0
CIRCLE
  8
SIZE
  6
CONTINUOUS
 62
    30
 10
-444.95189724302099
 20
-101.9999999999999
 30
0.0
 40
6.0
  0
LINE
  8
SIZE
  6
CONTINUOUS
 62
    30
 10
-444.95189724302099
 20
-101.9999999999999
 30
0.0
 11
-444.95189724302099
 21
-89.999999999999886
 31
0.0
  0
CIRCLE
  8
SIZE
  6
CONTINUOUS
 62
    30
 10
-444.95189724302099
 20
-211.99999999999989
 30
0.0
 40
6.0
  0
LINE
  8
SIZE
  6
CONTINUOUS
 62
    30
 10
-444.95189724302099
 20
-211.99999999999989
 30
0.0
 11
-444.95189724302099
 21
-223.99999999999989
 31
0.0
  0
TEXT
  8
SIZE
  6
CONTINUOUS
 62
    30
 10
-469.95189724302099
 20
-220.08571428571429
 30
0.0
 40
64.0
  1
110
 50
90.0
 41
0.9
 72
     1
 11
-469.95189724302099
 21
-157.0
 31
0.0
  0
POINT
  8
DEFPOINTS
  6
CONTINUOUS
 62
    30
 10
-100.0
 20
-102.0
 30
0.0
  0
POINT
  8
DEFPOINTS
  6
CONTINUOUS
 62
    30
 10
-47.639814999999999
 20
-212.0
 30
0.0
  0
POINT
  8
DEFPOINTS
  6
CONTINUOUS
 62
    30
 10
-444.95189724302099
 20
-211.99999999999989
 30
0.0
  0
LINE
  8
SIZE
  6
CONTINUOUS
 62
    30
 10
-67.639814999999999
 20
-212.0
 30
0.0
 11
-257.53719212694659
 21
-212.0
 31
0.0
  0
LINE
  8
SIZE
  6
CONTINUOUS
 62
    30
 10
-68.647686571124268
 20
-172.26600699999989
 30
0.0
 11
-257.53719212694659
 21
-172.26600699999989
 31
0.0
  0
LINE
  8
SIZE
  6
CONTINUOUS
 62
    30
 10
-237.53719212694659
 20
-224.0
 30
0.0
 11
-237.53719212694659
 21
-236.0
 31
0.0
  0
LINE
  8
SIZE
  6
CONTINUOUS
 62
    30
 10
-237.53719212694659
 20
-160.2660069999998
 30
0.0
 11
-237.53719212694659
 21
38.404160613416373
 31
0.0
  0
LINE
  8
SIZE
  6
CONTINUOUS
 62
    30
 10
-237.53719212694659
 20
-212.0
 30
0.0
 11
-237.53719212694659
 21
-172.26600699999989
 31
0.0
  0
CIRCLE
  8
SIZE
  6
CONTINUOUS
 62
    30
 10
-237.53719212694659
 20
-212.0
 30
0.0
 40
6.0
  0
LINE
  8
SIZE
  6
CONTINUOUS
 62
    30
 10
-237.53719212694659
 20
-212.0
 30
0.0
 11
-237.53719212694659
 21
-224.0
 31
0.0
  0
CIRCLE
  8
SIZE
  6
CONTINUOUS
 62
    30
 10
-237.53719212694659
 20
-172.26600699999989
 30
0.0
 40
6.0
  0
LINE
  8
SIZE
  6
CONTINUOUS
 62
    30
 10
-237.53719212694659
 20
-172.26600699999989
 30
0.0
 11
-237.53719212694659
 21
-160.2660069999998
 31
0.0
  0
TEXT
  8
SIZE
  6
CONTINUOUS
 62
    30
 10
-262.53719212694659
 20
-79.852982243726544
 30
0.0
 40
64.0
  1
40
 50
90.0
 41
0.9
 72
     1
 11
-262.53719212694659
 21
-33.224410815155117
 31
0.0
  0
POINT
  8
DEFPOINTS
  6
CONTINUOUS
 62
    30
 10
-47.639814999999999
 20
-212.0
 30
0.0
  0
POINT
  8
DEFPOINTS
  6
CONTINUOUS
 62
    30
 10
-48.647686571124268
 20
-172.26600700000009
 30
0.0
  0
POINT
  8
DEFPOINTS
  6
CONTINUOUS
 62
    30
 10
-237.53719212694659
 20
-172.26600699999989
 30
0.0
  0
LINE
  8
SIZE
  6
CONTINUOUS
 62
    30
 10
-67.639814999999999
 20
-212.0
 30
0.0
 11
-359.77003903002287
 21
-211.99999999999989
 31
0.0
  0
LINE
  8
SIZE
  6
CONTINUOUS
 62
    30
 10
-72.18983900000012
 20
-143.0700240000001
 30
0.0
 11
-359.77003903002287
 21
-143.07002399999999
 31
0.0
  0
LINE
  8
SIZE
  6
CONTINUOUS
 62
    30
 10
-339.77003903002287
 20
-223.99999999999989
 30
0.0
 11
-339.77003903002287
 21
-235.99999999999989
 31
0.0
  0
LINE
  8
SIZE
  6
CONTINUOUS
 62
    30
 10
-339.77003903002287
 20
-131.07002399999999
 30
0.0
 11
-339.77003903002287
 21
34.47324347056599
 31
0.0
  0
LINE
  8
SIZE
  6
CONTINUOUS
 62
    30
 10
-339.77003903002287
 20
-211.99999999999989
 30
0.0
 11
-339.77003903002287
 21
-143.07002399999999
 31
0.0
  0
CIRCLE
  8
SIZE
  6
CONTINUOUS
 62
    30
 10
-339.77003903002287
 20
-211.99999999999989
 30
0.0
 40
6.0
  0
LINE
  8
SIZE
  6
CONTINUOUS
 62
    30
 10
-339.77003903002287
 20
-211.99999999999989
 30
0.0
 11
-339.77003903002287
 21
-223.99999999999989
 31
0.0
  0
CIRCLE
  8
SIZE
  6
CONTINUOUS
 62
    30
 10
-339.77003903002287
 20
-143.07002399999999
 30
0.0
 40
6.0
  0
LINE
  8
SIZE
  6
CONTINUOUS
 62
    30
 10
-339.77003903002287
 20
-143.07002399999999
 30
0.0
 11
-339.77003903002287
 21
-131.07002399999999
 31
0.0
  0
TEXT
  8
SIZE
  6
CONTINUOUS
 62
    30
 10
-364.77003903002287
 20
-83.783899386576934
 30
0.0
 40
64.0
  1
70
 50
90.0
 41
0.9
 72
     1
 11
-364.77003903002287
 21
-37.1553279580055
 31
0.0
  0
POINT
  8
DEFPOINTS
  6
CONTINUOUS
 62
    30
 10
-47.639814999999999
 20
-212.0
 30
0.0
  0
POINT
  8
DEFPOINTS
  6
CONTINUOUS
 62
    30
 10
-52.18983900000012
 20
-143.0700240000001
 30
0.0
  0
POINT
  8
DEFPOINTS
  6
CONTINUOUS
 62
    30
 10
-339.77003903002287
 20
-143.07002399999999
 30
0.0
  0
LINE
  8
NOTE
  6
CENTER
 62
     4
 10
98.0
 20
-59.0
 30
0.0
 11
67.0
 21
-59.0
 31
0.0
  0
LINE
  8
NOTE
  6
CENTER
 62
     4
 10
82.5
 20
-43.5
 30
0.0
 11
82.5
 21
-74.5
 31
0.0
  0
LINE
  8
DETAIL
  6
CONTINUOUS
 62
     5
 10
52.212834999999806
 20
-143.0
 30
0.0
 11
143.0
 21
-143.0
 31
0.0
  0
LINE
  8
OUTLINE
  6
CONTINUOUS
 62
     3
 10
52.212834999999806
 20
-143.0
 30
0.0
 11
143.0
 21
-143.0
 31
0.0
  0
LINE
  8
NOTE
  6
CENTER
 62
     4
 10
72.5
 20
117.5
 30
0.0
 11
57.5
 21
117.5
 31
0.0
  0
LINE
  8
NOTE
  6
CENTER
 62
     4
 10
-72.5
 20
117.5
 30
0.0
 11
-57.5
 21
117.5
 31
0.0
  0
LINE
  8
NOTE
  6
CENTER
 62
     4
 10
-72.5
 20
-117.5
 30
0.0
 11
-57.5
 21
-117.5
 31
0.0
  0
LINE
  8
NOTE
  6
CENTER
 62
     4
 10
72.5
 20
-117.5
 30
0.0
 11
57.5
 21
-117.5
 31
0.0
  0
LINE
  8
NOTE
  6
CENTER
 62
     4
 10
65.0
 20
125.0
 30
0.0
 11
65.0
 21
110.0
 31
0.0
  0
LINE
  8
NOTE
  6
CENTER
 62
     4
 10
-65.0
 20
125.0
 30
0.0
 11
-65.0
 21
110.0
 31
0.0
  0
LINE
  8
NOTE
  6
CENTER
 62
     4
 10
-65.0
 20
-125.0
 30
0.0
 11
-65.0
 21
-110.0
 31
0.0
  0
LINE
  8
NOTE
  6
CENTER
 62
     4
 10
65.0
 20
-125.0
 30
0.0
 11
65.0
 21
-110.0
 31
0.0
  0
LINE
  8
NOTE
  6
CENTER
 62
     4
 10
125.0
 20
65.0
 30
0.0
 11
110.0
 21
65.0
 31
0.0
  0
LINE
  8
NOTE
  6
CENTER
 62
     4
 10
-125.0
 20
65.0
 30
0.0
 11
-110.0
 21
65.0
 31
0.0
  0
LINE
  8
NOTE
  6
CENTER
 62
     4
 10
-125.0
 20
-65.0
 30
0.0
 11
-110.0
 21
-65.0
 31
0.0
  0
LINE
  8
NOTE
  6
CENTER
 62
     4
 10
125.0
 20
-65.0
 30
0.0
 11
110.0
 21
-65.0
 31
0.0
  0
LINE
  8
NOTE
  6
CENTER
 62
     4
 10
117.5
 20
72.5
 30
0.0
 11
117.5
 21
57.5
 31
0.0
  0
LINE
  8
NOTE
  6
CENTER
 62
     4
 10
-117.5
 20
72.5
 30
0.0
 11
-117.5
 21
57.5
 31
0.0
  0
LINE
  8
NOTE
  6
CENTER
 62
     4
 10
-117.5
 20
-72.5
 30
0.0
 11
-117.5
 21
-57.5
 31
0.0
  0
LINE
  8
NOTE
  6
CENTER
 62
     4
 10
117.5
 20
-72.5
 30
0.0
 11
117.5
 21
-57.5
 31
0.0
  0
LINE
  8
DETAIL
  6
CONTINUOUS
 62
     5
 10
65.677596999999878
 20
-102.0
 30
0.0
 11
100.0
 21
-102.0
 31
0.0
  0
ARC
  8
DETAIL
  6
CONTINUOUS
 62
     5
 10
-100.0
 20
-100.0
 30
0.0
 40
2.0
 50
180.0
 51
270.0
  0
ARC
  8
DETAIL
  6
CONTINUOUS
 62
     5
 10
100.0
 20
-100.0
 30
0.0
 40
2.0
 50
270.0
 51
0.0
  0
ARC
  8
DETAIL
  6
CONTINUOUS
 62
     5
 10
97.0
 20
-118.676638
 30
0.0
 40
5.0
 50
270.0
 51
0.0
  0
ARC
  8
DETAIL
  6
CONTINUOUS
 62
     5
 10
-97.0
 20
-118.676638
 30
0.0
 40
5.0
 50
180.0
 51
270.0
  0
ARC
  8
DETAIL
  6
CONTINUOUS
 62
     5
 10
-87.0
 20
87.0
 30
0.0
 40
15.0
 50
90.0
 51
180.0
  0
ARC
  8
DETAIL
  6
CONTINUOUS
 62
     5
 10
87.0
 20
87.0
 30
0.0
 40
15.0
 50
0.0
 51
90.0
  0
LINE
  8
DETAIL
  6
CONTINUOUS
 62
     5
 10
102.0
 20
87.0
 30
0.0
 11
102.0
 21
-118.676638
 31
0.0
  0
LINE
  8
DETAIL
  6
CONTINUOUS
 62
     5
 10
-100.0
 20
-102.0
 30
0.0
 11
-65.677596999999878
 21
-102.0
 31
0.0
  0
LINE
  8
DETAIL
  6
CONTINUOUS
 62
     5
 10
-102.0
 20
87.0
 30
0.0
 11
-102.0
 21
-118.676638
 31
0.0
  0
LINE
  8
DETAIL
  6
CONTINUOUS
 62
     5
 10
-87.0
 20
102.0
 30
0.0
 11
87.0
 21
102.0
 31
0.0
  0
LINE
  8
DETAIL
  6
CONTINUOUS
 62
     5
 10
-143.0
 20
-143.0
 30
0.0
 11
-52.212836000000152
 21
-143.0
 31
0.0
  0
LINE
  8
OUTLINE
  6
CONTINUOUS
 62
     3
 10
-143.0
 20
-143.0
 30
0.0
 11
-52.212836000000152
 21
-143.0
 31
0.0
  0
LINE
  8
DETAIL
  6
CONTINUOUS
 62
     5
 10
-143.0
 20
143.0
 30
0.0
 11
143.0
 21
143.0
 31
0.0
  0
LINE
  8
OUTLINE
  6
CONTINUOUS
 62
     3
 10
-143.0
 20
142.99999999999989
 30
0.0
 11
143.0
 21
142.99999999999989
 31
0.0
  0
LINE
  8
DETAIL
  6
CONTINUOUS
 62
     5
 10
-143.0
 20
143.0
 30
0.0
 11
-143.0
 21
-143.0
 31
0.0
  0
LINE
  8
OUTLINE
  6
CONTINUOUS
 62
     3
 10
-143.0
 20
142.99999999999989
 30
0.0
 11
-143.0
 21
-143.0
 31
0.0
  0
LINE
  8
DETAIL
  6
CONTINUOUS
 62
     5
 10
143.0
 20
143.0
 30
0.0
 11
143.0
 21
-143.0
 31
0.0
  0
LINE
  8
OUTLINE
  6
CONTINUOUS
 62
     3
 10
143.0
 20
142.99999999999989
 30
0.0
 11
143.0
 21
-143.0
 31
0.0
  0
CIRCLE
  8
DETAIL
  6
CONTINUOUS
 62
     5
 10
82.5
 20
-59.0
 30
0.0
 40
10.5
  0
LINE
  8
DETAIL
  6
CONTINUOUS
 62
     5
 10
102.0
 20
-91.183654000000047
 30
0.0
 11
100.190568
 21
-89.389879000000064
 31
0.0
  0
LINE
  8
DETAIL
  6
CONTINUOUS
 62
     5
 10
78.096697999999833
 20
-70.262500000000045
 30
0.0
 11
91.650969999999688
 21
-84.339282000000026
 31
0.0
  0
LINE
  8
DETAIL
  6
CONTINUOUS
 62
     5
 10
-98.169937000000118
 20
-100.95245199999999
 30
0.0
 11
98.193693000000167
 21
-100.952309
 31
0.0
  0
LINE
  8
DETAIL
  6
CONTINUOUS
 62
     5
 10
58.558796999999693
 20
-123.676638
 30
0.0
 11
97.0
 21
-123.676638
 31
0.0
  0
LINE
  8
DETAIL
  6
CONTINUOUS
 62
     5
 10
100.1889860000001
 20
-98.933736000000067
 30
0.0
 11
100.19140499999961
 21
-84.339282000000026
 31
0.0
  0
ARC
  8
DETAIL
  6
CONTINUOUS
 62
     5
 10
98.169938000000002
 20
-98.933402000000115
 30
0.0
 40
2.0190480000000002
 50
269.99995800000619
 51
359.99050199999328
  0
LINE
  8
DETAIL
  6
CONTINUOUS
 62
     5
 10
91.650969999999688
 20
-84.339282000000026
 30
0.0
 11
100.19140499999961
 21
-84.339282000000026
 31
0.0
  0
LINE
  8
DETAIL
  6
CONTINUOUS
 62
     5
 10
-58.558798000000017
 20
-123.676638
 30
0.0
 11
-97.0
 21
-123.676638
 31
0.0
  0
LINE
  8
DETAIL
  6
CONTINUOUS
 62
     5
 10
-91.650971000000027
 20
-84.339282000000026
 30
0.0
 11
-100.1914059999999
 21
-84.339282000000026
 31
0.0
  0
LINE
  8
DETAIL
  6
CONTINUOUS
 62
     5
 10
-100.18898700000049
 20
-98.933736000000067
 30
0.0
 11
-100.1914059999999
 21
-84.339282000000026
 31
0.0
  0
ARC
  8
DETAIL
  6
CONTINUOUS
 62
     5
 10
-98.16993900000034
 20
-98.933402000000115
 30
0.0
 40
2.0190480000000002
 50
180.0094979999937
 51
270.00004199999381
  0
LINE
  8
DETAIL
  6
CONTINUOUS
 62
     5
 10
-102.0
 20
-91.183654000000047
 30
0.0
 11
-100.19056900000029
 21
-89.389879000000064
 31
0.0
  0
LINE
  8
DETAIL
  6
CONTINUOUS
 62
     5
 10
-48.647687000000133
 20
-172.26600700000009
 30
0.0
 11
48.647685999999787
 21
-172.26600700000009
 31
0.0
  0
ARC
  8
DETAIL
  6
CONTINUOUS
 62
     5
 10
-50.436969000000317
 20
-173.088877
 30
0.0
 40
1.969428
 50
0.5000000000044884
 51
44.999995000008653
  0
ARC
  8
OUTLINE
  6
CONTINUOUS
 62
     3
 10
-50.436969000000317
 20
-173.08887799999999
 30
0.0
 40
1.969428
 50
0.5000000000044884
 51
44.999995000008653
  0
ARC
  8
DETAIL
  6
CONTINUOUS
 62
     5
 10
-49.781928000000327
 20
-168.17353499999999
 30
0.0
 40
1.969428
 50
180.99999999998869
 51
224.99999500000871
  0
ARC
  8
OUTLINE
  6
CONTINUOUS
 62
     3
 10
-49.781928000000327
 20
-168.1735350000001
 30
0.0
 40
1.969428
 50
180.99999999998869
 51
224.99999500000871
  0
ARC
  8
DETAIL
  6
CONTINUOUS
 62
     5
 10
-47.639814999999999
 20
-211.507643
 30
0.0
 40
0.492357
 50
180.50000000000449
 51
270.0
  0
ARC
  8
OUTLINE
  6
CONTINUOUS
 62
     3
 10
-47.639814999999999
 20
-211.507643
 30
0.0
 40
0.492357
 50
180.50000000000449
 51
270.0
  0
LINE
  8
DETAIL
  6
CONTINUOUS
 62
     5
 10
-49.044374000000062
 20
-171.69628200000011
 30
0.0
 11
-51.174524000000019
 21
-169.56613100000001
 31
0.0
  0
LINE
  8
OUTLINE
  6
CONTINUOUS
 62
     3
 10
-49.044374000000062
 20
-171.69628200000011
 30
0.0
 11
-51.174524000000019
 21
-169.56613100000001
 31
0.0
  0
LINE
  8
DETAIL
  6
CONTINUOUS
 62
     5
 10
52.189838999999672
 20
-143.0700240000001
 30
0.0
 11
66.021659999999883
 21
-100.9523330000001
 31
0.0
  0
LINE
  8
OUTLINE
  6
CONTINUOUS
 62
     3
 10
52.189838999999672
 20
-143.0700240000001
 30
0.0
 11
52.212834999999806
 21
-143.0
 31
0.0
  0
LINE
  8
DETAIL
  6
CONTINUOUS
 62
     5
 10
-52.18983900000012
 20
-143.0700240000001
 30
0.0
 11
52.143713999999818
 21
-143.0699000000001
 31
0.0
  0
LINE
  8
DETAIL
  6
CONTINUOUS
 62
     5
 10
52.143713999999818
 20
-143.0699000000001
 30
0.0
 11
52.189838999999672
 21
-143.0700240000001
 31
0.0
  0
LINE
  8
DETAIL
  6
CONTINUOUS
 62
     5
 10
49.044372999999723
 20
-171.69628200000011
 30
0.0
 11
51.174522999999681
 21
-169.56613100000001
 31
0.0
  0
LINE
  8
OUTLINE
  6
CONTINUOUS
 62
     3
 10
49.044372999999723
 20
-171.69628200000011
 30
0.0
 11
51.174522999999681
 21
-169.56613100000001
 31
0.0
  0
LINE
  8
DETAIL
  6
CONTINUOUS
 62
     5
 10
-52.18983900000012
 20
-143.0700240000001
 30
0.0
 11
-66.021628999999848
 21
-100.9524280000001
 31
0.0
  0
LINE
  8
OUTLINE
  6
CONTINUOUS
 62
     3
 10
-52.18983900000012
 20
-143.0700240000001
 30
0.0
 11
-52.212836000000152
 21
-143.0
 31
0.0
  0
LINE
  8
DETAIL
  6
CONTINUOUS
 62
     5
 10
-52.18983900000012
 20
-143.0700240000001
 30
0.0
 11
-51.751056000000062
 21
-168.20790600000009
 31
0.0
  0
LINE
  8
OUTLINE
  6
CONTINUOUS
 62
     3
 10
-52.18983900000012
 20
-143.0700240000001
 30
0.0
 11
-51.751056000000062
 21
-168.20790700000001
 31
0.0
  0
LINE
  8
DETAIL
  6
CONTINUOUS
 62
     5
 10
-48.467617000000253
 20
-173.0716910000001
 30
0.0
 11
-48.1321539999999
 21
-211.5119390000001
 31
0.0
  0
LINE
  8
OUTLINE
  6
CONTINUOUS
 62
     3
 10
-48.467617000000253
 20
-173.0716910000001
 30
0.0
 11
-48.1321539999999
 21
-211.5119400000001
 31
0.0
  0
ARC
  8
DETAIL
  6
CONTINUOUS
 62
     5
 10
50.436968999999863
 20
-173.088877
 30
0.0
 40
1.969428
 50
135.00000499999129
 51
179.49999999999551
  0
ARC
  8
OUTLINE
  6
CONTINUOUS
 62
     3
 10
50.436968999999863
 20
-173.08887799999999
 30
0.0
 40
1.969428
 50
135.00000499999129
 51
179.49999999999551
  0
ARC
  8
DETAIL
  6
CONTINUOUS
 62
     5
 10
49.781927000000003
 20
-168.17353499999999
 30
0.0
 40
1.969428
 50
315.00000499999129
 51
358.99999999999818
  0
ARC
  8
OUTLINE
  6
CONTINUOUS
 62
     3
 10
49.781927000000003
 20
-168.1735350000001
 30
0.0
 40
1.969428
 50
315.00000499999129
 51
358.99999999999818
  0
ARC
  8
DETAIL
  6
CONTINUOUS
 62
     5
 10
47.639814999999537
 20
-211.507643
 30
0.0
 40
0.492357
 50
270.0
 51
359.49999999999551
  0
ARC
  8
OUTLINE
  6
CONTINUOUS
 62
     3
 10
47.639814999999537
 20
-211.507643
 30
0.0
 40
0.492357
 50
270.0
 51
359.49999999999551
  0
LINE
  8
DETAIL
  6
CONTINUOUS
 62
     5
 10
48.467615999999907
 20
-173.0716910000001
 30
0.0
 11
48.132152999999562
 21
-211.5119390000001
 31
0.0
  0
LINE
  8
OUTLINE
  6
CONTINUOUS
 62
     3
 10
48.467615999999907
 20
-173.0716910000001
 30
0.0
 11
48.132152999999562
 21
-211.5119400000001
 31
0.0
  0
LINE
  8
DETAIL
  6
CONTINUOUS
 62
     5
 10
52.189838999999672
 20
-143.0700240000001
 30
0.0
 11
51.751054999999717
 21
-168.20790600000009
 31
0.0
  0
LINE
  8
OUTLINE
  6
CONTINUOUS
 62
     3
 10
52.189838999999672
 20
-143.0700240000001
 30
0.0
 11
51.751054999999717
 21
-168.20790700000001
 31
0.0
  0
LINE
  8
DETAIL
  6
CONTINUOUS
 62
     5
 10
47.639814999999537
 20
-212.0
 30
0.0
 11
-47.639814999999999
 21
-212.0
 31
0.0
  0
LINE
  8
OUTLINE
  6
CONTINUOUS
 62
     3
 10
47.639814999999537
 20
-212.0
 30
0.0
 11
-47.639814999999999
 21
-212.0
 31
0.0
  0
LINE
  8
DETAIL
  6
CONTINUOUS
 62
     5
 10
76.641644999999698
 20
-69.643617000000063
 30
0.0
 11
-76.641646000000037
 21
-69.643617000000063
 31
0.0
  0
ARC
  8
DETAIL
  6
CONTINUOUS
 62
     5
 10
-76.641646000000037
 20
-71.663543000000118
 30
0.0
 40
2.0199259999999999
 50
90.0
 51
136.08334900001779
  0
LINE
  8
DETAIL
  6
CONTINUOUS
 62
     5
 10
-78.096699000000172
 20
-70.262500000000045
 30
0.0
 11
-91.565416000000369
 21
-84.250429000000054
 31
0.0
  0
ARC
  8
DETAIL
  6
CONTINUOUS
 62
     5
 10
76.641644999999698
 20
-71.663543000000118
 30
0.0
 40
2.0199259999999999
 50
43.91665099998221
 51
90.0
  0
CIRCLE
  8
DETAIL
  6
CONTINUOUS
 62
     5
 10
13.873117000000089
 20
3.539366999999856
 30
0.0
 40
31.763337
  0
CIRCLE
  8
DETAIL
  6
CONTINUOUS
 62
     5
 10
65.0
 20
117.5
 30
0.0
 40
2.5
  0
CIRCLE
  8
DETAIL
  6
CONTINUOUS
 62
     5
 10
-65.0
 20
117.5
 30
0.0
 40
2.5
  0
CIRCLE
  8
DETAIL
  6
CONTINUOUS
 62
     5
 10
-65.0
 20
-117.5
 30
0.0
 40
2.5
  0
CIRCLE
  8
DETAIL
  6
CONTINUOUS
 62
     5
 10
65.0
 20
-117.5
 30
0.0
 40
2.5
  0
LINE
  8
DETAIL
  6
CONTINUOUS
 62
     5
 10
130.5
 20
0.0
 30
0.0
 11
130.5
 21
120.5
 31
0.0
  0
LINE
  8
DETAIL
  6
CONTINUOUS
 62
     5
 10
-130.5
 20
0.0
 30
0.0
 11
-130.5
 21
120.5
 31
0.0
  0
LINE
  8
DETAIL
  6
CONTINUOUS
 62
     5
 10
-130.5
 20
0.0
 30
0.0
 11
-130.5
 21
-120.5
 31
0.0
  0
LINE
  8
DETAIL
  6
CONTINUOUS
 62
     5
 10
130.5
 20
0.0
 30
0.0
 11
130.5
 21
-120.5
 31
0.0
  0
LINE
  8
DETAIL
  6
CONTINUOUS
 62
     5
 10
120.5
 20
130.5
 30
0.0
 11
0.0
 21
130.5
 31
0.0
  0
LINE
  8
DETAIL
  6
CONTINUOUS
 62
     5
 10
-120.5
 20
130.5
 30
0.0
 11
0.0
 21
130.5
 31
0.0
  0
LINE
  8
DETAIL
  6
CONTINUOUS
 62
     5
 10
-120.5
 20
-130.5
 30
0.0
 11
-56.31794600000012
 21
-130.5
 31
0.0
  0
LINE
  8
DETAIL
  6
CONTINUOUS
 62
     5
 10
120.5
 20
-130.5
 30
0.0
 11
56.317944999999781
 21
-130.5
 31
0.0
  0
CIRCLE
  8
DETAIL
  6
CONTINUOUS
 62
     5
 10
117.5
 20
65.0
 30
0.0
 40
2.5
  0
CIRCLE
  8
DETAIL
  6
CONTINUOUS
 62
     5
 10
-117.5
 20
65.0
 30
0.0
 40
2.5
  0
CIRCLE
  8
DETAIL
  6
CONTINUOUS
 62
     5
 10
-117.5
 20
-65.0
 30
0.0
 40
2.5
  0
CIRCLE
  8
DETAIL
  6
CONTINUOUS
 62
     5
 10
117.5
 20
-65.0
 30
0.0
 40
2.5
  0
ARC
  8
DETAIL
  6
CONTINUOUS
 62
     5
 10
120.5
 20
120.5
 30
0.0
 40
10.0
 50
0.0
 51
90.0
  0
ARC
  8
DETAIL
  6
CONTINUOUS
 62
     5
 10
-120.5
 20
120.5
 30
0.0
 40
10.0
 50
90.0
 51
180.0
  0
ARC
  8
DETAIL
  6
CONTINUOUS
 62
     5
 10
-120.5
 20
-120.5
 30
0.0
 40
10.0
 50
180.0
 51
270.0
  0
ARC
  8
DETAIL
  6
CONTINUOUS
 62
     5
 10
120.5
 20
-120.5
 30
0.0
 40
10.0
 50
270.0
 51
0.0
  0
CIRCLE
  8
FIX
  6
CONTINUOUS
 62
    11
 10
-65.0
 20
117.5
 30
0.0
 40
10.0
  0
CIRCLE
  8
FIX
  6
CONTINUOUS
 62
    11
 10
-117.5
 20
65.0
 30
0.0
 40
10.0
  0
CIRCLE
  8
FIX
  6
CONTINUOUS
 62
    11
 10
-117.5
 20
-65.0
 30
0.0
 40
10.0
  0
CIRCLE
  8
FIX
  6
CONTINUOUS
 62
    11
 10
-65.0
 20
-117.5
 30
0.0
 40
10.0
  0
TEXT
  8
ETC
  6
CONTINUOUS
 62
    61
 10
721.3147331247842
 20
560.87131351080461
 30
0.0
 40
64.0
  1
VD-13ZSC13_1
 41
0.9
  0
TEXT
  8
ETC
  6
CONTINUOUS
 62
    61
 10
717.12873912478381
 20
442.91600349597343
 30
0.0
 40
64.0
  1
換気扇
 41
0.9
  0
TEXT
  8
ETC
  6
CONTINUOUS
 62
    61
 10
767.83013737333977
 20
334.76723060974808
 30
0.0
 40
40.0
  1
VD-13ZSC13
 41
0.9
  0
TEXT
  8
ETC
  6
CONTINUOUS
 62
    61
 10
767.83013737333977
 20
268.76723060974808
 30
0.0
 40
40.0
  1
VD-13ZSC13-BL
 41
0.9
  0
ENDSEC
  0
EOF
