  0
SECTION
  2
HEADER
  9
$ACADVER
  1
AC1009
  9
$DWGCODEPAGE
  3
dos932
  9
$INSBASE
 10
0.0
 20
0.0
 30
0.0
  9
$EXTMIN
 10
-785.82456858808291
 20
-421.69188279855553
 30
-0.0015258207003583
  9
$EXTMAX
 10
1009.698497876172
 20
803.00904147211622
 30
0.0000000349246037
  9
$LIMMIN
 10
-2970.0
 20
-2100.0
  9
$LIMMAX
 10
2970.0
 20
2100.0
  9
$ORTHOMODE
 70
     1
  9
$REGENMODE
 70
     1
  9
$FILLMODE
 70
     1
  9
$QTEXTMODE
 70
     0
  9
$MIRRTEXT
 70
     0
  9
$LTSCALE
 40
20.0
  9
$ATTMODE
 70
     1
  9
$TEXTSIZE
 40
64.0
  9
$TRACEWID
 40
0.05
  9
$TEXTSTYLE
  7
STANDARD
  9
$CLAYER
  8
SIZE
  9
$CELTYPE
  6
CONTINUOUS
  9
$CECOLOR
 62
     7
  9
$DIMSCALE
 40
1.0
  9
$DIMASZ
 40
12.0
  9
$DIMEXO
 40
20.0
  9
$DIMDLI
 40
200.0
  9
$DIMRND
 40
0.0
  9
$DIMDLE
 40
0.0
  9
$DIMEXE
 40
20.0
  9
$DIMTP
 40
0.0
  9
$DIMTM
 40
0.0
  9
$DIMTXT
 40
64.0
  9
$DIMCEN
 40
0.09
  9
$DIMTSZ
 40
0.0
  9
$DIMTOL
 70
     0
  9
$DIMLIM
 70
     0
  9
$DIMTIH
 70
     0
  9
$DIMTOH
 70
     0
  9
$DIMSE1
 70
     0
  9
$DIMSE2
 70
     0
  9
$DIMTAD
 70
     1
  9
$DIMZIN
 70
     8
  9
$DIMBLK
  1

  9
$DIMASO
 70
     1
  9
$DIMSHO
 70
     0
  9
$DIMPOST
  1

  9
$DIMAPOST
  1

  9
$DIMALT
 70
     0
  9
$DIMALTD
 70
     2
  9
$DIMALTF
 40
25.399999999999999
  9
$DIMLFAC
 40
1.0
  9
$DIMTOFL
 70
     1
  9
$DIMTVP
 40
0.0
  9
$DIMTIX
 70
     1
  9
$DIMSOXD
 70
     0
  9
$DIMSAH
 70
     0
  9
$DIMBLK1
  1

  9
$DIMBLK2
  1

  9
$DIMSTYLE
  2
STANDARD
  9
$DIMCLRD
 70
     7
  9
$DIMCLRE
 70
     7
  9
$DIMCLRT
 70
     7
  9
$DIMTFAC
 40
1.0
  9
$DIMGAP
 40
25.0
  9
$LUNITS
 70
     2
  9
$LUPREC
 70
     4
  9
$SKETCHINC
 40
0.1
  9
$FILLETRAD
 40
3.0
  9
$AUNITS
 70
     1
  9
$AUPREC
 70
     3
  9
$MENU
  1
ACAD
  9
$ELEVATION
 40
0.0
  9
$PELEVATION
 40
0.0
  9
$THICKNESS
 40
0.0
  9
$LIMCHECK
 70
     0
  9
$CHAMFERA
 40
0.0
  9
$CHAMFERB
 40
0.0
  9
$SKPOLY
 70
     0
  9
$TDCREATE
 40
2453019.62301037
  9
$TDUPDATE
 40
2459025.497436192
  9
$TDINDWG
 40
1.7135229282
  9
$TDUSRTIMER
 40
1.7135229282
  9
$USRTIMER
 70
     1
  9
$ANGBASE
 50
0.0
  9
$ANGDIR
 70
     0
  9
$PDMODE
 70
     3
  9
$PDSIZE
 40
-2.0
  9
$PLINEWID
 40
0.0
  9
$SPLFRAME
 70
     0
  9
$SPLINETYPE
 70
     6
  9
$SPLINESEGS
 70
     8
  9
$SURFTAB1
 70
     6
  9
$SURFTAB2
 70
     6
  9
$SURFTYPE
 70
     6
  9
$SURFU
 70
     6
  9
$SURFV
 70
     6
  9
$UCSNAME
  2

  9
$UCSORG
 10
0.0
 20
0.0
 30
0.0
  9
$UCSXDIR
 10
1.0
 20
0.0
 30
0.0
  9
$UCSYDIR
 10
0.0
 20
1.0
 30
0.0
  9
$PUCSNAME
  2

  9
$PUCSORG
 10
0.0
 20
0.0
 30
0.0
  9
$PUCSXDIR
 10
1.0
 20
0.0
 30
0.0
  9
$PUCSYDIR
 10
0.0
 20
1.0
 30
0.0
  9
$USERI1
 70
     0
  9
$USERI2
 70
     0
  9
$USERI3
 70
     0
  9
$USERI4
 70
     0
  9
$USERI5
 70
     0
  9
$USERR1
 40
20.0
  9
$USERR2
 40
0.0
  9
$USERR3
 40
0.0
  9
$USERR4
 40
0.0
  9
$USERR5
 40
0.0
  9
$WORLDVIEW
 70
     1
  9
$SHADEDGE
 70
     3
  9
$SHADEDIF
 70
    70
  9
$TILEMODE
 70
     1
  9
$MAXACTVP
 70
    48
  9
$PINSBASE
 10
0.0
 20
0.0
 30
0.0
  9
$PLIMCHECK
 70
     0
  9
$PEXTMIN
 10
-100000000000000000000.0
 20
-100000000000000000000.0
 30
-100000000000000000000.0
  9
$PEXTMAX
 10
100000000000000000000.0
 20
100000000000000000000.0
 30
100000000000000000000.0
  9
$PLIMMIN
 10
0.0
 20
0.0
  9
$PLIMMAX
 10
12.0
 20
9.0
  9
$UNITMODE
 70
     0
  9
$VISRETAIN
 70
     0
  9
$PLINEGEN
 70
     0
  9
$PSLTSCALE
 70
     0
  9
$TREEDEPTH
 70
  3020
  9
$ATTDIA
 70
     0
  9
$ATTREQ
 70
     1
  9
$BLIPMODE
 70
     1
  9
$COORDS
 70
     1
  9
$DRAGMODE
 70
     2
  9
$OSMODE
 70
     0
  9
$HANDLING
 70
     0
  9
$HANDSEED
  5
F6F2
  0
ENDSEC
  0
SECTION
  2
TABLES
  0
TABLE
  2
LTYPE
 70
     3
  0
LTYPE
  2
CONTINUOUS
 70
     0
  3
実線
 72
    65
 73
     0
 40
0.0
  0
LTYPE
  2
DASHDOT
 70
     0
  3
____ _ ____ _ ____ _ ____ _ ____ _ ____ _ ____
 72
    65
 73
     4
 40
5.5
 49
4.0
 49
-0.6
 49
0.3
 49
-0.6
  0
LTYPE
  2
CENTER
 70
     0
  3
Center ____ _ ____ _ ____ _ ____ _ ____ _ ____
 72
    65
 73
     4
 40
1.0
 49
0.5
 49
-0.25
 49
0.0
 49
-0.25
  0
ENDTAB
  0
TABLE
  2
LAYER
 70
    12
  0
LAYER
  2
0
 70
     0
 62
     7
  6
CONTINUOUS
  0
LAYER
  2
BASIS
 70
     0
 62
     6
  6
DASHDOT
  0
LAYER
  2
OUTLINE
 70
     0
 62
     3
  6
CONTINUOUS
  0
LAYER
  2
DETAIL
 70
     0
 62
     5
  6
CONTINUOUS
  0
LAYER
  2
SIZE
 70
     0
 62
    30
  6
CONTINUOUS
  0
LAYER
  2
ARRANGE
 70
     0
 62
     1
  6
CONTINUOUS
  0
LAYER
  2
DEFPOINTS
 70
     0
 62
     7
  6
CONTINUOUS
  0
LAYER
  2
ETC
 70
     0
 62
    61
  6
CONTINUOUS
  0
LAYER
  2
FIX
 70
     0
 62
    11
  6
CONTINUOUS
  0
LAYER
  2
NOTE
 70
     0
 62
     4
  6
CONTINUOUS
  0
LAYER
  2
SERVICESPACE
 70
    64
 62
     2
  6
DASHDOT
  0
LAYER
  2
SYMBOLLINE
 70
    64
 62
    15
  6
CONTINUOUS
  0
ENDTAB
  0
TABLE
  2
STYLE
 70
     1
  0
STYLE
  2
STANDARD
 70
     0
 40
64.0
 41
0.9
 50
0.0
 71
     0
 42
64.0
  3
SIMPLEX.shx
  4
BIGFONT.shx
  0
ENDTAB
  0
TABLE
  2
APPID
 70
    19
  0
APPID
  2
ACAD
 70
     0
  0
APPID
  2
AUTOCAD_POSTSCRIPT_FIGURE
 70
     0
  0
APPID
  2
ACAD_EXEMPT_FROM_CAD_STANDARDS
 70
     0
  0
APPID
  2
ACAD_PSEXT
 70
     0
  0
APPID
  2
ACAUTHENVIRON
 70
     0
  0
APPID
  2
GENIUS_GENOENT_13
 70
     0
  0
APPID
  2
GENIUS_GENCFG_13
 70
     0
  0
APPID
  2
GENIUS_GENCFG0_13
 70
     0
  0
APPID
  2
GENIUS_GENCFG1_13
 70
     0
  0
APPID
  2
GENIUS_GENCFG2_13
 70
     0
  0
APPID
  2
GENIUS_GENCFG3_13
 70
     0
  0
APPID
  2
GENIUS_GENCFG4_13
 70
     0
  0
APPID
  2
GENIUS_GEVCFG0_13
 70
     0
  0
APPID
  2
CONTENTBLOCKICON
 70
     0
  0
APPID
  2
CONTENTBLOCKDESCRIPTION
 70
     0
  0
APPID
  2
ACAD_NAV_VCDISPLAY
 70
     0
  0
APPID
  2
ACAD_MLEADERVER
 70
     0
  0
APPID
  2
ACDBDYNAMICBLOCKTRUENAME
 70
     0
  0
APPID
  2
ACDBDYNAMICBLOCKGUID
 70
     0
  0
ENDTAB
  0
TABLE
  2
DIMSTYLE
 70
     1
  0
DIMSTYLE
  2
STANDARD
 70
     0
  3

  4

  5
_ORIGIN
  6

  7

 40
1.0
 41
12.0
 42
20.0
 43
200.0
 44
20.0
 45
0.0
 46
0.0
 47
0.0
 48
0.0
140
64.0
141
0.09
142
0.0
143
25.399999999999999
144
1.0
145
0.0
146
1.0
147
25.0
 71
     0
 72
     0
 73
     0
 74
     0
 75
     0
 76
     0
 77
     1
 78
     8
170
     0
171
     2
172
     1
173
     0
174
     1
175
     0
176
     7
177
     7
178
     7
  0
ENDTAB
  0
TABLE
  2
VIEW
 70
     1
  0
VIEW
  2
ALL
 70
     0
 40
4282.6198079999986
 10
0.0
 20
41.309904000000003
 41
5940.0
 11
0.0
 21
0.0
 31
1.0
 12
0.0
 22
0.0
 32
0.0
 42
50.0
 43
0.0
 44
0.0
 50
0.0
 71
     0
  0
ENDTAB
  0
TABLE
  2
UCS
 70
     0
  0
ENDTAB
  0
TABLE
  2
VPORT
 70
     1
  0
VPORT
  2
*ACTIVE
 70
     0
 10
0.0
 20
0.0
 11
1.0
 21
1.0
 12
111.93696464404471
 22
190.65857933678029
 13
0.0
 23
0.0
 14
1.0
 24
1.0
 15
0.0
 25
0.0
 16
0.0
 26
0.0
 36
1.0
 17
0.0
 27
0.0
 37
0.0
 40
1232.820488409483
 41
1.747787610619469
 42
50.0
 43
0.0
 44
0.0
 50
0.0
 51
0.0
 71
     0
 72
  1000
 73
     1
 74
     3
 75
     0
 76
     0
 77
     0
 78
     0
  0
ENDTAB
  0
ENDSEC
  0
SECTION
  2
BLOCKS
  0
BLOCK
  8
0
  2
_ORIGIN
 70
     0
 10
0.0
 20
0.0
 30
0.0
  3
_ORIGIN
  1
_ORIGIN
  0
CIRCLE
  8
0
  6
CONTINUOUS
 62
     7
 10
0.0
 20
0.0
 30
0.0
 40
0.5
  0
LINE
  8
0
  6
CONTINUOUS
 62
     7
 10
0.0
 20
0.0
 30
0.0
 11
-1.0
 21
0.0
 31
0.0
  0
ENDBLK
  8
0
  0
ENDSEC
  0
SECTION
  2
ENTITIES
  0
TEXT
  8
NOTE
  6
CONTINUOUS
 62
     4
 10
-363.83227826678473
 20
72.999698692489915
 30
0.0
 40
64.0
  1
EA
 41
0.9
  0
CIRCLE
  8
ARRANGE
  6
CONTINUOUS
 62
     1
 10
0.0
 20
0.0
 30
0.0
 40
40.0
  0
POINT
  8
ARRANGE
  6
CONTINUOUS
 62
     1
 10
0.0
 20
0.0
 30
0.0
 50
90.0
  0
LINE
  8
BASIS
  6
DASHDOT
 62
     6
 10
0.0
 20
205.503829
 30
0.0
 11
0.0
 21
-31.987551
 31
0.0
  0
CIRCLE
  8
FIX
  6
CONTINUOUS
 62
    11
 10
117.5
 20
0.0000000000001705
 30
0.0
 40
10.0
  0
CIRCLE
  8
FIX
  6
CONTINUOUS
 62
    11
 10
65.0
 20
0.0
 30
0.0
 40
10.0
  0
CIRCLE
  8
FIX
  6
CONTINUOUS
 62
    11
 10
-65.0
 20
0.307094923854379
 30
0.0
 40
10.0
  0
CIRCLE
  8
FIX
  6
CONTINUOUS
 62
    11
 10
-117.5000000000001
 20
0.0
 30
0.0
 40
10.0
  0
LINE
  8
NOTE
  6
CONTINUOUS
 62
     4
 10
117.4999999999999
 20
0.0
 30
0.0
 11
352.78356798458663
 21
264.8116364789787
 31
0.0
  0
LINE
  8
NOTE
  6
CONTINUOUS
 62
     4
 10
117.4999999999999
 20
0.0
 30
0.0
 11
148.81274534757901
 21
22.683422418883421
 31
0.0
  0
LINE
  8
NOTE
  6
CONTINUOUS
 62
     4
 10
136.49527469402349
 20
35.19929633376114
 30
0.0
 11
117.4999999999999
 21
0.0
 31
0.0
  0
TEXT
  8
NOTE
  6
CONTINUOUS
 62
     4
 10
167.65392124341881
 20
396.65681002195402
 30
0.0
 40
64.0
  1
EL
 41
0.9
  0
LINE
  8
NOTE
  6
CONTINUOUS
 62
     4
 10
307.28793991518359
 20
365.87659210062179
 30
0.0
 11
138.76344838876469
 21
365.87659210057927
 31
0.0
  0
LINE
  8
NOTE
  6
CONTINUOUS
 62
     4
 10
-59.114024136718847
 20
149.2781765
 30
0.0
 11
138.76344838876469
 21
365.87659210057927
 31
0.0
  0
LINE
  8
NOTE
  6
CONTINUOUS
 62
     4
 10
-59.114024136718847
 20
149.2781765
 30
0.0
 11
-25.652707259832368
 21
169.63975493535949
 31
0.0
  0
LINE
  8
NOTE
  6
CONTINUOUS
 62
     4
 10
-42.684864410586208
 20
181.23959990892129
 30
0.0
 11
-59.114024136718847
 21
149.2781765
 31
0.0
  0
LINE
  8
SIZE
  6
CONTINUOUS
 62
    30
 10
-117.5000000000001
 20
-25.945822126232201
 30
0.0
 11
-117.5000000000001
 21
-307.44785297474772
 31
0.0
  0
LINE
  8
SIZE
  6
CONTINUOUS
 62
    30
 10
117.5
 20
-26.72357999999997
 30
0.0
 11
117.5
 21
-307.44785297474772
 31
0.0
  0
LINE
  8
SIZE
  6
CONTINUOUS
 62
    30
 10
-105.5000000000001
 20
-287.44785297474772
 30
0.0
 11
105.5
 21
-287.44785297474772
 31
0.0
  0
CIRCLE
  8
SIZE
  6
CONTINUOUS
 62
    30
 10
-117.5000000000001
 20
-287.44785297474772
 30
0.0
 40
6.0
  0
LINE
  8
SIZE
  6
CONTINUOUS
 62
    30
 10
-117.5000000000001
 20
-287.44785297474772
 30
0.0
 11
-105.5000000000001
 21
-287.44785297474772
 31
0.0
  0
CIRCLE
  8
SIZE
  6
CONTINUOUS
 62
    30
 10
117.5
 20
-287.44785297474772
 30
0.0
 40
6.0
  0
LINE
  8
SIZE
  6
CONTINUOUS
 62
    30
 10
117.5
 20
-287.44785297474772
 30
0.0
 11
105.5
 21
-287.44785297474772
 31
0.0
  0
TEXT
  8
SIZE
  6
CONTINUOUS
 62
    30
 10
-74.05714285714285
 20
-262.44785297474772
 30
0.0
 40
64.0
  1
235
 41
0.9
 72
     1
 11
0.0
 21
-262.44785297474772
 31
0.0
  0
POINT
  8
DEFPOINTS
  6
CONTINUOUS
 62
    30
 10
-117.5000000000001
 20
-5.9458221262322013
 30
0.0
  0
POINT
  8
DEFPOINTS
  6
CONTINUOUS
 62
    30
 10
117.5
 20
-6.7235799999999699
 30
0.0
  0
POINT
  8
DEFPOINTS
  6
CONTINUOUS
 62
    30
 10
117.5
 20
-287.44785297474772
 30
0.0
  0
LINE
  8
SIZE
  6
CONTINUOUS
 62
    30
 10
-102.0000000000001
 20
20.0
 30
0.0
 11
-102.0000000000001
 21
482.28937749149452
 31
0.0
  0
LINE
  8
SIZE
  6
CONTINUOUS
 62
    30
 10
101.75
 20
20.00000000000006
 30
0.0
 11
101.75
 21
482.28937749149452
 31
0.0
  0
LINE
  8
SIZE
  6
CONTINUOUS
 62
    30
 10
-114.0000000000001
 20
462.28937749149452
 30
0.0
 11
-126.0000000000001
 21
462.28937749149452
 31
0.0
  0
LINE
  8
SIZE
  6
CONTINUOUS
 62
    30
 10
113.75
 20
462.28937749149452
 30
0.0
 11
125.75
 21
462.28937749149452
 31
0.0
  0
LINE
  8
SIZE
  6
CONTINUOUS
 62
    30
 10
-102.0000000000001
 20
462.28937749149452
 30
0.0
 11
101.75
 21
462.28937749149452
 31
0.0
  0
CIRCLE
  8
SIZE
  6
CONTINUOUS
 62
    30
 10
-102.0000000000001
 20
462.28937749149452
 30
0.0
 40
6.0
  0
LINE
  8
SIZE
  6
CONTINUOUS
 62
    30
 10
-102.0000000000001
 20
462.28937749149452
 30
0.0
 11
-114.0000000000001
 21
462.28937749149452
 31
0.0
  0
CIRCLE
  8
SIZE
  6
CONTINUOUS
 62
    30
 10
101.75
 20
462.28937749149452
 30
0.0
 40
6.0
  0
LINE
  8
SIZE
  6
CONTINUOUS
 62
    30
 10
101.75
 20
462.28937749149452
 30
0.0
 11
113.75
 21
462.28937749149452
 31
0.0
  0
TEXT
  8
SIZE
  6
CONTINUOUS
 62
    30
 10
-112.03357142857141
 20
487.28937749149452
 30
0.0
 40
64.0
  1
□204
 41
0.9
 72
     1
 11
-0.125
 21
487.28937749149452
 31
0.0
  0
POINT
  8
DEFPOINTS
  6
CONTINUOUS
 62
    30
 10
-102.0000000000001
 20
0.0
 30
0.0
  0
POINT
  8
DEFPOINTS
  6
CONTINUOUS
 62
    30
 10
101.75
 20
0.0000000000000568
 30
0.0
  0
POINT
  8
DEFPOINTS
  6
CONTINUOUS
 62
    30
 10
101.75
 20
462.28937749149452
 30
0.0
  0
LINE
  8
SIZE
  6
CONTINUOUS
 62
    30
 10
-102.0000000000001
 20
20.0
 30
0.0
 11
-102.0000000000001
 21
482.28937749149452
 31
0.0
  0
LINE
  8
SIZE
  6
CONTINUOUS
 62
    30
 10
-212.00436400000001
 20
175.1293439912732
 30
0.0
 11
-212.00436400000001
 21
482.28937749149452
 31
0.0
  0
LINE
  8
SIZE
  6
CONTINUOUS
 62
    30
 10
-114.0000000000001
 20
462.28937749149452
 30
0.0
 11
-200.00436400000001
 21
462.28937749149452
 31
0.0
  0
LINE
  8
SIZE
  6
CONTINUOUS
 62
    30
 10
-212.00436400000001
 20
462.28937749149452
 30
0.0
 11
-403.15097085714308
 21
462.28937749149452
 31
0.0
  0
CIRCLE
  8
SIZE
  6
CONTINUOUS
 62
    30
 10
-102.0000000000001
 20
462.28937749149452
 30
0.0
 40
6.0
  0
LINE
  8
SIZE
  6
CONTINUOUS
 62
    30
 10
-102.0000000000001
 20
462.28937749149452
 30
0.0
 11
-114.0000000000001
 21
462.28937749149452
 31
0.0
  0
CIRCLE
  8
SIZE
  6
CONTINUOUS
 62
    30
 10
-212.00436400000001
 20
462.28937749149452
 30
0.0
 40
6.0
  0
LINE
  8
SIZE
  6
CONTINUOUS
 62
    30
 10
-212.00436400000001
 20
462.28937749149452
 30
0.0
 11
-200.00436400000001
 21
462.28937749149452
 31
0.0
  0
TEXT
  8
SIZE
  6
CONTINUOUS
 62
    30
 10
-378.15097085714302
 20
487.28937749149452
 30
0.0
 40
64.0
  1
110
 41
0.9
 72
     1
 11
-315.06525657142868
 21
487.28937749149452
 31
0.0
  0
POINT
  8
DEFPOINTS
  6
CONTINUOUS
 62
    30
 10
-102.0000000000001
 20
0.0
 30
0.0
  0
POINT
  8
DEFPOINTS
  6
CONTINUOUS
 62
    30
 10
-212.00436400000001
 20
155.12934399127329
 30
0.0
  0
POINT
  8
DEFPOINTS
  6
CONTINUOUS
 62
    30
 10
-212.00436400000001
 20
462.28937749149452
 30
0.0
  0
LINE
  8
SIZE
  6
CONTINUOUS
 62
    30
 10
-212.00436400000001
 20
175.1293439912732
 30
0.0
 11
-212.00436400000001
 21
271.947680664426
 31
0.0
  0
LINE
  8
SIZE
  6
CONTINUOUS
 62
    30
 10
-171.65356800000001
 20
176.15286072450331
 30
0.0
 11
-171.65356800000001
 21
271.947680664426
 31
0.0
  0
LINE
  8
SIZE
  6
CONTINUOUS
 62
    30
 10
-159.65356800000001
 20
251.947680664426
 30
0.0
 11
-147.65356800000001
 21
251.947680664426
 31
0.0
  0
LINE
  8
SIZE
  6
CONTINUOUS
 62
    30
 10
-224.00436400000001
 20
251.947680664426
 30
0.0
 11
-379.26150685714288
 21
251.947680664426
 31
0.0
  0
LINE
  8
SIZE
  6
CONTINUOUS
 62
    30
 10
-171.65356800000001
 20
251.947680664426
 30
0.0
 11
-212.00436400000001
 21
251.947680664426
 31
0.0
  0
CIRCLE
  8
SIZE
  6
CONTINUOUS
 62
    30
 10
-171.65356800000001
 20
251.947680664426
 30
0.0
 40
6.0
  0
LINE
  8
SIZE
  6
CONTINUOUS
 62
    30
 10
-171.65356800000001
 20
251.947680664426
 30
0.0
 11
-159.65356800000001
 21
251.947680664426
 31
0.0
  0
CIRCLE
  8
SIZE
  6
CONTINUOUS
 62
    30
 10
-212.00436400000001
 20
251.947680664426
 30
0.0
 40
6.0
  0
LINE
  8
SIZE
  6
CONTINUOUS
 62
    30
 10
-212.00436400000001
 20
251.947680664426
 30
0.0
 11
-224.00436400000001
 21
251.947680664426
 31
0.0
  0
TEXT
  8
SIZE
  6
CONTINUOUS
 62
    30
 10
-354.26150685714259
 20
276.947680664426
 30
0.0
 40
64.0
  1
40
 41
0.9
 72
     1
 11
-307.63293542857122
 21
276.947680664426
 31
0.0
  0
POINT
  8
DEFPOINTS
  6
CONTINUOUS
 62
    30
 10
-212.00436400000001
 20
155.12934399127329
 30
0.0
  0
POINT
  8
DEFPOINTS
  6
CONTINUOUS
 62
    30
 10
-171.65356800000001
 20
156.15286072450331
 30
0.0
  0
POINT
  8
DEFPOINTS
  6
CONTINUOUS
 62
    30
 10
-171.65356800000001
 20
251.947680664426
 30
0.0
  0
LINE
  8
SIZE
  6
CONTINUOUS
 62
    30
 10
-212.00436400000001
 20
175.1293439912732
 30
0.0
 11
-212.00436400000001
 21
372.1138243466803
 31
0.0
  0
LINE
  8
SIZE
  6
CONTINUOUS
 62
    30
 10
-142.00436400000009
 20
179.75
 30
0.0
 11
-142.00436400000009
 21
372.1138243466803
 31
0.0
  0
LINE
  8
SIZE
  6
CONTINUOUS
 62
    30
 10
-130.00436400000009
 20
352.1138243466803
 30
0.0
 11
-118.00436400000009
 21
352.1138243466803
 31
0.0
  0
LINE
  8
SIZE
  6
CONTINUOUS
 62
    30
 10
-224.00436400000001
 20
352.1138243466803
 30
0.0
 11
-379.26150685714288
 21
352.1138243466803
 31
0.0
  0
LINE
  8
SIZE
  6
CONTINUOUS
 62
    30
 10
-142.00436400000009
 20
352.1138243466803
 30
0.0
 11
-212.00436400000001
 21
352.1138243466803
 31
0.0
  0
CIRCLE
  8
SIZE
  6
CONTINUOUS
 62
    30
 10
-142.00436400000009
 20
352.1138243466803
 30
0.0
 40
6.0
  0
LINE
  8
SIZE
  6
CONTINUOUS
 62
    30
 10
-142.00436400000009
 20
352.1138243466803
 30
0.0
 11
-130.00436400000009
 21
352.1138243466803
 31
0.0
  0
CIRCLE
  8
SIZE
  6
CONTINUOUS
 62
    30
 10
-212.00436400000001
 20
352.1138243466803
 30
0.0
 40
6.0
  0
LINE
  8
SIZE
  6
CONTINUOUS
 62
    30
 10
-212.00436400000001
 20
352.1138243466803
 30
0.0
 11
-224.00436400000001
 21
352.1138243466803
 31
0.0
  0
TEXT
  8
SIZE
  6
CONTINUOUS
 62
    30
 10
-354.26150685714259
 20
377.1138243466803
 30
0.0
 40
64.0
  1
70
 41
0.9
 72
     1
 11
-307.63293542857122
 21
377.1138243466803
 31
0.0
  0
POINT
  8
DEFPOINTS
  6
CONTINUOUS
 62
    30
 10
-212.00436400000001
 20
155.12934399127329
 30
0.0
  0
POINT
  8
DEFPOINTS
  6
CONTINUOUS
 62
    30
 10
-142.00436400000009
 20
159.75
 30
0.0
  0
POINT
  8
DEFPOINTS
  6
CONTINUOUS
 62
    30
 10
-142.00436400000009
 20
352.1138243466803
 30
0.0
  0
LINE
  8
SIZE
  6
CONTINUOUS
 62
    30
 10
-121.13151301742541
 20
49.755607001702863
 30
0.0
 11
-344.65635339931771
 21
49.75560700170297
 31
0.0
  0
LINE
  8
SIZE
  6
CONTINUOUS
 62
    30
 10
-163.00000000000011
 20
0.0000000000000568
 30
0.0
 11
-344.65635339931771
 21
0.0000000000001137
 31
0.0
  0
LINE
  8
SIZE
  6
CONTINUOUS
 62
    30
 10
-324.65635339931771
 20
61.755607001702913
 30
0.0
 11
-324.65635339931771
 21
73.755607001702913
 31
0.0
  0
LINE
  8
SIZE
  6
CONTINUOUS
 62
    30
 10
-324.65635339931771
 20
-11.99999999999989
 30
0.0
 11
-324.65635339931771
 21
-167.25714285714281
 31
0.0
  0
LINE
  8
SIZE
  6
CONTINUOUS
 62
    30
 10
-324.65635339931771
 20
49.755607001702913
 30
0.0
 11
-324.65635339931771
 21
0.0000000000001137
 31
0.0
  0
CIRCLE
  8
SIZE
  6
CONTINUOUS
 62
    30
 10
-324.65635339931771
 20
49.755607001702913
 30
0.0
 40
6.0
  0
LINE
  8
SIZE
  6
CONTINUOUS
 62
    30
 10
-324.65635339931771
 20
49.755607001702913
 30
0.0
 11
-324.65635339931771
 21
61.755607001702913
 31
0.0
  0
CIRCLE
  8
SIZE
  6
CONTINUOUS
 62
    30
 10
-324.65635339931771
 20
0.0000000000001137
 30
0.0
 40
6.0
  0
LINE
  8
SIZE
  6
CONTINUOUS
 62
    30
 10
-324.65635339931771
 20
0.0000000000001137
 30
0.0
 11
-324.65635339931771
 21
-11.99999999999989
 31
0.0
  0
TEXT
  8
SIZE
  6
CONTINUOUS
 62
    30
 10
-349.65635339931771
 20
-142.2571428571429
 30
0.0
 40
64.0
  1
50
 50
90.0
 41
0.9
 72
     1
 11
-349.65635339931771
 21
-95.628571428571433
 31
0.0
  0
POINT
  8
DEFPOINTS
  6
CONTINUOUS
 62
    30
 10
-101.13151301742541
 20
49.755607001702863
 30
0.0
  0
POINT
  8
DEFPOINTS
  6
CONTINUOUS
 62
    30
 10
-143.00000000000011
 20
0.0000000000000568
 30
0.0
  0
POINT
  8
DEFPOINTS
  6
CONTINUOUS
 62
    30
 10
-324.65635339931771
 20
0.0000000000001137
 30
0.0
  0
LINE
  8
SIZE
  6
CONTINUOUS
 62
    30
 10
-276.37386500000002
 20
106.75
 30
0.0
 11
-449.6568753676529
 21
106.7500000000001
 31
0.0
  0
LINE
  8
SIZE
  6
CONTINUOUS
 62
    30
 10
-163.0
 20
0.0
 30
0.0
 11
-449.6568753676529
 21
0.0000000000001137
 31
0.0
  0
LINE
  8
SIZE
  6
CONTINUOUS
 62
    30
 10
-429.6568753676529
 20
94.75
 30
0.0
 11
-429.6568753676529
 21
12.00000000000006
 31
0.0
  0
LINE
  8
SIZE
  6
CONTINUOUS
 62
    30
 10
-429.6568753676529
 20
0.0000000000000568
 30
0.0
 11
-429.65687536765302
 21
-199.14285714285711
 31
0.0
  0
CIRCLE
  8
SIZE
  6
CONTINUOUS
 62
    30
 10
-429.6568753676529
 20
106.7500000000001
 30
0.0
 40
6.0
  0
LINE
  8
SIZE
  6
CONTINUOUS
 62
    30
 10
-429.6568753676529
 20
106.7500000000001
 30
0.0
 11
-429.6568753676529
 21
94.750000000000114
 31
0.0
  0
CIRCLE
  8
SIZE
  6
CONTINUOUS
 62
    30
 10
-429.6568753676529
 20
0.0000000000000568
 30
0.0
 40
6.0
  0
LINE
  8
SIZE
  6
CONTINUOUS
 62
    30
 10
-429.6568753676529
 20
0.0000000000000568
 30
0.0
 11
-429.6568753676529
 21
12.00000000000006
 31
0.0
  0
TEXT
  8
SIZE
  6
CONTINUOUS
 62
    30
 10
-454.6568753676529
 20
-174.14285714285711
 30
0.0
 40
64.0
  1
107
 50
90.0
 41
0.9
 72
     1
 11
-454.6568753676529
 21
-105.5714285714286
 31
0.0
  0
POINT
  8
DEFPOINTS
  6
CONTINUOUS
 62
    30
 10
-256.37386500000002
 20
106.75
 30
0.0
  0
POINT
  8
DEFPOINTS
  6
CONTINUOUS
 62
    30
 10
-143.0
 20
0.0
 30
0.0
  0
POINT
  8
DEFPOINTS
  6
CONTINUOUS
 62
    30
 10
-429.6568753676529
 20
0.0000000000000568
 30
0.0
  0
LINE
  8
SIZE
  6
CONTINUOUS
 62
    30
 10
-231.50872726774921
 20
155.62932496153201
 30
0.0
 11
-581.25754757535651
 21
155.62932496153209
 31
0.0
  0
LINE
  8
SIZE
  6
CONTINUOUS
 62
    30
 10
-231.50872726774921
 20
57.870674038468003
 30
0.0
 11
-581.25754757535651
 21
57.870674038468053
 31
0.0
  0
LINE
  8
SIZE
  6
CONTINUOUS
 62
    30
 10
-561.25754757535651
 20
143.62932496153209
 30
0.0
 11
-561.25754757535651
 21
69.87067403846811
 31
0.0
  0
LINE
  8
SIZE
  6
CONTINUOUS
 62
    30
 10
-561.25754757535651
 20
57.870674038468053
 30
0.0
 11
-561.25754757535651
 21
-201.29173646411061
 31
0.0
  0
CIRCLE
  8
SIZE
  6
CONTINUOUS
 62
    30
 10
-561.25754757535651
 20
155.62932496153209
 30
0.0
 40
6.0
  0
LINE
  8
SIZE
  6
CONTINUOUS
 62
    30
 10
-561.25754757535651
 20
155.62932496153209
 30
0.0
 11
-561.25754757535651
 21
143.62932496153209
 31
0.0
  0
CIRCLE
  8
SIZE
  6
CONTINUOUS
 62
    30
 10
-561.25754757535651
 20
57.870674038468053
 30
0.0
 40
6.0
  0
LINE
  8
SIZE
  6
CONTINUOUS
 62
    30
 10
-561.25754757535651
 20
57.870674038468053
 30
0.0
 11
-561.25754757535651
 21
69.87067403846811
 31
0.0
  0
TEXT
  8
SIZE
  6
CONTINUOUS
 62
    30
 10
-596.92421424202325
 20
-186.44030789268211
 30
0.0
 40
64.0
  1
φ98
 50
90.0
 41
0.9
 72
     1
 11
-596.92421424202325
 21
-99.491736464110659
 31
0.0
  0
POINT
  8
DEFPOINTS
  6
CONTINUOUS
 62
    30
 10
-211.50872726774921
 20
155.62932496153201
 30
0.0
  0
POINT
  8
DEFPOINTS
  6
CONTINUOUS
 62
    30
 10
-211.50872726774921
 20
57.870674038468003
 30
0.0
  0
POINT
  8
DEFPOINTS
  6
CONTINUOUS
 62
    30
 10
-561.25754757535651
 20
57.870674038468053
 30
0.0
  0
LINE
  8
SIZE
  6
CONTINUOUS
 62
    30
 10
-187.53247081287461
 20
159.30440539031281
 30
0.0
 11
-705.85817291836429
 21
159.30440539031301
 31
0.0
  0
LINE
  8
SIZE
  6
CONTINUOUS
 62
    30
 10
-187.5324710000001
 20
54.195595000000033
 30
0.0
 11
-705.85817291836429
 21
54.195595000000203
 31
0.0
  0
LINE
  8
SIZE
  6
CONTINUOUS
 62
    30
 10
-685.85817291836429
 20
147.30440539031289
 30
0.0
 11
-685.85817291836429
 21
66.195595000000196
 31
0.0
  0
LINE
  8
SIZE
  6
CONTINUOUS
 62
    30
 10
-685.85817291836429
 20
54.195595000000203
 30
0.0
 11
-685.85817291836429
 21
-245.1213430957859
 31
0.0
  0
CIRCLE
  8
SIZE
  6
CONTINUOUS
 62
    30
 10
-685.85817291836429
 20
159.30440539031289
 30
0.0
 40
6.0
  0
LINE
  8
SIZE
  6
CONTINUOUS
 62
    30
 10
-685.85817291836429
 20
159.30440539031289
 30
0.0
 11
-685.85817291836429
 21
147.30440539031289
 31
0.0
  0
CIRCLE
  8
SIZE
  6
CONTINUOUS
 62
    30
 10
-685.85817291836429
 20
54.195595000000203
 30
0.0
 40
6.0
  0
LINE
  8
SIZE
  6
CONTINUOUS
 62
    30
 10
-685.85817291836429
 20
54.195595000000203
 30
0.0
 11
-685.85817291836429
 21
66.195595000000139
 31
0.0
  0
TEXT
  8
SIZE
  6
CONTINUOUS
 62
    30
 10
-721.5248395850308
 20
-230.26991452435729
 30
0.0
 40
64.0
  1
φ105
 50
90.0
 41
0.9
 72
     1
 11
-721.5248395850308
 21
-121.3784859529287
 31
0.0
  0
POINT
  8
DEFPOINTS
  6
CONTINUOUS
 62
    30
 10
-167.53247081287461
 20
159.30440539031281
 30
0.0
  0
POINT
  8
DEFPOINTS
  6
CONTINUOUS
 62
    30
 10
-167.5324710000001
 20
54.195595000000033
 30
0.0
  0
POINT
  8
DEFPOINTS
  6
CONTINUOUS
 62
    30
 10
-685.85817291836429
 20
54.195595000000203
 30
0.0
  0
LINE
  8
SIZE
  6
CONTINUOUS
 62
    30
 10
-65.0
 20
-26.72357999999997
 30
0.0
 11
-65.0
 21
-186.03768220895029
 31
0.0
  0
LINE
  8
SIZE
  6
CONTINUOUS
 62
    30
 10
65.0
 20
-26.72357999999997
 30
0.0
 11
65.0
 21
-186.03768220895029
 31
0.0
  0
LINE
  8
SIZE
  6
CONTINUOUS
 62
    30
 10
-77.0
 20
-166.03768220895029
 30
0.0
 11
-89.0
 21
-166.03768220895029
 31
0.0
  0
LINE
  8
SIZE
  6
CONTINUOUS
 62
    30
 10
77.0
 20
-166.03768220895029
 30
0.0
 11
89.0
 21
-166.03768220895029
 31
0.0
  0
LINE
  8
SIZE
  6
CONTINUOUS
 62
    30
 10
-65.0
 20
-166.03768220895029
 30
0.0
 11
65.0
 21
-166.03768220895029
 31
0.0
  0
CIRCLE
  8
SIZE
  6
CONTINUOUS
 62
    30
 10
-65.0
 20
-166.03768220895029
 30
0.0
 40
6.0
  0
LINE
  8
SIZE
  6
CONTINUOUS
 62
    30
 10
-65.0
 20
-166.03768220895029
 30
0.0
 11
-77.0
 21
-166.03768220895029
 31
0.0
  0
CIRCLE
  8
SIZE
  6
CONTINUOUS
 62
    30
 10
65.0
 20
-166.03768220895029
 30
0.0
 40
6.0
  0
LINE
  8
SIZE
  6
CONTINUOUS
 62
    30
 10
65.0
 20
-166.03768220895029
 30
0.0
 11
77.0
 21
-166.03768220895029
 31
0.0
  0
TEXT
  8
SIZE
  6
CONTINUOUS
 62
    30
 10
-68.571428571428569
 20
-141.03768220895029
 30
0.0
 40
64.0
  1
130
 41
0.9
 72
     1
 11
0.0
 21
-141.03768220895029
 31
0.0
  0
POINT
  8
DEFPOINTS
  6
CONTINUOUS
 62
    30
 10
-65.0
 20
-6.7235799999999699
 30
0.0
  0
POINT
  8
DEFPOINTS
  6
CONTINUOUS
 62
    30
 10
65.0
 20
-6.7235799999999699
 30
0.0
  0
POINT
  8
DEFPOINTS
  6
CONTINUOUS
 62
    30
 10
65.0
 20
-166.03768220895029
 30
0.0
  0
LINE
  8
SIZE
  6
CONTINUOUS
 62
    30
 10
-143.0
 20
-20.0
 30
0.0
 11
-143.0
 21
-421.47512544864293
 31
0.0
  0
LINE
  8
SIZE
  6
CONTINUOUS
 62
    30
 10
143.0
 20
-20.0
 30
0.0
 11
143.0
 21
-421.47512544864293
 31
0.0
  0
LINE
  8
SIZE
  6
CONTINUOUS
 62
    30
 10
-131.0
 20
-401.47512544864293
 30
0.0
 11
131.0
 21
-401.47512544864293
 31
0.0
  0
CIRCLE
  8
SIZE
  6
CONTINUOUS
 62
    30
 10
-143.0
 20
-401.47512544864293
 30
0.0
 40
6.0
  0
LINE
  8
SIZE
  6
CONTINUOUS
 62
    30
 10
-143.0
 20
-401.47512544864293
 30
0.0
 11
-131.0
 21
-401.47512544864293
 31
0.0
  0
CIRCLE
  8
SIZE
  6
CONTINUOUS
 62
    30
 10
143.0
 20
-401.47512544864293
 30
0.0
 40
6.0
  0
LINE
  8
SIZE
  6
CONTINUOUS
 62
    30
 10
143.0
 20
-401.47512544864293
 30
0.0
 11
131.0
 21
-401.47512544864293
 31
0.0
  0
TEXT
  8
SIZE
  6
CONTINUOUS
 62
    30
 10
-109.1657142857143
 20
-376.47512544864293
 30
0.0
 40
64.0
  1
□286
 41
0.9
 72
     1
 11
0.0
 21
-376.47512544864293
 31
0.0
  0
POINT
  8
DEFPOINTS
  6
CONTINUOUS
 62
    30
 10
-143.0
 20
0.0
 30
0.0
  0
POINT
  8
DEFPOINTS
  6
CONTINUOUS
 62
    30
 10
143.0
 20
0.0
 30
0.0
  0
POINT
  8
DEFPOINTS
  6
CONTINUOUS
 62
    30
 10
143.0
 20
-401.47512544864293
 30
0.0
  0
LINE
  8
SIZE
  6
CONTINUOUS
 62
    30
 10
73.211767000000009
 20
195.0
 30
0.0
 11
380.08534601033898
 21
194.99999999999989
 31
0.0
  0
LINE
  8
SIZE
  6
CONTINUOUS
 62
    30
 10
163.0
 20
0.0
 30
0.0
 11
380.08534601033898
 21
-0.0000000000000568
 31
0.0
  0
LINE
  8
SIZE
  6
CONTINUOUS
 62
    30
 10
360.08534601033898
 20
182.99999999999989
 30
0.0
 11
360.08534601033898
 21
11.99999999999994
 31
0.0
  0
CIRCLE
  8
SIZE
  6
CONTINUOUS
 62
    30
 10
360.08534601033898
 20
194.99999999999989
 30
0.0
 40
6.0
  0
LINE
  8
SIZE
  6
CONTINUOUS
 62
    30
 10
360.08534601033898
 20
194.99999999999989
 30
0.0
 11
360.08534601033898
 21
182.99999999999989
 31
0.0
  0
CIRCLE
  8
SIZE
  6
CONTINUOUS
 62
    30
 10
360.08534601033898
 20
-0.0000000000000568
 30
0.0
 40
6.0
  0
LINE
  8
SIZE
  6
CONTINUOUS
 62
    30
 10
360.08534601033898
 20
-0.0000000000000568
 30
0.0
 11
360.08534601033898
 21
11.99999999999994
 31
0.0
  0
TEXT
  8
SIZE
  6
CONTINUOUS
 62
    30
 10
335.08534601033898
 20
28.928571428571431
 30
0.0
 40
64.0
  1
195
 50
90.0
 41
0.9
 72
     1
 11
335.08534601033898
 21
97.5
 31
0.0
  0
POINT
  8
DEFPOINTS
  6
CONTINUOUS
 62
    30
 10
53.211767000000009
 20
195.0
 30
0.0
  0
POINT
  8
DEFPOINTS
  6
CONTINUOUS
 62
    30
 10
143.0
 20
0.0
 30
0.0
  0
POINT
  8
DEFPOINTS
  6
CONTINUOUS
 62
    30
 10
360.08534601033898
 20
-0.0000000000000568
 30
0.0
  0
LINE
  8
SIZE
  6
CONTINUOUS
 62
    30
 10
163.0
 20
0.0
 30
0.0
 11
380.08534601033898
 21
-0.0000000000000568
 31
0.0
  0
LINE
  8
SIZE
  6
CONTINUOUS
 62
    30
 10
155.89471499999991
 20
-15.0
 30
0.0
 11
380.08534601033898
 21
-15.00000000000006
 31
0.0
  0
LINE
  8
SIZE
  6
CONTINUOUS
 62
    30
 10
360.08534601033898
 20
11.99999999999994
 30
0.0
 11
360.08534601033898
 21
23.99999999999994
 31
0.0
  0
LINE
  8
SIZE
  6
CONTINUOUS
 62
    30
 10
360.08534601033898
 20
-27.00000000000006
 30
0.0
 11
360.08534601033898
 21
-171.28571428571439
 31
0.0
  0
LINE
  8
SIZE
  6
CONTINUOUS
 62
    30
 10
360.08534601033898
 20
-0.0000000000000568
 30
0.0
 11
360.08534601033898
 21
-15.00000000000006
 31
0.0
  0
CIRCLE
  8
SIZE
  6
CONTINUOUS
 62
    30
 10
360.08534601033898
 20
-0.0000000000000568
 30
0.0
 40
6.0
  0
LINE
  8
SIZE
  6
CONTINUOUS
 62
    30
 10
360.08534601033898
 20
-0.0000000000000568
 30
0.0
 11
360.08534601033898
 21
11.99999999999994
 31
0.0
  0
CIRCLE
  8
SIZE
  6
CONTINUOUS
 62
    30
 10
360.08534601033898
 20
-15.00000000000006
 30
0.0
 40
6.0
  0
LINE
  8
SIZE
  6
CONTINUOUS
 62
    30
 10
360.08534601033898
 20
-15.00000000000006
 30
0.0
 11
360.08534601033898
 21
-27.00000000000006
 31
0.0
  0
TEXT
  8
SIZE
  6
CONTINUOUS
 62
    30
 10
335.08534601033898
 20
-146.28571428571419
 30
0.0
 40
64.0
  1
15
 50
90.0
 41
0.9
 72
     1
 11
335.08534601033898
 21
-105.1428571428571
 31
0.0
  0
POINT
  8
DEFPOINTS
  6
CONTINUOUS
 62
    30
 10
143.0
 20
0.0
 30
0.0
  0
POINT
  8
DEFPOINTS
  6
CONTINUOUS
 62
    30
 10
135.89471499999991
 20
-15.0
 30
0.0
  0
POINT
  8
DEFPOINTS
  6
CONTINUOUS
 62
    30
 10
360.08534601033898
 20
-15.00000000000006
 30
0.0
  0
LINE
  8
OUTLINE
  6
CONTINUOUS
 62
     3
 10
-101.131513
 20
49.755608000000052
 30
0.0
 11
-102.0000000000001
 21
0.0000000000000568
 31
0.0
  0
LINE
  8
OUTLINE
  6
CONTINUOUS
 62
     3
 10
-90.345139000000017
 20
182.5
 30
0.0
 11
-93.224364000000151
 21
182.5
 31
0.0
  0
LINE
  8
OUTLINE
  6
CONTINUOUS
 62
     3
 10
-102.0000000000001
 20
0.0000000000000568
 30
0.0
 11
-143.00000000000011
 21
0.0000000000000568
 31
0.0
  0
LINE
  8
NOTE
  6
CENTER
 62
     4
 10
-59.0
 20
156.56447299999999
 30
0.0
 11
-59.0
 21
138.7513210000001
 31
0.0
  0
LINE
  8
NOTE
  6
CENTER
 62
     4
 10
117.5
 20
10.746495999999979
 30
0.0
 11
117.5
 21
-6.7235799999999699
 31
0.0
  0
LINE
  8
NOTE
  6
CENTER
 62
     4
 10
-117.5000000000001
 20
10.746495999999979
 30
0.0
 11
-117.5000000000001
 21
-6.7235799999999699
 31
0.0
  0
LINE
  8
NOTE
  6
CENTER
 62
     4
 10
65.0
 20
10.746495999999979
 30
0.0
 11
65.0
 21
-6.7235799999999699
 31
0.0
  0
LINE
  8
NOTE
  6
CENTER
 62
     4
 10
-65.0
 20
10.746495999999979
 30
0.0
 11
-65.0
 21
-6.7235799999999699
 31
0.0
  0
LINE
  8
NOTE
  6
CENTER
 62
     4
 10
-62.638652000000093
 20
106.75
 30
0.0
 11
-256.37386500000002
 21
106.75
 31
0.0
  0
LINE
  8
DETAIL
  6
CONTINUOUS
 62
     5
 10
-142.001655
 20
53.749952000000008
 30
0.0
 11
-142.00436400000009
 21
159.75
 31
0.0
  0
LINE
  8
OUTLINE
  6
CONTINUOUS
 62
     3
 10
-142.00436300000001
 20
53.750000000000057
 30
0.0
 11
-167.5324710000001
 21
54.195595000000033
 31
0.0
  0
LINE
  8
DETAIL
  6
CONTINUOUS
 62
     5
 10
-142.00436300000001
 20
53.75
 30
0.0
 11
-167.5324710000001
 21
54.195594000000028
 31
0.0
  0
LINE
  8
OUTLINE
  6
CONTINUOUS
 62
     3
 10
-101.131513
 20
49.755608000000052
 30
0.0
 11
-142.00436400000009
 21
53.750000000000057
 31
0.0
  0
LINE
  8
DETAIL
  6
CONTINUOUS
 62
     5
 10
-101.131513
 20
49.755606999999941
 30
0.0
 11
-142.00436400000009
 21
53.75
 31
0.0
  0
LINE
  8
OUTLINE
  6
CONTINUOUS
 62
     3
 10
-212.00436400000001
 20
155.12934500000009
 30
0.0
 11
-212.00436400000001
 21
58.370656000000047
 31
0.0
  0
LINE
  8
DETAIL
  6
CONTINUOUS
 62
     5
 10
-212.00436400000001
 20
155.12934400000009
 30
0.0
 11
-212.00436400000001
 21
58.370655000000063
 31
0.0
  0
LINE
  8
DETAIL
  6
CONTINUOUS
 62
     5
 10
-168.34039999999999
 20
159.1184430000001
 30
0.0
 11
-168.34039999999999
 21
54.381556000000053
 31
0.0
  0
LINE
  8
DETAIL
  6
CONTINUOUS
 62
     5
 10
-171.65356800000009
 20
57.347137999999973
 30
0.0
 11
-171.65356800000009
 21
156.152861
 31
0.0
  0
LINE
  8
OUTLINE
  6
CONTINUOUS
 62
     3
 10
-100.14313800000011
 20
160.98680300000001
 30
0.0
 11
-100.064582
 21
160.99222499999999
 31
0.0
  0
LINE
  8
DETAIL
  6
CONTINUOUS
 62
     5
 10
-100.14313800000011
 20
160.98680200000001
 30
0.0
 11
-100.064582
 21
160.9922250000001
 31
0.0
  0
LINE
  8
OUTLINE
  6
CONTINUOUS
 62
     3
 10
-100.064582
 20
160.99222499999999
 30
0.0
 11
-99.962146000000075
 21
161.00877800000001
 31
0.0
  0
LINE
  8
DETAIL
  6
CONTINUOUS
 62
     5
 10
-100.064582
 20
160.9922250000001
 30
0.0
 11
-99.962146000000075
 21
161.00877700000001
 31
0.0
  0
LINE
  8
OUTLINE
  6
CONTINUOUS
 62
     3
 10
-99.962146000000075
 20
161.00877800000001
 30
0.0
 11
-99.862002999999959
 21
161.03584799999999
 31
0.0
  0
LINE
  8
DETAIL
  6
CONTINUOUS
 62
     5
 10
-99.962146000000075
 20
161.00877700000001
 30
0.0
 11
-99.862002999999959
 21
161.03584699999999
 31
0.0
  0
LINE
  8
OUTLINE
  6
CONTINUOUS
 62
     3
 10
-99.862002999999959
 20
161.03584799999999
 30
0.0
 11
-99.76522900000009
 21
161.07313500000001
 31
0.0
  0
LINE
  8
DETAIL
  6
CONTINUOUS
 62
     5
 10
-99.862002999999959
 20
161.03584699999999
 30
0.0
 11
-99.76522900000009
 21
161.07313400000001
 31
0.0
  0
LINE
  8
OUTLINE
  6
CONTINUOUS
 62
     3
 10
-99.76522900000009
 20
161.07313500000001
 30
0.0
 11
-99.672862000000123
 21
161.12022999999999
 31
0.0
  0
LINE
  8
DETAIL
  6
CONTINUOUS
 62
     5
 10
-99.76522900000009
 20
161.07313400000001
 30
0.0
 11
-99.672862000000123
 21
161.12022999999999
 31
0.0
  0
LINE
  8
OUTLINE
  6
CONTINUOUS
 62
     3
 10
-99.672862000000123
 20
161.12022999999999
 30
0.0
 11
-99.585890000000063
 21
161.1766200000001
 31
0.0
  0
LINE
  8
DETAIL
  6
CONTINUOUS
 62
     5
 10
-99.672862000000123
 20
161.12022999999999
 30
0.0
 11
-99.585890000000063
 21
161.1766200000001
 31
0.0
  0
LINE
  8
OUTLINE
  6
CONTINUOUS
 62
     3
 10
-99.585890000000063
 20
161.1766200000001
 30
0.0
 11
-99.505244000000062
 21
161.24169100000009
 31
0.0
  0
LINE
  8
DETAIL
  6
CONTINUOUS
 62
     5
 10
-99.585890000000063
 20
161.1766200000001
 30
0.0
 11
-99.505244000000062
 21
161.24168999999981
 31
0.0
  0
LINE
  8
OUTLINE
  6
CONTINUOUS
 62
     3
 10
-99.505244000000062
 20
161.24169100000009
 30
0.0
 11
-99.431784999999991
 21
161.31473500000001
 31
0.0
  0
LINE
  8
DETAIL
  6
CONTINUOUS
 62
     5
 10
-99.505244000000062
 20
161.24168999999981
 30
0.0
 11
-99.431784999999991
 21
161.31473500000001
 31
0.0
  0
LINE
  8
OUTLINE
  6
CONTINUOUS
 62
     3
 10
-99.431784999999991
 20
161.31473500000001
 30
0.0
 11
-99.366294000000039
 21
161.39496399999999
 31
0.0
  0
LINE
  8
DETAIL
  6
CONTINUOUS
 62
     5
 10
-99.431784999999991
 20
161.31473500000001
 30
0.0
 11
-99.366294000000039
 21
161.3949630000001
 31
0.0
  0
LINE
  8
OUTLINE
  6
CONTINUOUS
 62
     3
 10
-99.366294000000039
 20
161.39496399999999
 30
0.0
 11
-99.309469000000036
 21
161.48150699999999
 31
0.0
  0
LINE
  8
DETAIL
  6
CONTINUOUS
 62
     5
 10
-99.366294000000039
 20
161.3949630000001
 30
0.0
 11
-99.309469000000036
 21
161.481506
 31
0.0
  0
LINE
  8
OUTLINE
  6
CONTINUOUS
 62
     3
 10
-99.309469000000036
 20
161.48150699999999
 30
0.0
 11
-99.26190500000007
 21
161.573441
 31
0.0
  0
LINE
  8
DETAIL
  6
CONTINUOUS
 62
     5
 10
-99.309469000000036
 20
161.481506
 30
0.0
 11
-99.26190500000007
 21
161.573441
 31
0.0
  0
LINE
  8
OUTLINE
  6
CONTINUOUS
 62
     3
 10
-99.26190500000007
 20
161.573441
 30
0.0
 11
-99.224099000000024
 21
161.669802
 31
0.0
  0
LINE
  8
DETAIL
  6
CONTINUOUS
 62
     5
 10
-99.26190500000007
 20
161.573441
 30
0.0
 11
-99.224099000000024
 21
161.66980100000009
 31
0.0
  0
LINE
  8
OUTLINE
  6
CONTINUOUS
 62
     3
 10
-99.224099000000024
 20
161.669802
 30
0.0
 11
-99.196464999999989
 21
161.76951800000009
 31
0.0
  0
LINE
  8
DETAIL
  6
CONTINUOUS
 62
     5
 10
-99.224099000000024
 20
161.66980100000009
 30
0.0
 11
-99.196464999999989
 21
161.76951799999981
 31
0.0
  0
LINE
  8
OUTLINE
  6
CONTINUOUS
 62
     3
 10
-99.196464999999989
 20
161.76951800000009
 30
0.0
 11
-99.179290000000037
 21
161.871487
 31
0.0
  0
LINE
  8
DETAIL
  6
CONTINUOUS
 62
     5
 10
-99.196464999999989
 20
161.76951799999981
 30
0.0
 11
-99.179290000000037
 21
161.871486
 31
0.0
  0
LINE
  8
OUTLINE
  6
CONTINUOUS
 62
     3
 10
-99.179290000000037
 20
161.871487
 30
0.0
 11
-99.172821999999996
 21
161.96891500000001
 31
0.0
  0
LINE
  8
DETAIL
  6
CONTINUOUS
 62
     5
 10
-99.179290000000037
 20
161.871486
 30
0.0
 11
-99.172821999999996
 21
161.96891400000001
 31
0.0
  0
LINE
  8
OUTLINE
  6
CONTINUOUS
 62
     3
 10
-142.00436400000009
 20
159.75
 30
0.0
 11
-100.14313800000011
 21
160.98680899999999
 31
0.0
  0
LINE
  8
DETAIL
  6
CONTINUOUS
 62
     5
 10
-142.00436400000009
 20
159.75
 30
0.0
 11
-100.14313800000011
 21
160.98680899999999
 31
0.0
  0
LINE
  8
OUTLINE
  6
CONTINUOUS
 62
     3
 10
-98.936027000000081
 20
175.53490500000001
 30
0.0
 11
-99.177831000000083
 21
161.68198699999991
 31
0.0
  0
LINE
  8
DETAIL
  6
CONTINUOUS
 62
     5
 10
-98.936027000000081
 20
175.53490400000001
 30
0.0
 11
-102.0000000000001
 21
0.0
 31
0.0
  0
LINE
  8
OUTLINE
  6
CONTINUOUS
 62
     3
 10
-76.532639000000017
 20
175.5
 30
0.0
 11
-69.104364000000032
 21
175.5
 31
0.0
  0
LINE
  8
DETAIL
  6
CONTINUOUS
 62
     5
 10
-83.684314000000086
 20
175.5
 30
0.0
 11
-69.104364000000032
 21
175.5
 31
0.0
  0
ARC
  8
OUTLINE
  6
CONTINUOUS
 62
     3
 10
-69.984364000000141
 20
181.62
 30
0.0
 40
0.88
 50
0.0
 51
90.0
  0
ARC
  8
DETAIL
  6
CONTINUOUS
 62
     5
 10
-69.984364000000141
 20
181.62
 30
0.0
 40
0.88
 50
0.0
 51
90.0
  0
LINE
  8
OUTLINE
  6
CONTINUOUS
 62
     3
 10
-69.984364000000141
 20
182.5
 30
0.0
 11
-77.220139000000017
 21
182.5
 31
0.0
  0
LINE
  8
DETAIL
  6
CONTINUOUS
 62
     5
 10
-69.984364000000141
 20
182.5
 30
0.0
 11
-93.224364000000151
 21
182.5
 31
0.0
  0
LINE
  8
DETAIL
  6
CONTINUOUS
 62
     5
 10
-69.554881000000023
 20
177.33550399999999
 30
0.0
 11
-69.622443000000089
 21
177.37501499999999
 31
0.0
  0
LINE
  8
DETAIL
  6
CONTINUOUS
 62
     5
 10
-69.622443000000089
 20
177.37501499999999
 30
0.0
 11
-69.696231000000125
 21
177.40903599999999
 31
0.0
  0
LINE
  8
DETAIL
  6
CONTINUOUS
 62
     5
 10
-69.696231000000125
 20
177.40903599999999
 30
0.0
 11
-69.776462000000038
 21
177.4375490000001
 31
0.0
  0
LINE
  8
DETAIL
  6
CONTINUOUS
 62
     5
 10
-69.776462000000038
 20
177.4375490000001
 30
0.0
 11
-69.863068000000112
 21
177.46061300000011
 31
0.0
  0
LINE
  8
DETAIL
  6
CONTINUOUS
 62
     5
 10
-69.863068000000112
 20
177.46061300000011
 30
0.0
 11
-69.955895000000055
 21
177.478217
 31
0.0
  0
LINE
  8
DETAIL
  6
CONTINUOUS
 62
     5
 10
-69.955895000000055
 20
177.478217
 30
0.0
 11
-70.055005000000165
 21
177.49055400000009
 31
0.0
  0
LINE
  8
DETAIL
  6
CONTINUOUS
 62
     5
 10
-70.055005000000165
 20
177.49055400000009
 30
0.0
 11
-70.160347000000002
 21
177.497839
 31
0.0
  0
LINE
  8
DETAIL
  6
CONTINUOUS
 62
     5
 10
-70.160347000000002
 20
177.497839
 30
0.0
 11
-70.271787000000131
 21
177.5
 31
0.0
  0
LINE
  8
OUTLINE
  6
CONTINUOUS
 62
     3
 10
-69.104364000000032
 20
175.5
 30
0.0
 11
-69.104364000000032
 21
181.62
 31
0.0
  0
LINE
  8
DETAIL
  6
CONTINUOUS
 62
     5
 10
-69.104364000000032
 20
175.5
 30
0.0
 11
-69.104364000000032
 21
181.62
 31
0.0
  0
ARC
  8
DETAIL
  6
CONTINUOUS
 62
     5
 10
-70.104364000000032
 20
176.5
 30
0.0
 40
1.0
 50
0.0
 51
56.668441999999381
  0
LINE
  8
OUTLINE
  6
CONTINUOUS
 62
     3
 10
-94.104364000000032
 20
177.5
 30
0.0
 11
-96.936331999999993
 21
177.5
 31
0.0
  0
LINE
  8
DETAIL
  6
CONTINUOUS
 62
     5
 10
-70.271787000000131
 20
177.5
 30
0.0
 11
-96.936331999999993
 21
177.5
 31
0.0
  0
LINE
  8
DETAIL
  6
CONTINUOUS
 62
     5
 10
-83.684314000000086
 20
175.5
 30
0.0
 11
-86.747677000000067
 21
0.0
 31
0.0
  0
ARC
  8
OUTLINE
  6
CONTINUOUS
 62
     3
 10
-96.936331999999993
 20
175.49999700000001
 30
0.0
 40
2.0
 50
90.0
 51
178.9999109999959
  0
ARC
  8
DETAIL
  6
CONTINUOUS
 62
     5
 10
-96.936331999999993
 20
175.49999600000001
 30
0.0
 40
2.0
 50
90.0
 51
178.9999109999959
  0
LINE
  8
OUTLINE
  6
CONTINUOUS
 62
     3
 10
-94.104364000000032
 20
177.5
 30
0.0
 11
-94.104364000000032
 21
181.62
 31
0.0
  0
LINE
  8
DETAIL
  6
CONTINUOUS
 62
     5
 10
-94.104364000000032
 20
177.5
 30
0.0
 11
-94.104364000000032
 21
181.62
 31
0.0
  0
ARC
  8
OUTLINE
  6
CONTINUOUS
 62
     3
 10
-93.224364000000151
 20
181.62
 30
0.0
 40
0.88
 50
90.0
 51
180.0
  0
ARC
  8
DETAIL
  6
CONTINUOUS
 62
     5
 10
-93.224364000000151
 20
181.62
 30
0.0
 40
0.88
 50
90.0
 51
180.0
  0
LINE
  8
OUTLINE
  6
CONTINUOUS
 62
     3
 10
-171.07499800000019
 20
56.944294000000014
 30
0.0
 11
-168.91178000000011
 21
54.781077000000039
 31
0.0
  0
LINE
  8
DETAIL
  6
CONTINUOUS
 62
     5
 10
-171.07499800000019
 20
56.944294000000014
 30
0.0
 11
-168.91178000000011
 21
54.781076000000098
 31
0.0
  0
LINE
  8
OUTLINE
  6
CONTINUOUS
 62
     3
 10
-171.07499800000019
 20
156.55570599999999
 30
0.0
 11
-168.91178000000011
 21
158.71892399999999
 31
0.0
  0
LINE
  8
DETAIL
  6
CONTINUOUS
 62
     5
 10
-171.07499800000019
 20
156.55570599999999
 30
0.0
 11
-168.91178000000011
 21
158.71892299999999
 31
0.0
  0
ARC
  8
OUTLINE
  6
CONTINUOUS
 62
     3
 10
-172.4892110000001
 20
55.530079999999998
 30
0.0
 40
2.0
 50
45.000005000000563
 51
89.500000000001947
  0
ARC
  8
DETAIL
  6
CONTINUOUS
 62
     5
 10
-172.4892110000001
 20
55.530079999999998
 30
0.0
 40
2.0
 50
45.000005000000563
 51
89.500000000001947
  0
ARC
  8
OUTLINE
  6
CONTINUOUS
 62
     3
 10
-167.49756600000009
 20
56.195290000000057
 30
0.0
 40
2.0
 50
225.00000500000061
 51
268.99999999999818
  0
ARC
  8
DETAIL
  6
CONTINUOUS
 62
     5
 10
-167.49756600000009
 20
56.19529
 30
0.0
 40
2.0
 50
225.00000500000061
 51
268.99999999999818
  0
ARC
  8
OUTLINE
  6
CONTINUOUS
 62
     3
 10
-211.50436400000001
 20
58.370656000000047
 30
0.0
 40
0.5
 50
179.99999899999861
 51
269.50000000000188
  0
ARC
  8
DETAIL
  6
CONTINUOUS
 62
     5
 10
-211.50436400000001
 20
58.370655000000063
 30
0.0
 40
0.5
 50
179.99999899999861
 51
269.50000000000188
  0
ARC
  8
OUTLINE
  6
CONTINUOUS
 62
     3
 10
-172.4892110000001
 20
157.96992
 30
0.0
 40
2.0
 50
270.49999999999812
 51
314.99999499999939
  0
ARC
  8
DETAIL
  6
CONTINUOUS
 62
     5
 10
-172.4892110000001
 20
157.969919
 30
0.0
 40
2.0
 50
270.49999999999812
 51
314.99999499999939
  0
ARC
  8
OUTLINE
  6
CONTINUOUS
 62
     3
 10
-167.49756600000009
 20
157.30471
 30
0.0
 40
2.0
 50
91.000000000001776
 51
134.99999499999939
  0
ARC
  8
DETAIL
  6
CONTINUOUS
 62
     5
 10
-167.49756600000009
 20
157.304709
 30
0.0
 40
2.0
 50
91.000000000001776
 51
134.99999499999939
  0
LINE
  8
OUTLINE
  6
CONTINUOUS
 62
     3
 10
-172.47175800000011
 20
155.96999600000001
 30
0.0
 11
-211.50872799999999
 21
155.62932599999999
 31
0.0
  0
LINE
  8
DETAIL
  6
CONTINUOUS
 62
     5
 10
-172.47175800000011
 20
155.96999500000001
 30
0.0
 11
-211.50872799999999
 21
155.62932499999999
 31
0.0
  0
LINE
  8
OUTLINE
  6
CONTINUOUS
 62
     3
 10
-142.00436400000009
 20
159.75
 30
0.0
 11
-167.5324710000001
 21
159.304405
 31
0.0
  0
LINE
  8
DETAIL
  6
CONTINUOUS
 62
     5
 10
-142.00436400000009
 20
159.75
 30
0.0
 11
-167.5324710000001
 21
159.304405
 31
0.0
  0
LINE
  8
OUTLINE
  6
CONTINUOUS
 62
     3
 10
-172.47175800000011
 20
57.530004000000019
 30
0.0
 11
-211.50872799999999
 21
57.870675000000062
 31
0.0
  0
LINE
  8
OUTLINE
  6
CONTINUOUS
 62
     3
 10
-25.450000000000049
 20
172.0
 30
0.0
 11
-25.450000000000049
 21
149.5
 31
0.0
  0
LINE
  8
DETAIL
  6
CONTINUOUS
 62
     5
 10
-25.450000000000049
 20
172.0
 30
0.0
 11
-25.450000000000049
 21
149.5
 31
0.0
  0
ARC
  8
OUTLINE
  6
CONTINUOUS
 62
     3
 10
-19.950000000000049
 20
172.0
 30
0.0
 40
5.5
 50
90.0
 51
180.0
  0
ARC
  8
DETAIL
  6
CONTINUOUS
 62
     5
 10
-19.950000000000049
 20
172.0
 30
0.0
 40
5.5
 50
90.0
 51
180.0
  0
LINE
  8
OUTLINE
  6
CONTINUOUS
 62
     3
 10
37.449999999999932
 20
172.0
 30
0.0
 11
37.449999999999932
 21
153.89864900000001
 31
0.0
  0
LINE
  8
DETAIL
  6
CONTINUOUS
 62
     5
 10
37.449999999999932
 20
172.0
 30
0.0
 11
37.449999999999932
 21
153.89864800000001
 31
0.0
  0
ARC
  8
OUTLINE
  6
CONTINUOUS
 62
     3
 10
31.949999999999928
 20
172.0
 30
0.0
 40
5.5
 50
0.0
 51
90.0
  0
ARC
  8
DETAIL
  6
CONTINUOUS
 62
     5
 10
31.949999999999928
 20
172.0
 30
0.0
 40
5.5
 50
0.0
 51
90.0
  0
LINE
  8
OUTLINE
  6
CONTINUOUS
 62
     3
 10
-19.94996400000014
 20
177.5
 30
0.0
 11
31.949865999999929
 21
177.5
 31
0.0
  0
LINE
  8
DETAIL
  6
CONTINUOUS
 62
     5
 10
-19.94996400000014
 20
177.5
 30
0.0
 11
31.949865999999929
 21
177.5
 31
0.0
  0
ARC
  8
OUTLINE
  6
CONTINUOUS
 62
     3
 10
-135.8947160000001
 20
-14.200000000000051
 30
0.0
 40
0.8
 50
226.49999999999801
 51
270.0
  0
ARC
  8
DETAIL
  6
CONTINUOUS
 62
     5
 10
-135.8947160000001
 20
-14.19999999999993
 30
0.0
 40
0.8
 50
226.49999999999801
 51
270.0
  0
LINE
  8
OUTLINE
  6
CONTINUOUS
 62
     3
 10
-143.00000000000011
 20
0.0000000000000568
 30
0.0
 11
-142.53416400000009
 21
-8.8886989999999741
 31
0.0
  0
LINE
  8
DETAIL
  6
CONTINUOUS
 62
     5
 10
-143.00000000000011
 20
0.0
 30
0.0
 11
-142.53416400000009
 21
-8.8886989999999741
 31
0.0
  0
LINE
  8
OUTLINE
  6
CONTINUOUS
 62
     3
 10
-136.44540000000009
 20
-14.78029900000001
 30
0.0
 11
-142.4410810000002
 21
-9.0906099999999697
 31
0.0
  0
LINE
  8
DETAIL
  6
CONTINUOUS
 62
     5
 10
-136.44540000000009
 20
-14.780300000000009
 30
0.0
 11
-142.4410810000002
 21
-9.0906109999999671
 31
0.0
  0
ARC
  8
OUTLINE
  6
CONTINUOUS
 62
     3
 10
-142.23457500000021
 20
-8.8729979999999387
 30
0.0
 40
0.3
 50
182.99999999999909
 51
226.49999999999801
  0
ARC
  8
DETAIL
  6
CONTINUOUS
 62
     5
 10
-142.23457500000021
 20
-8.8729990000000498
 30
0.0
 40
0.3
 50
182.99999999999909
 51
226.49999999999801
  0
ARC
  8
OUTLINE
  6
CONTINUOUS
 62
     3
 10
135.89471499999991
 20
-14.200000000000051
 30
0.0
 40
0.8
 50
270.0
 51
313.50000000000188
  0
ARC
  8
DETAIL
  6
CONTINUOUS
 62
     5
 10
135.89471499999991
 20
-14.19999999999993
 30
0.0
 40
0.8
 50
270.0
 51
313.50000000000188
  0
LINE
  8
OUTLINE
  6
CONTINUOUS
 62
     3
 10
143.0
 20
0.0000000000000568
 30
0.0
 11
142.53416299999981
 21
-8.8886989999999741
 31
0.0
  0
LINE
  8
DETAIL
  6
CONTINUOUS
 62
     5
 10
143.0
 20
0.0
 30
0.0
 11
142.53416299999981
 21
-8.8886989999999741
 31
0.0
  0
LINE
  8
OUTLINE
  6
CONTINUOUS
 62
     3
 10
136.44539900000001
 20
-14.78029900000001
 30
0.0
 11
142.4410800000002
 21
-9.0906099999999697
 31
0.0
  0
LINE
  8
DETAIL
  6
CONTINUOUS
 62
     5
 10
136.44539900000001
 20
-14.780300000000009
 30
0.0
 11
142.4410800000002
 21
-9.0906109999999671
 31
0.0
  0
ARC
  8
OUTLINE
  6
CONTINUOUS
 62
     3
 10
142.23457400000009
 20
-8.8729979999999387
 30
0.0
 40
0.3
 50
313.50000000000188
 51
357.00000000000091
  0
ARC
  8
DETAIL
  6
CONTINUOUS
 62
     5
 10
142.23457400000009
 20
-8.8729990000000498
 30
0.0
 40
0.3
 50
313.50000000000188
 51
357.00000000000091
  0
LINE
  8
OUTLINE
  6
CONTINUOUS
 62
     3
 10
135.89471499999991
 20
-15.0
 30
0.0
 11
-135.8947160000001
 21
-15.0
 31
0.0
  0
LINE
  8
DETAIL
  6
CONTINUOUS
 62
     5
 10
135.89471499999991
 20
-15.0
 30
0.0
 11
-135.8947160000001
 21
-15.0
 31
0.0
  0
LINE
  8
DETAIL
  6
CONTINUOUS
 62
     5
 10
142.50236899999979
 20
-9.0082229999999299
 30
0.0
 11
-142.50237000000001
 21
-9.0082229999999299
 31
0.0
  0
LINE
  8
OUTLINE
  6
CONTINUOUS
 62
     3
 10
143.0
 20
0.0000000000000568
 30
0.0
 11
101.75
 21
0.0000000000000568
 31
0.0
  0
LINE
  8
DETAIL
  6
CONTINUOUS
 62
     5
 10
143.0
 20
0.0
 30
0.0
 11
-143.00000000000011
 21
0.0
 31
0.0
  0
ARC
  8
OUTLINE
  6
CONTINUOUS
 62
     3
 10
-74.668100000000095
 20
164.50053299999999
 30
0.0
 40
2.0
 50
0.9999999999952488
 51
90.0
  0
ARC
  8
DETAIL
  6
CONTINUOUS
 62
     5
 10
-74.668100000000095
 20
164.50053299999999
 30
0.0
 40
2.0
 50
0.9999999999952488
 51
90.0
  0
LINE
  8
OUTLINE
  6
CONTINUOUS
 62
     3
 10
-72.40596000000005
 20
149.5
 30
0.0
 11
-72.668405000000121
 21
164.535438
 31
0.0
  0
LINE
  8
DETAIL
  6
CONTINUOUS
 62
     5
 10
-72.40596000000005
 20
149.5
 30
0.0
 11
-72.668405000000121
 21
164.535437
 31
0.0
  0
LINE
  8
OUTLINE
  6
CONTINUOUS
 62
     3
 10
-74.668100000000095
 20
166.50053299999999
 30
0.0
 11
-76.340163000000075
 21
166.50043600000001
 31
0.0
  0
LINE
  8
DETAIL
  6
CONTINUOUS
 62
     5
 10
-74.668100000000095
 20
166.50053299999999
 30
0.0
 11
-76.340163000000075
 21
166.50043500000001
 31
0.0
  0
LINE
  8
OUTLINE
  6
CONTINUOUS
 62
     3
 10
-76.340162000000078
 20
166.50040899999999
 30
0.0
 11
-76.532639000000017
 21
170.0
 31
0.0
  0
LINE
  8
DETAIL
  6
CONTINUOUS
 62
     5
 10
-76.340162000000078
 20
166.50040799999999
 30
0.0
 11
-76.532639000000017
 21
170.0
 31
0.0
  0
LINE
  8
OUTLINE
  6
CONTINUOUS
 62
     3
 10
-76.532639000000017
 20
170.0
 30
0.0
 11
-76.532639000000017
 21
175.5
 31
0.0
  0
LINE
  8
DETAIL
  6
CONTINUOUS
 62
     5
 10
-76.532639000000017
 20
170.0
 30
0.0
 11
-76.532639000000017
 21
175.5
 31
0.0
  0
LINE
  8
OUTLINE
  6
CONTINUOUS
 62
     3
 10
-80.548204000000055
 20
195.0
 30
0.0
 11
-87.017074999999977
 21
195.0
 31
0.0
  0
LINE
  8
DETAIL
  6
CONTINUOUS
 62
     5
 10
-80.548204000000055
 20
195.0
 30
0.0
 11
-87.017074999999977
 21
195.0
 31
0.0
  0
LINE
  8
OUTLINE
  6
CONTINUOUS
 62
     3
 10
-89.001631000000089
 20
193.24807000000001
 30
0.0
 11
-90.345139000000017
 21
182.5
 31
0.0
  0
LINE
  8
DETAIL
  6
CONTINUOUS
 62
     5
 10
-89.001631000000089
 20
193.24806899999999
 30
0.0
 11
-90.345139000000017
 21
182.5
 31
0.0
  0
LINE
  8
OUTLINE
  6
CONTINUOUS
 62
     3
 10
-77.220139000000017
 20
182.5
 30
0.0
 11
-78.563648000000057
 21
193.24807000000001
 31
0.0
  0
LINE
  8
DETAIL
  6
CONTINUOUS
 62
     5
 10
-77.220139000000017
 20
182.5
 30
0.0
 11
-78.563648000000057
 21
193.24806899999999
 31
0.0
  0
ARC
  8
OUTLINE
  6
CONTINUOUS
 62
     3
 10
-87.017074999999977
 20
193.0
 30
0.0
 40
2.0
 50
90.0
 51
172.87498399999691
  0
ARC
  8
DETAIL
  6
CONTINUOUS
 62
     5
 10
-87.017074999999977
 20
193.0
 30
0.0
 40
2.0
 50
90.0
 51
172.87498399999691
  0
ARC
  8
OUTLINE
  6
CONTINUOUS
 62
     3
 10
-80.548204000000055
 20
193.0
 30
0.0
 40
2.0
 50
7.1250160000031721
 51
90.0
  0
ARC
  8
DETAIL
  6
CONTINUOUS
 62
     5
 10
-80.548204000000055
 20
193.0
 30
0.0
 40
2.0
 50
7.1250160000031721
 51
90.0
  0
LINE
  8
OUTLINE
  6
CONTINUOUS
 62
     3
 10
98.737300999999889
 20
60.000000000000057
 30
0.0
 11
95.686636999999791
 21
60.000000000000057
 31
0.0
  0
LINE
  8
DETAIL
  6
CONTINUOUS
 62
     5
 10
98.737300999999889
 20
60.0
 30
0.0
 11
95.686636999999791
 21
60.0
 31
0.0
  0
LINE
  8
OUTLINE
  6
CONTINUOUS
 62
     3
 10
92.307367999999769
 20
141.0
 30
0.0
 11
79.000931999999921
 21
141.0
 31
0.0
  0
LINE
  8
DETAIL
  6
CONTINUOUS
 62
     5
 10
92.307367999999769
 20
141.0
 30
0.0
 11
79.000931999999921
 21
141.0
 31
0.0
  0
LINE
  8
OUTLINE
  6
CONTINUOUS
 62
     3
 10
-72.40596000000005
 20
149.5
 30
0.0
 11
-25.450000000000049
 21
149.5
 31
0.0
  0
LINE
  8
DETAIL
  6
CONTINUOUS
 62
     5
 10
-72.40596000000005
 20
149.5
 30
0.0
 11
34.151147999999921
 21
149.5
 31
0.0
  0
LINE
  8
OUTLINE
  6
CONTINUOUS
 62
     3
 10
52.194156999999898
 20
195.0
 30
0.0
 11
53.709096000000052
 21
195.0
 31
0.0
  0
LINE
  8
DETAIL
  6
CONTINUOUS
 62
     5
 10
52.194156999999898
 20
195.0
 30
0.0
 11
53.709096000000052
 21
195.0
 31
0.0
  0
LINE
  8
DETAIL
  6
CONTINUOUS
 62
     5
 10
34.151294000000007
 20
149.50000299999999
 30
0.0
 11
34.305027999999993
 21
149.5039410000002
 31
0.0
  0
LINE
  8
OUTLINE
  6
CONTINUOUS
 62
     3
 10
46.380867999999957
 20
162.50000499999999
 30
0.0
 11
46.480110999999852
 21
162.50586100000001
 31
0.0
  0
LINE
  8
DETAIL
  6
CONTINUOUS
 62
     5
 10
46.380867999999957
 20
162.50000499999999
 30
0.0
 11
46.480110999999852
 21
162.50586100000001
 31
0.0
  0
LINE
  8
OUTLINE
  6
CONTINUOUS
 62
     3
 10
46.480110999999852
 20
162.50586100000001
 30
0.0
 11
46.610858000000007
 21
162.53241700000001
 31
0.0
  0
LINE
  8
DETAIL
  6
CONTINUOUS
 62
     5
 10
46.480110999999852
 20
162.50586100000001
 30
0.0
 11
46.610858000000007
 21
162.53241600000001
 31
0.0
  0
LINE
  8
OUTLINE
  6
CONTINUOUS
 62
     3
 10
46.610858000000007
 20
162.53241700000001
 30
0.0
 11
46.734481999999844
 21
162.57820799999999
 31
0.0
  0
LINE
  8
DETAIL
  6
CONTINUOUS
 62
     5
 10
46.610858000000007
 20
162.53241600000001
 30
0.0
 11
46.734481999999844
 21
162.57820699999999
 31
0.0
  0
LINE
  8
OUTLINE
  6
CONTINUOUS
 62
     3
 10
46.734481999999844
 20
162.57820799999999
 30
0.0
 11
46.854311999999943
 21
162.64259100000001
 31
0.0
  0
LINE
  8
DETAIL
  6
CONTINUOUS
 62
     5
 10
46.734481999999844
 20
162.57820699999999
 30
0.0
 11
46.854311999999943
 21
162.64259100000001
 31
0.0
  0
LINE
  8
OUTLINE
  6
CONTINUOUS
 62
     3
 10
46.854311999999943
 20
162.64259100000001
 30
0.0
 11
46.972315999999857
 21
162.72599600000001
 31
0.0
  0
LINE
  8
DETAIL
  6
CONTINUOUS
 62
     5
 10
46.854311999999943
 20
162.64259100000001
 30
0.0
 11
46.972315999999857
 21
162.72599600000001
 31
0.0
  0
LINE
  8
OUTLINE
  6
CONTINUOUS
 62
     3
 10
46.972315999999857
 20
162.72599600000001
 30
0.0
 11
47.087935000000023
 21
162.827957
 31
0.0
  0
LINE
  8
DETAIL
  6
CONTINUOUS
 62
     5
 10
46.972315999999857
 20
162.72599600000001
 30
0.0
 11
47.087935000000023
 21
162.827956
 31
0.0
  0
LINE
  8
OUTLINE
  6
CONTINUOUS
 62
     3
 10
47.087935000000023
 20
162.827957
 30
0.0
 11
47.201047999999901
 21
162.94835499999999
 31
0.0
  0
LINE
  8
DETAIL
  6
CONTINUOUS
 62
     5
 10
47.087935000000023
 20
162.827956
 30
0.0
 11
47.201047999999901
 21
162.94835399999999
 31
0.0
  0
LINE
  8
OUTLINE
  6
CONTINUOUS
 62
     3
 10
47.201047999999901
 20
162.94835499999999
 30
0.0
 11
47.311336999999867
 21
163.087073
 31
0.0
  0
LINE
  8
DETAIL
  6
CONTINUOUS
 62
     5
 10
47.201047999999901
 20
162.94835399999999
 30
0.0
 11
47.311336999999867
 21
163.08707200000001
 31
0.0
  0
LINE
  8
OUTLINE
  6
CONTINUOUS
 62
     3
 10
47.311336999999867
 20
163.087073
 30
0.0
 11
47.418686999999863
 21
163.2443940000002
 31
0.0
  0
LINE
  8
DETAIL
  6
CONTINUOUS
 62
     5
 10
47.311336999999867
 20
163.08707200000001
 30
0.0
 11
47.418686999999863
 21
163.2443939999998
 31
0.0
  0
LINE
  8
OUTLINE
  6
CONTINUOUS
 62
     3
 10
47.418686999999863
 20
163.2443940000002
 30
0.0
 11
47.52268099999992
 21
163.42037300000001
 31
0.0
  0
LINE
  8
DETAIL
  6
CONTINUOUS
 62
     5
 10
47.418686999999863
 20
163.2443939999998
 30
0.0
 11
47.52268099999992
 21
163.42037199999999
 31
0.0
  0
LINE
  8
OUTLINE
  6
CONTINUOUS
 62
     3
 10
47.52268099999992
 20
163.42037300000001
 30
0.0
 11
47.623303999999962
 21
163.6159319999999
 31
0.0
  0
LINE
  8
DETAIL
  6
CONTINUOUS
 62
     5
 10
47.52268099999992
 20
163.42037199999999
 30
0.0
 11
47.623303999999962
 21
163.61593099999999
 31
0.0
  0
LINE
  8
OUTLINE
  6
CONTINUOUS
 62
     3
 10
47.623303999999962
 20
163.6159319999999
 30
0.0
 11
47.719451999999819
 21
163.82995100000019
 31
0.0
  0
LINE
  8
DETAIL
  6
CONTINUOUS
 62
     5
 10
47.623303999999962
 20
163.61593099999999
 30
0.0
 11
47.719451999999819
 21
163.82994999999991
 31
0.0
  0
LINE
  8
OUTLINE
  6
CONTINUOUS
 62
     3
 10
47.719451999999819
 20
163.82995100000019
 30
0.0
 11
47.810449999999953
 21
164.06171400000019
 31
0.0
  0
LINE
  8
DETAIL
  6
CONTINUOUS
 62
     5
 10
47.719451999999819
 20
163.82994999999991
 30
0.0
 11
47.810449999999953
 21
164.06171299999991
 31
0.0
  0
LINE
  8
OUTLINE
  6
CONTINUOUS
 62
     3
 10
47.810449999999953
 20
164.06171400000019
 30
0.0
 11
47.895622999999887
 21
164.31014200000001
 31
0.0
  0
LINE
  8
DETAIL
  6
CONTINUOUS
 62
     5
 10
47.810449999999953
 20
164.06171299999991
 30
0.0
 11
47.895622999999887
 21
164.3101409999999
 31
0.0
  0
LINE
  8
OUTLINE
  6
CONTINUOUS
 62
     3
 10
47.895622999999887
 20
164.31014200000001
 30
0.0
 11
47.974408000000039
 21
164.57406
 31
0.0
  0
LINE
  8
DETAIL
  6
CONTINUOUS
 62
     5
 10
47.895622999999887
 20
164.3101409999999
 30
0.0
 11
47.974408000000039
 21
164.57405899999981
 31
0.0
  0
LINE
  8
OUTLINE
  6
CONTINUOUS
 62
     3
 10
47.974408000000039
 20
164.57406
 30
0.0
 11
48.046356999999936
 21
164.852251
 31
0.0
  0
LINE
  8
DETAIL
  6
CONTINUOUS
 62
     5
 10
47.974408000000039
 20
164.57405899999981
 30
0.0
 11
48.046356999999936
 21
164.852251
 31
0.0
  0
LINE
  8
OUTLINE
  6
CONTINUOUS
 62
     3
 10
48.046356999999936
 20
164.852251
 30
0.0
 11
48.111073000000033
 21
165.14338000000001
 31
0.0
  0
LINE
  8
DETAIL
  6
CONTINUOUS
 62
     5
 10
48.046356999999936
 20
164.852251
 30
0.0
 11
48.111073000000033
 21
165.14337900000001
 31
0.0
  0
LINE
  8
OUTLINE
  6
CONTINUOUS
 62
     3
 10
48.111073000000033
 20
165.14338000000001
 30
0.0
 11
48.168259999999918
 21
165.44618
 31
0.0
  0
LINE
  8
DETAIL
  6
CONTINUOUS
 62
     5
 10
48.111073000000033
 20
165.14337900000001
 30
0.0
 11
48.168259999999918
 21
165.446179
 31
0.0
  0
LINE
  8
OUTLINE
  6
CONTINUOUS
 62
     3
 10
48.168259999999918
 20
165.44618
 30
0.0
 11
48.217646999999943
 21
165.75920599999981
 31
0.0
  0
LINE
  8
DETAIL
  6
CONTINUOUS
 62
     5
 10
48.168259999999918
 20
165.446179
 30
0.0
 11
48.217646999999943
 21
165.75920600000009
 31
0.0
  0
LINE
  8
OUTLINE
  6
CONTINUOUS
 62
     3
 10
48.217646999999943
 20
165.75920599999981
 30
0.0
 11
48.243803999999948
 21
165.95419100000001
 31
0.0
  0
LINE
  8
DETAIL
  6
CONTINUOUS
 62
     5
 10
48.217646999999943
 20
165.75920600000009
 30
0.0
 11
48.243803999999948
 21
165.95419000000001
 31
0.0
  0
LINE
  8
DETAIL
  6
CONTINUOUS
 62
     5
 10
34.305027999999993
 20
149.5039410000002
 30
0.0
 11
34.552639999999883
 21
149.52682899999999
 31
0.0
  0
LINE
  8
DETAIL
  6
CONTINUOUS
 62
     5
 10
34.552639999999883
 20
149.52682899999999
 30
0.0
 11
34.796504999999911
 21
149.56992399999999
 31
0.0
  0
LINE
  8
DETAIL
  6
CONTINUOUS
 62
     5
 10
34.796504999999911
 20
149.56992399999999
 30
0.0
 11
35.035865999999942
 21
149.632915
 31
0.0
  0
LINE
  8
DETAIL
  6
CONTINUOUS
 62
     5
 10
35.035865999999942
 20
149.632915
 30
0.0
 11
35.270020999999929
 21
149.715476
 31
0.0
  0
LINE
  8
DETAIL
  6
CONTINUOUS
 62
     5
 10
35.270020999999929
 20
149.715476
 30
0.0
 11
35.498168999999962
 21
149.817171
 31
0.0
  0
LINE
  8
DETAIL
  6
CONTINUOUS
 62
     5
 10
35.498168999999962
 20
149.817171
 30
0.0
 11
35.719564999999868
 21
149.93752200000009
 31
0.0
  0
LINE
  8
DETAIL
  6
CONTINUOUS
 62
     5
 10
35.719564999999868
 20
149.93752200000009
 30
0.0
 11
35.933449999999993
 21
150.0759240000001
 31
0.0
  0
LINE
  8
DETAIL
  6
CONTINUOUS
 62
     5
 10
35.933449999999993
 20
150.0759240000001
 30
0.0
 11
36.139079999999922
 21
150.23168700000019
 31
0.0
  0
LINE
  8
DETAIL
  6
CONTINUOUS
 62
     5
 10
36.139079999999922
 20
150.23168700000019
 30
0.0
 11
36.335810999999921
 21
150.404056
 31
0.0
  0
LINE
  8
OUTLINE
  6
CONTINUOUS
 62
     3
 10
51.631617999999889
 20
194.68141
 30
0.0
 11
51.676701999999977
 21
194.73849400000009
 31
0.0
  0
LINE
  8
DETAIL
  6
CONTINUOUS
 62
     5
 10
51.631617999999889
 20
194.68140899999989
 30
0.0
 11
51.676701999999977
 21
194.73849299999981
 31
0.0
  0
LINE
  8
OUTLINE
  6
CONTINUOUS
 62
     3
 10
51.676701999999977
 20
194.73849400000009
 30
0.0
 11
51.726909999999862
 21
194.79323299999999
 31
0.0
  0
LINE
  8
DETAIL
  6
CONTINUOUS
 62
     5
 10
51.676701999999977
 20
194.73849299999981
 30
0.0
 11
51.726909999999862
 21
194.79323299999999
 31
0.0
  0
LINE
  8
OUTLINE
  6
CONTINUOUS
 62
     3
 10
51.726909999999862
 20
194.79323299999999
 30
0.0
 11
51.783708999999817
 21
194.84523100000001
 31
0.0
  0
LINE
  8
DETAIL
  6
CONTINUOUS
 62
     5
 10
51.726909999999862
 20
194.79323299999999
 30
0.0
 11
51.783708999999817
 21
194.84523100000001
 31
0.0
  0
LINE
  8
OUTLINE
  6
CONTINUOUS
 62
     3
 10
51.783708999999817
 20
194.84523100000001
 30
0.0
 11
51.849224999999933
 21
194.89384799999991
 31
0.0
  0
LINE
  8
DETAIL
  6
CONTINUOUS
 62
     5
 10
51.783708999999817
 20
194.84523100000001
 30
0.0
 11
51.849224999999933
 21
194.89384700000011
 31
0.0
  0
LINE
  8
OUTLINE
  6
CONTINUOUS
 62
     3
 10
51.849224999999933
 20
194.89384799999991
 30
0.0
 11
51.923957999999857
 21
194.93652900000009
 31
0.0
  0
LINE
  8
DETAIL
  6
CONTINUOUS
 62
     5
 10
51.849224999999933
 20
194.89384700000011
 30
0.0
 11
51.923957999999857
 21
194.93652900000009
 31
0.0
  0
LINE
  8
OUTLINE
  6
CONTINUOUS
 62
     3
 10
51.923957999999857
 20
194.93652900000009
 30
0.0
 11
52.009137999999894
 21
194.97084300000009
 31
0.0
  0
LINE
  8
DETAIL
  6
CONTINUOUS
 62
     5
 10
51.923957999999857
 20
194.93652900000009
 30
0.0
 11
52.009137999999894
 21
194.97084200000009
 31
0.0
  0
LINE
  8
OUTLINE
  6
CONTINUOUS
 62
     3
 10
52.009137999999894
 20
194.97084300000009
 30
0.0
 11
52.101830999999947
 21
194.99282400000001
 31
0.0
  0
LINE
  8
DETAIL
  6
CONTINUOUS
 62
     5
 10
52.009137999999894
 20
194.97084200000009
 30
0.0
 11
52.101830999999947
 21
194.99282400000001
 31
0.0
  0
LINE
  8
OUTLINE
  6
CONTINUOUS
 62
     3
 10
52.101830999999947
 20
194.99282400000001
 30
0.0
 11
52.192125999999917
 21
194.99999299999999
 31
0.0
  0
LINE
  8
DETAIL
  6
CONTINUOUS
 62
     5
 10
52.101830999999947
 20
194.99282400000001
 30
0.0
 11
52.192125999999917
 21
194.99999199999999
 31
0.0
  0
LINE
  8
OUTLINE
  6
CONTINUOUS
 62
     3
 10
51.628408000000043
 20
194.67703800000001
 30
0.0
 11
51.673121999999921
 21
194.73424600000001
 31
0.0
  0
LINE
  8
DETAIL
  6
CONTINUOUS
 62
     5
 10
51.628408000000043
 20
194.67703700000001
 30
0.0
 11
51.673121999999921
 21
194.73424600000001
 31
0.0
  0
LINE
  8
OUTLINE
  6
CONTINUOUS
 62
     3
 10
51.673121999999921
 20
194.73424600000001
 30
0.0
 11
51.72283299999981
 21
194.78911099999999
 31
0.0
  0
LINE
  8
DETAIL
  6
CONTINUOUS
 62
     5
 10
51.673121999999921
 20
194.73424600000001
 30
0.0
 11
51.72283299999981
 21
194.78911000000011
 31
0.0
  0
LINE
  8
OUTLINE
  6
CONTINUOUS
 62
     3
 10
51.72283299999981
 20
194.78911099999999
 30
0.0
 11
51.778994000000012
 21
194.841283
 31
0.0
  0
LINE
  8
DETAIL
  6
CONTINUOUS
 62
     5
 10
51.72283299999981
 20
194.78911000000011
 30
0.0
 11
51.778994000000012
 21
194.84128300000009
 31
0.0
  0
LINE
  8
OUTLINE
  6
CONTINUOUS
 62
     3
 10
51.778994000000012
 20
194.841283
 30
0.0
 11
51.84370100000001
 21
194.890176
 31
0.0
  0
LINE
  8
DETAIL
  6
CONTINUOUS
 62
     5
 10
51.778994000000012
 20
194.84128300000009
 30
0.0
 11
51.84370100000001
 21
194.890176
 31
0.0
  0
LINE
  8
OUTLINE
  6
CONTINUOUS
 62
     3
 10
51.84370100000001
 20
194.890176
 30
0.0
 11
51.917539000000033
 21
194.93334999999999
 31
0.0
  0
LINE
  8
DETAIL
  6
CONTINUOUS
 62
     5
 10
51.84370100000001
 20
194.890176
 30
0.0
 11
51.917539000000033
 21
194.93334899999999
 31
0.0
  0
LINE
  8
OUTLINE
  6
CONTINUOUS
 62
     3
 10
51.917539000000033
 20
194.93334999999999
 30
0.0
 11
52.001836999999803
 21
194.9684520000001
 31
0.0
  0
LINE
  8
DETAIL
  6
CONTINUOUS
 62
     5
 10
51.917539000000033
 20
194.93334899999999
 30
0.0
 11
52.001836999999803
 21
194.9684520000001
 31
0.0
  0
LINE
  8
OUTLINE
  6
CONTINUOUS
 62
     3
 10
52.001836999999803
 20
194.9684520000001
 30
0.0
 11
52.093816999999937
 21
194.99152000000001
 31
0.0
  0
LINE
  8
DETAIL
  6
CONTINUOUS
 62
     5
 10
52.001836999999803
 20
194.9684520000001
 30
0.0
 11
52.093816999999937
 21
194.99151900000001
 31
0.0
  0
LINE
  8
OUTLINE
  6
CONTINUOUS
 62
     3
 10
52.093816999999937
 20
194.99152000000001
 30
0.0
 11
52.192094999999881
 21
194.99999299999999
 31
0.0
  0
LINE
  8
DETAIL
  6
CONTINUOUS
 62
     5
 10
52.093816999999937
 20
194.99151900000001
 30
0.0
 11
52.192094999999881
 21
194.99999199999999
 31
0.0
  0
LINE
  8
OUTLINE
  6
CONTINUOUS
 62
     3
 10
51.587274999999863
 20
194.61715599999999
 30
0.0
 11
51.631617999999889
 21
194.68141
 31
0.0
  0
LINE
  8
DETAIL
  6
CONTINUOUS
 62
     5
 10
51.587274999999863
 20
194.617155
 30
0.0
 11
51.631617999999889
 21
194.68140899999989
 31
0.0
  0
LINE
  8
OUTLINE
  6
CONTINUOUS
 62
     3
 10
51.548575999999912
 20
194.553957
 30
0.0
 11
51.590211999999838
 21
194.62167600000001
 31
0.0
  0
LINE
  8
DETAIL
  6
CONTINUOUS
 62
     5
 10
51.548575999999912
 20
194.55395600000011
 30
0.0
 11
51.590211999999838
 21
194.62167500000001
 31
0.0
  0
LINE
  8
OUTLINE
  6
CONTINUOUS
 62
     3
 10
38.885237999999838
 20
159.35244599999999
 30
0.0
 11
38.978715999999849
 21
159.6463160000001
 31
0.0
  0
LINE
  8
DETAIL
  6
CONTINUOUS
 62
     5
 10
38.885237999999838
 20
159.3524450000001
 30
0.0
 11
38.978715999999849
 21
159.6463160000001
 31
0.0
  0
LINE
  8
OUTLINE
  6
CONTINUOUS
 62
     3
 10
38.978715999999849
 20
159.6463160000001
 30
0.0
 11
39.085671999999931
 21
159.932051
 31
0.0
  0
LINE
  8
DETAIL
  6
CONTINUOUS
 62
     5
 10
38.978715999999849
 20
159.6463160000001
 30
0.0
 11
39.085671999999931
 21
159.93205
 31
0.0
  0
LINE
  8
OUTLINE
  6
CONTINUOUS
 62
     3
 10
39.085671999999931
 20
159.932051
 30
0.0
 11
39.205596000000007
 21
160.20821799999999
 31
0.0
  0
LINE
  8
DETAIL
  6
CONTINUOUS
 62
     5
 10
39.085671999999931
 20
159.93205
 30
0.0
 11
39.205596000000007
 21
160.2082180000001
 31
0.0
  0
LINE
  8
OUTLINE
  6
CONTINUOUS
 62
     3
 10
39.205596000000007
 20
160.20821799999999
 30
0.0
 11
39.337947999999869
 21
160.47354300000009
 31
0.0
  0
LINE
  8
DETAIL
  6
CONTINUOUS
 62
     5
 10
39.205596000000007
 20
160.2082180000001
 30
0.0
 11
39.337947999999869
 21
160.47354299999981
 31
0.0
  0
LINE
  8
OUTLINE
  6
CONTINUOUS
 62
     3
 10
39.337947999999869
 20
160.47354300000009
 30
0.0
 11
39.482071999999789
 21
160.72674100000009
 31
0.0
  0
LINE
  8
DETAIL
  6
CONTINUOUS
 62
     5
 10
39.337947999999869
 20
160.47354299999981
 30
0.0
 11
39.482071999999789
 21
160.72673999999981
 31
0.0
  0
LINE
  8
OUTLINE
  6
CONTINUOUS
 62
     3
 10
39.482071999999789
 20
160.72674100000009
 30
0.0
 11
39.637263000000083
 21
160.96661000000009
 31
0.0
  0
LINE
  8
DETAIL
  6
CONTINUOUS
 62
     5
 10
39.482071999999789
 20
160.72673999999981
 30
0.0
 11
39.637263000000083
 21
160.96661000000009
 31
0.0
  0
LINE
  8
OUTLINE
  6
CONTINUOUS
 62
     3
 10
39.637263000000083
 20
160.96661000000009
 30
0.0
 11
39.802756000000038
 21
161.19206399999999
 31
0.0
  0
LINE
  8
DETAIL
  6
CONTINUOUS
 62
     5
 10
39.637263000000083
 20
160.96661000000009
 30
0.0
 11
39.802756000000038
 21
161.1920630000001
 31
0.0
  0
LINE
  8
OUTLINE
  6
CONTINUOUS
 62
     3
 10
39.802756000000038
 20
161.19206399999999
 30
0.0
 11
39.977757999999987
 21
161.402098
 31
0.0
  0
LINE
  8
DETAIL
  6
CONTINUOUS
 62
     5
 10
39.802756000000038
 20
161.1920630000001
 30
0.0
 11
39.977757999999987
 21
161.402097
 31
0.0
  0
LINE
  8
OUTLINE
  6
CONTINUOUS
 62
     3
 10
39.977757999999987
 20
161.402098
 30
0.0
 11
40.161415999999917
 21
161.595788
 31
0.0
  0
LINE
  8
DETAIL
  6
CONTINUOUS
 62
     5
 10
39.977757999999987
 20
161.402097
 30
0.0
 11
40.161415999999917
 21
161.59578700000009
 31
0.0
  0
LINE
  8
OUTLINE
  6
CONTINUOUS
 62
     3
 10
40.161415999999917
 20
161.595788
 30
0.0
 11
40.352867999999937
 21
161.7723130000002
 31
0.0
  0
LINE
  8
DETAIL
  6
CONTINUOUS
 62
     5
 10
40.161415999999917
 20
161.59578700000009
 30
0.0
 11
40.352867999999937
 21
161.77231199999991
 31
0.0
  0
LINE
  8
OUTLINE
  6
CONTINUOUS
 62
     3
 10
40.352867999999937
 20
161.7723130000002
 30
0.0
 11
40.551179000000047
 21
161.930915
 31
0.0
  0
LINE
  8
DETAIL
  6
CONTINUOUS
 62
     5
 10
40.352867999999937
 20
161.77231199999991
 30
0.0
 11
40.551179000000047
 21
161.930915
 31
0.0
  0
LINE
  8
OUTLINE
  6
CONTINUOUS
 62
     3
 10
40.551179000000047
 20
161.930915
 30
0.0
 11
40.755428999999822
 21
162.070956
 31
0.0
  0
LINE
  8
DETAIL
  6
CONTINUOUS
 62
     5
 10
40.551179000000047
 20
161.930915
 30
0.0
 11
40.755428999999822
 21
162.070956
 31
0.0
  0
LINE
  8
OUTLINE
  6
CONTINUOUS
 62
     3
 10
40.755428999999822
 20
162.070956
 30
0.0
 11
40.964568999999983
 21
162.1918400000001
 31
0.0
  0
LINE
  8
DETAIL
  6
CONTINUOUS
 62
     5
 10
40.755428999999822
 20
162.070956
 30
0.0
 11
40.964568999999983
 21
162.19183899999999
 31
0.0
  0
LINE
  8
OUTLINE
  6
CONTINUOUS
 62
     3
 10
40.964568999999983
 20
162.1918400000001
 30
0.0
 11
41.177549999999883
 21
162.293105
 31
0.0
  0
LINE
  8
DETAIL
  6
CONTINUOUS
 62
     5
 10
40.964568999999983
 20
162.19183899999999
 30
0.0
 11
41.177549999999883
 21
162.293104
 31
0.0
  0
LINE
  8
OUTLINE
  6
CONTINUOUS
 62
     3
 10
41.177549999999883
 20
162.293105
 30
0.0
 11
41.393194999999878
 21
162.37438900000009
 31
0.0
  0
LINE
  8
DETAIL
  6
CONTINUOUS
 62
     5
 10
41.177549999999883
 20
162.293104
 30
0.0
 11
41.393194999999878
 21
162.3743880000001
 31
0.0
  0
LINE
  8
OUTLINE
  6
CONTINUOUS
 62
     3
 10
41.393194999999878
 20
162.37438900000009
 30
0.0
 11
41.610336999999838
 21
162.43548100000001
 31
0.0
  0
LINE
  8
DETAIL
  6
CONTINUOUS
 62
     5
 10
41.393194999999878
 20
162.3743880000001
 30
0.0
 11
41.610336999999838
 21
162.43548000000001
 31
0.0
  0
LINE
  8
OUTLINE
  6
CONTINUOUS
 62
     3
 10
41.610336999999838
 20
162.43548100000001
 30
0.0
 11
41.827669999999898
 21
162.47632200000001
 31
0.0
  0
LINE
  8
DETAIL
  6
CONTINUOUS
 62
     5
 10
41.610336999999838
 20
162.43548000000001
 30
0.0
 11
41.827669999999898
 21
162.47632100000001
 31
0.0
  0
LINE
  8
OUTLINE
  6
CONTINUOUS
 62
     3
 10
41.827669999999898
 20
162.47632200000001
 30
0.0
 11
42.04368199999999
 21
162.49703600000001
 31
0.0
  0
LINE
  8
DETAIL
  6
CONTINUOUS
 62
     5
 10
41.827669999999898
 20
162.47632100000001
 30
0.0
 11
42.04368199999999
 21
162.49703600000001
 31
0.0
  0
LINE
  8
OUTLINE
  6
CONTINUOUS
 62
     3
 10
42.04368199999999
 20
162.49703600000001
 30
0.0
 11
42.161343999999872
 21
162.49999700000001
 31
0.0
  0
LINE
  8
DETAIL
  6
CONTINUOUS
 62
     5
 10
42.04368199999999
 20
162.49703600000001
 30
0.0
 11
42.161343999999872
 21
162.49999600000001
 31
0.0
  0
LINE
  8
OUTLINE
  6
CONTINUOUS
 62
     3
 10
38.833519000000017
 20
159.16409899999999
 30
0.0
 11
38.885237999999838
 21
159.35244599999999
 31
0.0
  0
LINE
  8
DETAIL
  6
CONTINUOUS
 62
     5
 10
38.833519000000017
 20
159.16409800000019
 30
0.0
 11
38.885237999999838
 21
159.3524450000001
 31
0.0
  0
LINE
  8
OUTLINE
  6
CONTINUOUS
 62
     3
 10
37.449999999999932
 20
153.90852699999999
 30
0.0
 11
37.825775000000021
 21
155.31487999999999
 31
0.0
  0
LINE
  8
DETAIL
  6
CONTINUOUS
 62
     5
 10
37.294547999999963
 20
153.32674299999999
 30
0.0
 11
37.825775000000021
 21
155.31487999999999
 31
0.0
  0
LINE
  8
OUTLINE
  6
CONTINUOUS
 62
     3
 10
37.825775000000021
 20
155.31487999999999
 30
0.0
 11
38.349191999999903
 21
157.301062
 31
0.0
  0
LINE
  8
DETAIL
  6
CONTINUOUS
 62
     5
 10
37.825775000000021
 20
155.31487999999999
 30
0.0
 11
38.349191999999903
 21
157.301061
 31
0.0
  0
LINE
  8
OUTLINE
  6
CONTINUOUS
 62
     3
 10
38.349191999999903
 20
157.301062
 30
0.0
 11
38.833517000000029
 21
159.16410700000009
 31
0.0
  0
LINE
  8
DETAIL
  6
CONTINUOUS
 62
     5
 10
38.349191999999903
 20
157.301061
 30
0.0
 11
38.833517000000029
 21
159.16410600000009
 31
0.0
  0
LINE
  8
OUTLINE
  6
CONTINUOUS
 62
     3
 10
48.243806999999833
 20
165.954204
 30
0.0
 11
48.760389999999923
 21
170.199129
 31
0.0
  0
LINE
  8
DETAIL
  6
CONTINUOUS
 62
     5
 10
48.243806999999833
 20
165.95420300000001
 30
0.0
 11
48.760389999999923
 21
170.199129
 31
0.0
  0
LINE
  8
OUTLINE
  6
CONTINUOUS
 62
     3
 10
48.760389999999923
 20
170.199129
 30
0.0
 11
49.253412000000033
 21
174.52342400000001
 31
0.0
  0
LINE
  8
DETAIL
  6
CONTINUOUS
 62
     5
 10
48.760389999999923
 20
170.199129
 30
0.0
 11
49.253412000000033
 21
174.52342400000009
 31
0.0
  0
LINE
  8
OUTLINE
  6
CONTINUOUS
 62
     3
 10
49.253412000000033
 20
174.52342400000001
 30
0.0
 11
49.709015999999792
 21
178.813716
 31
0.0
  0
LINE
  8
DETAIL
  6
CONTINUOUS
 62
     5
 10
49.253412000000033
 20
174.52342400000009
 30
0.0
 11
49.709015999999792
 21
178.813715
 31
0.0
  0
LINE
  8
OUTLINE
  6
CONTINUOUS
 62
     3
 10
49.709015999999792
 20
178.813716
 30
0.0
 11
50.127449999999953
 21
183.0697200000001
 31
0.0
  0
LINE
  8
DETAIL
  6
CONTINUOUS
 62
     5
 10
49.709015999999792
 20
178.813715
 30
0.0
 11
50.127449999999953
 21
183.0697200000001
 31
0.0
  0
LINE
  8
OUTLINE
  6
CONTINUOUS
 62
     3
 10
50.127449999999953
 20
183.0697200000001
 30
0.0
 11
50.508918999999878
 21
187.29115300000001
 31
0.0
  0
LINE
  8
DETAIL
  6
CONTINUOUS
 62
     5
 10
50.127449999999953
 20
183.0697200000001
 30
0.0
 11
50.508918999999878
 21
187.29115200000001
 31
0.0
  0
LINE
  8
OUTLINE
  6
CONTINUOUS
 62
     3
 10
50.508918999999878
 20
187.29115300000001
 30
0.0
 11
50.854939999999942
 21
191.48881300000011
 31
0.0
  0
LINE
  8
DETAIL
  6
CONTINUOUS
 62
     5
 10
50.508918999999878
 20
187.29115200000001
 30
0.0
 11
50.854939999999942
 21
191.48881200000011
 31
0.0
  0
LINE
  8
OUTLINE
  6
CONTINUOUS
 62
     3
 10
50.854939999999942
 20
191.48881300000011
 30
0.0
 11
50.876614999999902
 21
191.721418
 31
0.0
  0
LINE
  8
DETAIL
  6
CONTINUOUS
 62
     5
 10
50.854939999999942
 20
191.48881200000011
 30
0.0
 11
50.876614999999902
 21
191.721418
 31
0.0
  0
LINE
  8
OUTLINE
  6
CONTINUOUS
 62
     3
 10
50.876614999999902
 20
191.721418
 30
0.0
 11
50.90041599999995
 21
191.94370799999999
 31
0.0
  0
LINE
  8
DETAIL
  6
CONTINUOUS
 62
     5
 10
50.876614999999902
 20
191.721418
 30
0.0
 11
50.90041599999995
 21
191.94370799999999
 31
0.0
  0
LINE
  8
OUTLINE
  6
CONTINUOUS
 62
     3
 10
50.90041599999995
 20
191.94370799999999
 30
0.0
 11
50.926063999999997
 21
192.15582000000009
 31
0.0
  0
LINE
  8
DETAIL
  6
CONTINUOUS
 62
     5
 10
50.90041599999995
 20
191.94370799999999
 30
0.0
 11
50.926063999999997
 21
192.15581900000009
 31
0.0
  0
LINE
  8
OUTLINE
  6
CONTINUOUS
 62
     3
 10
50.926063999999997
 20
192.15582000000009
 30
0.0
 11
50.95329700000002
 21
192.357855
 31
0.0
  0
LINE
  8
DETAIL
  6
CONTINUOUS
 62
     5
 10
50.926063999999997
 20
192.15581900000009
 30
0.0
 11
50.95329700000002
 21
192.357855
 31
0.0
  0
LINE
  8
OUTLINE
  6
CONTINUOUS
 62
     3
 10
50.95329700000002
 20
192.357855
 30
0.0
 11
50.98187699999994
 21
192.54996299999991
 31
0.0
  0
LINE
  8
DETAIL
  6
CONTINUOUS
 62
     5
 10
50.95329700000002
 20
192.357855
 30
0.0
 11
50.98187699999994
 21
192.54996299999991
 31
0.0
  0
LINE
  8
OUTLINE
  6
CONTINUOUS
 62
     3
 10
50.98187699999994
 20
192.54996299999991
 30
0.0
 11
51.011585999999852
 21
192.73234400000001
 31
0.0
  0
LINE
  8
DETAIL
  6
CONTINUOUS
 62
     5
 10
50.98187699999994
 20
192.54996299999991
 30
0.0
 11
51.011585999999852
 21
192.73234400000001
 31
0.0
  0
LINE
  8
OUTLINE
  6
CONTINUOUS
 62
     3
 10
51.011585999999852
 20
192.73234400000001
 30
0.0
 11
51.042228999999907
 21
192.9051959999999
 31
0.0
  0
LINE
  8
DETAIL
  6
CONTINUOUS
 62
     5
 10
51.011585999999852
 20
192.73234400000001
 30
0.0
 11
51.042228999999907
 21
192.90519499999999
 31
0.0
  0
LINE
  8
OUTLINE
  6
CONTINUOUS
 62
     3
 10
51.042228999999907
 20
192.9051959999999
 30
0.0
 11
51.073632999999973
 21
193.06876199999999
 31
0.0
  0
LINE
  8
DETAIL
  6
CONTINUOUS
 62
     5
 10
51.042228999999907
 20
192.90519499999999
 30
0.0
 11
51.073632999999973
 21
193.06876199999999
 31
0.0
  0
LINE
  8
OUTLINE
  6
CONTINUOUS
 62
     3
 10
51.073632999999973
 20
193.06876199999999
 30
0.0
 11
51.105648999999858
 21
193.22333599999999
 31
0.0
  0
LINE
  8
DETAIL
  6
CONTINUOUS
 62
     5
 10
51.073632999999973
 20
193.06876199999999
 30
0.0
 11
51.105648999999858
 21
193.22333599999999
 31
0.0
  0
LINE
  8
OUTLINE
  6
CONTINUOUS
 62
     3
 10
51.105648999999858
 20
193.22333599999999
 30
0.0
 11
51.138150000000003
 21
193.36920000000001
 31
0.0
  0
LINE
  8
DETAIL
  6
CONTINUOUS
 62
     5
 10
51.105648999999858
 20
193.22333599999999
 30
0.0
 11
51.138150000000003
 21
193.36919900000009
 31
0.0
  0
LINE
  8
OUTLINE
  6
CONTINUOUS
 62
     3
 10
51.138150000000003
 20
193.36920000000001
 30
0.0
 11
51.171035999999958
 21
193.50668400000009
 31
0.0
  0
LINE
  8
DETAIL
  6
CONTINUOUS
 62
     5
 10
51.138150000000003
 20
193.36919900000009
 30
0.0
 11
51.171035999999958
 21
193.50668400000009
 31
0.0
  0
LINE
  8
OUTLINE
  6
CONTINUOUS
 62
     3
 10
51.171035999999958
 20
193.50668400000009
 30
0.0
 11
51.20421999999985
 21
193.63610100000011
 31
0.0
  0
LINE
  8
DETAIL
  6
CONTINUOUS
 62
     5
 10
51.171035999999958
 20
193.50668400000009
 30
0.0
 11
51.20421999999985
 21
193.63610100000011
 31
0.0
  0
LINE
  8
OUTLINE
  6
CONTINUOUS
 62
     3
 10
51.20421999999985
 20
193.63610100000011
 30
0.0
 11
51.237662
 21
193.757846
 31
0.0
  0
LINE
  8
DETAIL
  6
CONTINUOUS
 62
     5
 10
51.20421999999985
 20
193.63610100000011
 30
0.0
 11
51.237662
 21
193.757845
 31
0.0
  0
LINE
  8
OUTLINE
  6
CONTINUOUS
 62
     3
 10
51.237662
 20
193.757846
 30
0.0
 11
51.271352999999863
 21
193.872332
 31
0.0
  0
LINE
  8
DETAIL
  6
CONTINUOUS
 62
     5
 10
51.237662
 20
193.757845
 30
0.0
 11
51.271352999999863
 21
193.872331
 31
0.0
  0
LINE
  8
OUTLINE
  6
CONTINUOUS
 62
     3
 10
51.271352999999863
 20
193.872332
 30
0.0
 11
51.305247999999892
 21
193.97977399999999
 31
0.0
  0
LINE
  8
DETAIL
  6
CONTINUOUS
 62
     5
 10
51.271352999999863
 20
193.872331
 30
0.0
 11
51.305247999999892
 21
193.97977399999999
 31
0.0
  0
LINE
  8
OUTLINE
  6
CONTINUOUS
 62
     3
 10
51.305247999999892
 20
193.97977399999999
 30
0.0
 11
51.339350999999851
 21
194.08047999999999
 31
0.0
  0
LINE
  8
DETAIL
  6
CONTINUOUS
 62
     5
 10
51.305247999999892
 20
193.97977399999999
 30
0.0
 11
51.339350999999851
 21
194.08047900000011
 31
0.0
  0
LINE
  8
OUTLINE
  6
CONTINUOUS
 62
     3
 10
51.339350999999851
 20
194.08047999999999
 30
0.0
 11
51.373640999999907
 21
194.17462
 31
0.0
  0
LINE
  8
DETAIL
  6
CONTINUOUS
 62
     5
 10
51.339350999999851
 20
194.08047900000011
 30
0.0
 11
51.373640999999907
 21
194.17462000000009
 31
0.0
  0
LINE
  8
OUTLINE
  6
CONTINUOUS
 62
     3
 10
51.373640999999907
 20
194.17462
 30
0.0
 11
51.408126999999922
 21
194.26240999999999
 31
0.0
  0
LINE
  8
DETAIL
  6
CONTINUOUS
 62
     5
 10
51.373640999999907
 20
194.17462000000009
 30
0.0
 11
51.408126999999922
 21
194.26240899999991
 31
0.0
  0
LINE
  8
OUTLINE
  6
CONTINUOUS
 62
     3
 10
51.408126999999922
 20
194.26240999999999
 30
0.0
 11
51.442933999999923
 21
194.344291
 31
0.0
  0
LINE
  8
DETAIL
  6
CONTINUOUS
 62
     5
 10
51.408126999999922
 20
194.26240899999991
 30
0.0
 11
51.442933999999923
 21
194.34429
 31
0.0
  0
LINE
  8
OUTLINE
  6
CONTINUOUS
 62
     3
 10
51.442933999999923
 20
194.344291
 30
0.0
 11
51.478185999999823
 21
194.420581
 31
0.0
  0
LINE
  8
DETAIL
  6
CONTINUOUS
 62
     5
 10
51.442933999999923
 20
194.34429
 30
0.0
 11
51.478185999999823
 21
194.420581
 31
0.0
  0
LINE
  8
OUTLINE
  6
CONTINUOUS
 62
     3
 10
51.478185999999823
 20
194.420581
 30
0.0
 11
51.514207999999833
 21
194.49190400000001
 31
0.0
  0
LINE
  8
DETAIL
  6
CONTINUOUS
 62
     5
 10
51.478185999999823
 20
194.420581
 30
0.0
 11
51.514207999999833
 21
194.49190300000001
 31
0.0
  0
LINE
  8
OUTLINE
  6
CONTINUOUS
 62
     3
 10
51.514207999999833
 20
194.49190400000001
 30
0.0
 11
51.551320999999923
 21
194.55866700000001
 31
0.0
  0
LINE
  8
DETAIL
  6
CONTINUOUS
 62
     5
 10
51.514207999999833
 20
194.49190300000001
 30
0.0
 11
51.551320999999923
 21
194.55866700000001
 31
0.0
  0
LINE
  8
OUTLINE
  6
CONTINUOUS
 62
     3
 10
54.162918999999867
 20
194.709869
 30
0.0
 11
79.000931999999921
 21
141.0
 31
0.0
  0
LINE
  8
DETAIL
  6
CONTINUOUS
 62
     5
 10
54.162918999999867
 20
194.709869
 30
0.0
 11
79.000931999999921
 21
141.0
 31
0.0
  0
LINE
  8
OUTLINE
  6
CONTINUOUS
 62
     3
 10
94.307078999999931
 20
139.03490500000001
 30
0.0
 11
95.686636999999791
 21
60.000000000000057
 31
0.0
  0
LINE
  8
DETAIL
  6
CONTINUOUS
 62
     5
 10
94.307078999999931
 20
139.03490400000001
 30
0.0
 11
95.686636999999791
 21
60.0
 31
0.0
  0
LINE
  8
OUTLINE
  6
CONTINUOUS
 62
     3
 10
100.7369960000001
 20
58.034905000000037
 30
0.0
 11
101.75
 21
0.0000000000000568
 31
0.0
  0
LINE
  8
DETAIL
  6
CONTINUOUS
 62
     5
 10
100.7369960000001
 20
58.034903999999983
 30
0.0
 11
101.75
 21
0.0
 31
0.0
  0
ARC
  8
OUTLINE
  6
CONTINUOUS
 62
     3
 10
92.307383999999956
 20
139.0
 30
0.0
 40
2.0
 50
0.9999990000043901
 51
90.0
  0
ARC
  8
DETAIL
  6
CONTINUOUS
 62
     5
 10
92.307383999999956
 20
139.0
 30
0.0
 40
2.0
 50
0.9999990000043901
 51
90.0
  0
ARC
  8
OUTLINE
  6
CONTINUOUS
 62
     3
 10
53.709096000000052
 20
194.5
 30
0.0
 40
0.5
 50
24.81808000000256
 51
90.0
  0
ARC
  8
DETAIL
  6
CONTINUOUS
 62
     5
 10
53.709096000000052
 20
194.5
 30
0.0
 40
0.5
 50
24.81808000000256
 51
90.0
  0
ARC
  8
OUTLINE
  6
CONTINUOUS
 62
     3
 10
98.737298999999894
 20
58.000000000000057
 30
0.0
 40
2.0
 50
0.9999990000043901
 51
89.999938999999074
  0
ARC
  8
DETAIL
  6
CONTINUOUS
 62
     5
 10
98.737298999999894
 20
58.0
 30
0.0
 40
2.0
 50
0.9999990000043901
 51
89.999938999999074
  0
LINE
  8
DETAIL
  6
CONTINUOUS
 62
     5
 10
36.335810999999921
 20
150.404056
 30
0.0
 11
36.52293399999985
 21
150.592118
 31
0.0
  0
LINE
  8
OUTLINE
  6
CONTINUOUS
 62
     3
 10
42.161483999999973
 20
162.5
 30
0.0
 11
46.380779999999959
 21
162.5
 31
0.0
  0
LINE
  8
DETAIL
  6
CONTINUOUS
 62
     5
 10
42.161483999999973
 20
162.5
 30
0.0
 11
46.380779999999959
 21
162.5
 31
0.0
  0
LINE
  8
DETAIL
  6
CONTINUOUS
 62
     5
 10
36.564048999999841
 20
150.6392460000001
 30
0.0
 11
37.294547999999963
 21
153.32674299999999
 31
0.0
  0
LINE
  8
DETAIL
  6
CONTINUOUS
 62
     5
 10
36.52293399999985
 20
150.592118
 30
0.0
 11
36.564048999999841
 21
150.6392460000001
 31
0.0
  0
LINE
  8
DETAIL
  6
CONTINUOUS
 62
     5
 10
-172.47175800000011
 20
57.53000499999996
 30
0.0
 11
-211.50872799999999
 21
57.870675000000013
 31
0.0
  0
ARC
  8
OUTLINE
  6
CONTINUOUS
 62
     3
 10
-211.50436400000001
 20
155.1293439999998
 30
0.0
 40
0.5
 50
90.499999999998053
 51
180.00000100000139
  0
ARC
  8
DETAIL
  6
CONTINUOUS
 62
     5
 10
-211.50436400000001
 20
155.1293449999998
 30
0.0
 40
0.5
 50
90.499999999998053
 51
180.00000100000139
  0
TEXT
  8
ETC
  6
CONTINUOUS
 62
    61
 10
353.82331613966608
 20
738.77009928252664
 30
0.0
 40
64.0
  1
VD-13ZSC13_4
 41
0.9
  0
TEXT
  8
ETC
  6
CONTINUOUS
 62
    61
 10
349.63732213966568
 20
620.81478926769546
 30
0.0
 40
64.0
  1
換気扇
 41
0.9
  0
TEXT
  8
ETC
  6
CONTINUOUS
 62
    61
 10
400.33872038822159
 20
512.66601638147017
 30
0.0
 40
40.0
  1
VD-13ZSC13
 41
0.9
  0
TEXT
  8
ETC
  6
CONTINUOUS
 62
    61
 10
400.33872038822159
 20
446.66601638147017
 30
0.0
 40
40.0
  1
VD-13ZSC13-BL
 41
0.9
  0
TEXT
  8
NOTE
  6
CONTINUOUS
 62
     4
 10
381.20928421111381
 20
301.0398927997287
 30
0.0
 40
63.999999999999993
  1
8-φ5
 41
0.9
  0
LINE
  8
NOTE
  6
CONTINUOUS
 62
     4
 10
625.19293992327539
 20
264.81163695436612
 30
0.0
 11
352.78357119280457
 21
264.81167343334482
 31
0.0
  0
ENDSEC
  0
EOF
