  0
SECTION
  2
HEADER
  9
$ACADVER
  1
AC1009
  9
$DWGCODEPAGE
  3
dos932
  9
$INSBASE
 10
0.0
 20
0.0
 30
0.0
  9
$EXTMIN
 10
-785.82456858808291
 20
-421.69188279855553
 30
-0.0015258207003583
  9
$EXTMAX
 10
1126.6204950826
 20
848.83118508014741
 30
0.0000000349246037
  9
$LIMMIN
 10
-2970.0
 20
-2100.0
  9
$LIMMAX
 10
2970.0
 20
2100.0
  9
$ORTHOMODE
 70
     1
  9
$REGENMODE
 70
     1
  9
$FILLMODE
 70
     1
  9
$QTEXTMODE
 70
     0
  9
$MIRRTEXT
 70
     0
  9
$LTSCALE
 40
20.0
  9
$ATTMODE
 70
     1
  9
$TEXTSIZE
 40
64.0
  9
$TRACEWID
 40
0.05
  9
$TEXTSTYLE
  7
STANDARD
  9
$CLAYER
  8
SIZE
  9
$CELTYPE
  6
CONTINUOUS
  9
$CECOLOR
 62
     7
  9
$DIMSCALE
 40
1.0
  9
$DIMASZ
 40
12.0
  9
$DIMEXO
 40
20.0
  9
$DIMDLI
 40
200.0
  9
$DIMRND
 40
0.0
  9
$DIMDLE
 40
0.0
  9
$DIMEXE
 40
20.0
  9
$DIMTP
 40
0.0
  9
$DIMTM
 40
0.0
  9
$DIMTXT
 40
64.0
  9
$DIMCEN
 40
0.09
  9
$DIMTSZ
 40
0.0
  9
$DIMTOL
 70
     0
  9
$DIMLIM
 70
     0
  9
$DIMTIH
 70
     0
  9
$DIMTOH
 70
     0
  9
$DIMSE1
 70
     0
  9
$DIMSE2
 70
     0
  9
$DIMTAD
 70
     1
  9
$DIMZIN
 70
     8
  9
$DIMBLK
  1

  9
$DIMASO
 70
     1
  9
$DIMSHO
 70
     0
  9
$DIMPOST
  1

  9
$DIMAPOST
  1

  9
$DIMALT
 70
     0
  9
$DIMALTD
 70
     2
  9
$DIMALTF
 40
25.399999999999999
  9
$DIMLFAC
 40
1.0
  9
$DIMTOFL
 70
     1
  9
$DIMTVP
 40
0.0
  9
$DIMTIX
 70
     1
  9
$DIMSOXD
 70
     0
  9
$DIMSAH
 70
     0
  9
$DIMBLK1
  1

  9
$DIMBLK2
  1

  9
$DIMSTYLE
  2
STANDARD
  9
$DIMCLRD
 70
     7
  9
$DIMCLRE
 70
     7
  9
$DIMCLRT
 70
     7
  9
$DIMTFAC
 40
1.0
  9
$DIMGAP
 40
25.0
  9
$LUNITS
 70
     2
  9
$LUPREC
 70
     4
  9
$SKETCHINC
 40
0.1
  9
$FILLETRAD
 40
3.0
  9
$AUNITS
 70
     1
  9
$AUPREC
 70
     3
  9
$MENU
  1
ACAD
  9
$ELEVATION
 40
0.0
  9
$PELEVATION
 40
0.0
  9
$THICKNESS
 40
0.0
  9
$LIMCHECK
 70
     0
  9
$CHAMFERA
 40
0.0
  9
$CHAMFERB
 40
0.0
  9
$SKPOLY
 70
     0
  9
$TDCREATE
 40
2453019.62301037
  9
$TDUPDATE
 40
2459025.498511597
  9
$TDINDWG
 40
1.7135923727
  9
$TDUSRTIMER
 40
1.7135923727
  9
$USRTIMER
 70
     1
  9
$ANGBASE
 50
0.0
  9
$ANGDIR
 70
     0
  9
$PDMODE
 70
     3
  9
$PDSIZE
 40
-2.0
  9
$PLINEWID
 40
0.0
  9
$SPLFRAME
 70
     0
  9
$SPLINETYPE
 70
     6
  9
$SPLINESEGS
 70
     8
  9
$SURFTAB1
 70
     6
  9
$SURFTAB2
 70
     6
  9
$SURFTYPE
 70
     6
  9
$SURFU
 70
     6
  9
$SURFV
 70
     6
  9
$UCSNAME
  2

  9
$UCSORG
 10
0.0
 20
0.0
 30
0.0
  9
$UCSXDIR
 10
1.0
 20
0.0
 30
0.0
  9
$UCSYDIR
 10
0.0
 20
1.0
 30
0.0
  9
$PUCSNAME
  2

  9
$PUCSORG
 10
0.0
 20
0.0
 30
0.0
  9
$PUCSXDIR
 10
1.0
 20
0.0
 30
0.0
  9
$PUCSYDIR
 10
0.0
 20
1.0
 30
0.0
  9
$USERI1
 70
     0
  9
$USERI2
 70
     0
  9
$USERI3
 70
     0
  9
$USERI4
 70
     0
  9
$USERI5
 70
     0
  9
$USERR1
 40
20.0
  9
$USERR2
 40
0.0
  9
$USERR3
 40
0.0
  9
$USERR4
 40
0.0
  9
$USERR5
 40
0.0
  9
$WORLDVIEW
 70
     1
  9
$SHADEDGE
 70
     3
  9
$SHADEDIF
 70
    70
  9
$TILEMODE
 70
     1
  9
$MAXACTVP
 70
    48
  9
$PINSBASE
 10
0.0
 20
0.0
 30
0.0
  9
$PLIMCHECK
 70
     0
  9
$PEXTMIN
 10
-100000000000000000000.0
 20
-100000000000000000000.0
 30
-100000000000000000000.0
  9
$PEXTMAX
 10
100000000000000000000.0
 20
100000000000000000000.0
 30
100000000000000000000.0
  9
$PLIMMIN
 10
0.0
 20
0.0
  9
$PLIMMAX
 10
12.0
 20
9.0
  9
$UNITMODE
 70
     0
  9
$VISRETAIN
 70
     0
  9
$PLINEGEN
 70
     0
  9
$PSLTSCALE
 70
     0
  9
$TREEDEPTH
 70
  3020
  9
$ATTDIA
 70
     0
  9
$ATTREQ
 70
     1
  9
$BLIPMODE
 70
     1
  9
$COORDS
 70
     1
  9
$DRAGMODE
 70
     2
  9
$OSMODE
 70
     0
  9
$HANDLING
 70
     0
  9
$HANDSEED
  5
F4E4
  0
ENDSEC
  0
SECTION
  2
TABLES
  0
TABLE
  2
LTYPE
 70
     3
  0
LTYPE
  2
CONTINUOUS
 70
     0
  3
実線
 72
    65
 73
     0
 40
0.0
  0
LTYPE
  2
DASHDOT
 70
     0
  3
____ _ ____ _ ____ _ ____ _ ____ _ ____ _ ____
 72
    65
 73
     4
 40
5.5
 49
4.0
 49
-0.6
 49
0.3
 49
-0.6
  0
LTYPE
  2
CENTER
 70
     0
  3
Center ____ _ ____ _ ____ _ ____ _ ____ _ ____
 72
    65
 73
     4
 40
1.0
 49
0.5
 49
-0.25
 49
0.0
 49
-0.25
  0
ENDTAB
  0
TABLE
  2
LAYER
 70
    12
  0
LAYER
  2
0
 70
     0
 62
     7
  6
CONTINUOUS
  0
LAYER
  2
BASIS
 70
     0
 62
     6
  6
DASHDOT
  0
LAYER
  2
OUTLINE
 70
     0
 62
     3
  6
CONTINUOUS
  0
LAYER
  2
DETAIL
 70
     0
 62
     5
  6
CONTINUOUS
  0
LAYER
  2
SIZE
 70
     0
 62
    30
  6
CONTINUOUS
  0
LAYER
  2
ARRANGE
 70
     0
 62
     1
  6
CONTINUOUS
  0
LAYER
  2
DEFPOINTS
 70
     0
 62
     7
  6
CONTINUOUS
  0
LAYER
  2
ETC
 70
     0
 62
    61
  6
CONTINUOUS
  0
LAYER
  2
FIX
 70
     0
 62
    11
  6
CONTINUOUS
  0
LAYER
  2
NOTE
 70
     0
 62
     4
  6
CONTINUOUS
  0
LAYER
  2
SERVICESPACE
 70
    64
 62
     2
  6
DASHDOT
  0
LAYER
  2
SYMBOLLINE
 70
    64
 62
    15
  6
CONTINUOUS
  0
ENDTAB
  0
TABLE
  2
STYLE
 70
     1
  0
STYLE
  2
STANDARD
 70
     0
 40
64.0
 41
0.9
 50
0.0
 71
     0
 42
64.0
  3
SIMPLEX.shx
  4
BIGFONT.shx
  0
ENDTAB
  0
TABLE
  2
APPID
 70
    19
  0
APPID
  2
ACAD
 70
     0
  0
APPID
  2
AUTOCAD_POSTSCRIPT_FIGURE
 70
     0
  0
APPID
  2
ACAD_EXEMPT_FROM_CAD_STANDARDS
 70
     0
  0
APPID
  2
ACAD_PSEXT
 70
     0
  0
APPID
  2
ACAUTHENVIRON
 70
     0
  0
APPID
  2
GENIUS_GENOENT_13
 70
     0
  0
APPID
  2
GENIUS_GENCFG_13
 70
     0
  0
APPID
  2
GENIUS_GENCFG0_13
 70
     0
  0
APPID
  2
GENIUS_GENCFG1_13
 70
     0
  0
APPID
  2
GENIUS_GENCFG2_13
 70
     0
  0
APPID
  2
GENIUS_GENCFG3_13
 70
     0
  0
APPID
  2
GENIUS_GENCFG4_13
 70
     0
  0
APPID
  2
GENIUS_GEVCFG0_13
 70
     0
  0
APPID
  2
CONTENTBLOCKICON
 70
     0
  0
APPID
  2
CONTENTBLOCKDESCRIPTION
 70
     0
  0
APPID
  2
ACAD_NAV_VCDISPLAY
 70
     0
  0
APPID
  2
ACAD_MLEADERVER
 70
     0
  0
APPID
  2
ACDBDYNAMICBLOCKTRUENAME
 70
     0
  0
APPID
  2
ACDBDYNAMICBLOCKGUID
 70
     0
  0
ENDTAB
  0
TABLE
  2
DIMSTYLE
 70
     1
  0
DIMSTYLE
  2
STANDARD
 70
     0
  3

  4

  5
_ORIGIN
  6

  7

 40
1.0
 41
12.0
 42
20.0
 43
200.0
 44
20.0
 45
0.0
 46
0.0
 47
0.0
 48
0.0
140
64.0
141
0.09
142
0.0
143
25.399999999999999
144
1.0
145
0.0
146
1.0
147
25.0
 71
     0
 72
     0
 73
     0
 74
     0
 75
     0
 76
     0
 77
     1
 78
     8
170
     0
171
     2
172
     1
173
     0
174
     1
175
     0
176
     7
177
     7
178
     7
  0
ENDTAB
  0
TABLE
  2
VIEW
 70
     1
  0
VIEW
  2
ALL
 70
     0
 40
4282.6198079999986
 10
0.0
 20
41.309904000000003
 41
5940.0
 11
0.0
 21
0.0
 31
1.0
 12
0.0
 22
0.0
 32
0.0
 42
50.0
 43
0.0
 44
0.0
 50
0.0
 71
     0
  0
ENDTAB
  0
TABLE
  2
UCS
 70
     0
  0
ENDTAB
  0
TABLE
  2
VPORT
 70
     1
  0
VPORT
  2
*ACTIVE
 70
     0
 10
0.0
 20
0.0
 11
1.0
 21
1.0
 12
170.39796324725839
 22
213.56965114079591
 13
0.0
 23
0.0
 14
1.0
 24
1.0
 15
0.0
 25
0.0
 16
0.0
 26
0.0
 36
1.0
 17
0.0
 27
0.0
 37
0.0
 40
1278.946425234805
 41
1.747787610619469
 42
50.0
 43
0.0
 44
0.0
 50
0.0
 51
0.0
 71
     0
 72
  1000
 73
     1
 74
     3
 75
     0
 76
     0
 77
     0
 78
     0
  0
ENDTAB
  0
ENDSEC
  0
SECTION
  2
BLOCKS
  0
BLOCK
  8
0
  2
_ORIGIN
 70
     0
 10
0.0
 20
0.0
 30
0.0
  3
_ORIGIN
  1
_ORIGIN
  0
CIRCLE
  8
0
  6
CONTINUOUS
 62
     7
 10
0.0
 20
0.0
 30
0.0
 40
0.5
  0
LINE
  8
0
  6
CONTINUOUS
 62
     7
 10
0.0
 20
0.0
 30
0.0
 11
-1.0
 21
0.0
 31
0.0
  0
ENDBLK
  8
0
  0
ENDSEC
  0
SECTION
  2
ENTITIES
  0
TEXT
  8
NOTE
  6
CONTINUOUS
 62
     4
 10
-363.83227826678473
 20
72.999698692489915
 30
0.0
 40
64.0
  1
EA
 41
0.9
  0
CIRCLE
  8
ARRANGE
  6
CONTINUOUS
 62
     1
 10
0.0
 20
0.0
 30
0.0
 40
40.0
  0
POINT
  8
ARRANGE
  6
CONTINUOUS
 62
     1
 10
0.0
 20
0.0
 30
0.0
 50
90.0
  0
LINE
  8
BASIS
  6
DASHDOT
 62
     6
 10
0.0
 20
222.83005276882071
 30
0.0
 11
0.0
 21
-59.583045278872312
 31
0.0
  0
CIRCLE
  8
FIX
  6
CONTINUOUS
 62
    11
 10
106.0
 20
0.0
 30
0.0
 40
10.0
  0
CIRCLE
  8
FIX
  6
CONTINUOUS
 62
    11
 10
75.0
 20
0.0
 30
0.0
 40
10.0
  0
CIRCLE
  8
FIX
  6
CONTINUOUS
 62
    11
 10
-74.995283523129501
 20
0.0
 30
0.0
 40
10.0
  0
CIRCLE
  8
FIX
  6
CONTINUOUS
 62
    11
 10
-106.0
 20
0.0
 30
0.0
 40
10.0
  0
LINE
  8
NOTE
  6
CONTINUOUS
 62
     4
 10
106.0
 20
0.0
 30
0.0
 11
341.28356798458663
 21
264.8116364789787
 31
0.0
  0
LINE
  8
NOTE
  6
CONTINUOUS
 62
     4
 10
106.0
 20
0.0
 30
0.0
 11
137.31274534757901
 21
22.683422418883421
 31
0.0
  0
LINE
  8
NOTE
  6
CONTINUOUS
 62
     4
 10
124.99527469402349
 20
35.19929633376114
 30
0.0
 11
106.0
 21
0.0
 31
0.0
  0
TEXT
  8
NOTE
  6
CONTINUOUS
 62
     4
 10
149.65392124341881
 20
402.10673402195442
 30
0.0
 40
64.0
  1
EL
 41
0.9
  0
LINE
  8
NOTE
  6
CONTINUOUS
 62
     4
 10
289.28793991518359
 20
371.32651610062197
 30
0.0
 11
120.7634483887647
 21
371.3265161005794
 31
0.0
  0
LINE
  8
NOTE
  6
CONTINUOUS
 62
     4
 10
-77.114024136718854
 20
154.72810050000021
 30
0.0
 11
120.7634483887647
 21
371.3265161005794
 31
0.0
  0
LINE
  8
NOTE
  6
CONTINUOUS
 62
     4
 10
-77.114024136718854
 20
154.72810050000021
 30
0.0
 11
-43.652707259832368
 21
175.08967893535959
 31
0.0
  0
LINE
  8
NOTE
  6
CONTINUOUS
 62
     4
 10
-60.684864410586208
 20
186.6895239089213
 30
0.0
 11
-77.114024136718854
 21
154.72810050000021
 31
0.0
  0
LINE
  8
SIZE
  6
CONTINUOUS
 62
    30
 10
-106.0
 20
-25.705613999999969
 30
0.0
 11
-106.0
 21
-307.44785297474772
 31
0.0
  0
LINE
  8
SIZE
  6
CONTINUOUS
 62
    30
 10
106.0
 20
-25.705613999999969
 30
0.0
 11
106.0
 21
-307.44785297474772
 31
0.0
  0
LINE
  8
SIZE
  6
CONTINUOUS
 62
    30
 10
-94.0
 20
-287.44785297474772
 30
0.0
 11
94.0
 21
-287.44785297474772
 31
0.0
  0
CIRCLE
  8
SIZE
  6
CONTINUOUS
 62
    30
 10
-106.0
 20
-287.44785297474772
 30
0.0
 40
6.0
  0
LINE
  8
SIZE
  6
CONTINUOUS
 62
    30
 10
-106.0
 20
-287.44785297474772
 30
0.0
 11
-94.0
 21
-287.44785297474772
 31
0.0
  0
CIRCLE
  8
SIZE
  6
CONTINUOUS
 62
    30
 10
106.0
 20
-287.44785297474772
 30
0.0
 40
6.0
  0
LINE
  8
SIZE
  6
CONTINUOUS
 62
    30
 10
106.0
 20
-287.44785297474772
 30
0.0
 11
94.0
 21
-287.44785297474772
 31
0.0
  0
TEXT
  8
SIZE
  6
CONTINUOUS
 62
    30
 10
-68.571428571428569
 20
-262.44785297474772
 30
0.0
 40
64.0
  1
212
 41
0.9
 72
     1
 11
0.0
 21
-262.44785297474772
 31
0.0
  0
POINT
  8
DEFPOINTS
  6
CONTINUOUS
 62
    30
 10
-106.0
 20
-5.7056139999999687
 30
0.0
  0
POINT
  8
DEFPOINTS
  6
CONTINUOUS
 62
    30
 10
106.0
 20
-5.7056139999999687
 30
0.0
  0
POINT
  8
DEFPOINTS
  6
CONTINUOUS
 62
    30
 10
106.0
 20
-287.44785297474772
 30
0.0
  0
LINE
  8
SIZE
  6
CONTINUOUS
 62
    30
 10
-97.5
 20
190.49992400000019
 30
0.0
 11
-97.5
 21
482.28937749149452
 31
0.0
  0
LINE
  8
SIZE
  6
CONTINUOUS
 62
    30
 10
97.5
 20
20.0
 30
0.0
 11
97.5
 21
482.28937749149452
 31
0.0
  0
LINE
  8
SIZE
  6
CONTINUOUS
 62
    30
 10
-109.5
 20
462.28937749149452
 30
0.0
 11
-121.5
 21
462.28937749149452
 31
0.0
  0
LINE
  8
SIZE
  6
CONTINUOUS
 62
    30
 10
109.5
 20
462.28937749149452
 30
0.0
 11
121.5
 21
462.28937749149452
 31
0.0
  0
LINE
  8
SIZE
  6
CONTINUOUS
 62
    30
 10
-97.5
 20
462.28937749149452
 30
0.0
 11
97.5
 21
462.28937749149452
 31
0.0
  0
CIRCLE
  8
SIZE
  6
CONTINUOUS
 62
    30
 10
-97.5
 20
462.28937749149452
 30
0.0
 40
6.0
  0
LINE
  8
SIZE
  6
CONTINUOUS
 62
    30
 10
-97.5
 20
462.28937749149452
 30
0.0
 11
-109.5
 21
462.28937749149452
 31
0.0
  0
CIRCLE
  8
SIZE
  6
CONTINUOUS
 62
    30
 10
97.5
 20
462.28937749149452
 30
0.0
 40
6.0
  0
LINE
  8
SIZE
  6
CONTINUOUS
 62
    30
 10
97.5
 20
462.28937749149452
 30
0.0
 11
109.5
 21
462.28937749149452
 31
0.0
  0
TEXT
  8
SIZE
  6
CONTINUOUS
 62
    30
 10
-105.0514285714286
 20
487.28937749149452
 30
0.0
 40
64.0
  1
□195
 41
0.9
 72
     1
 11
0.0
 21
487.28937749149452
 31
0.0
  0
POINT
  8
DEFPOINTS
  6
CONTINUOUS
 62
    30
 10
-97.5
 20
170.49992400000019
 30
0.0
  0
POINT
  8
DEFPOINTS
  6
CONTINUOUS
 62
    30
 10
97.5
 20
0.0
 30
0.0
  0
POINT
  8
DEFPOINTS
  6
CONTINUOUS
 62
    30
 10
97.5
 20
462.28937749149452
 30
0.0
  0
LINE
  8
SIZE
  6
CONTINUOUS
 62
    30
 10
-97.5
 20
190.49992399999999
 30
0.0
 11
-97.5
 21
482.28937749149452
 31
0.0
  0
LINE
  8
SIZE
  6
CONTINUOUS
 62
    30
 10
-211.39994900000011
 20
170.49992399999999
 30
0.0
 11
-211.39994900000011
 21
482.28937749149452
 31
0.0
  0
LINE
  8
SIZE
  6
CONTINUOUS
 62
    30
 10
-109.5
 20
462.28937749149452
 30
0.0
 11
-199.39994900000011
 21
462.28937749149452
 31
0.0
  0
LINE
  8
SIZE
  6
CONTINUOUS
 62
    30
 10
-211.39994900000011
 20
462.28937749149452
 30
0.0
 11
-405.05709185714312
 21
462.28937749149452
 31
0.0
  0
CIRCLE
  8
SIZE
  6
CONTINUOUS
 62
    30
 10
-97.5
 20
462.28937749149452
 30
0.0
 40
6.0
  0
LINE
  8
SIZE
  6
CONTINUOUS
 62
    30
 10
-97.5
 20
462.28937749149452
 30
0.0
 11
-109.5
 21
462.28937749149452
 31
0.0
  0
CIRCLE
  8
SIZE
  6
CONTINUOUS
 62
    30
 10
-211.39994900000011
 20
462.28937749149452
 30
0.0
 40
6.0
  0
LINE
  8
SIZE
  6
CONTINUOUS
 62
    30
 10
-211.39994900000011
 20
462.28937749149452
 30
0.0
 11
-199.39994900000011
 21
462.28937749149452
 31
0.0
  0
TEXT
  8
SIZE
  6
CONTINUOUS
 62
    30
 10
-380.05709185714301
 20
487.28937749149452
 30
0.0
 40
64.0
  1
114
 41
0.9
 72
     1
 11
-315.59994900000009
 21
487.28937749149452
 31
0.0
  0
POINT
  8
DEFPOINTS
  6
CONTINUOUS
 62
    30
 10
-97.5
 20
170.49992399999999
 30
0.0
  0
POINT
  8
DEFPOINTS
  6
CONTINUOUS
 62
    30
 10
-211.39994900000011
 20
150.49992399999999
 30
0.0
  0
POINT
  8
DEFPOINTS
  6
CONTINUOUS
 62
    30
 10
-211.39994900000011
 20
462.28937749149452
 30
0.0
  0
LINE
  8
SIZE
  6
CONTINUOUS
 62
    30
 10
-211.39994900000011
 20
170.49992400000019
 30
0.0
 11
-211.39994900000011
 21
271.947680664426
 31
0.0
  0
LINE
  8
SIZE
  6
CONTINUOUS
 62
    30
 10
-184.39994900000011
 20
170.99992399999999
 30
0.0
 11
-184.39994900000011
 21
271.947680664426
 31
0.0
  0
LINE
  8
SIZE
  6
CONTINUOUS
 62
    30
 10
-172.39994900000011
 20
251.947680664426
 30
0.0
 11
-160.39994900000011
 21
251.947680664426
 31
0.0
  0
LINE
  8
SIZE
  6
CONTINUOUS
 62
    30
 10
-223.39994900000011
 20
251.947680664426
 30
0.0
 11
-379.26150685714288
 21
251.947680664426
 31
0.0
  0
LINE
  8
SIZE
  6
CONTINUOUS
 62
    30
 10
-184.39994900000011
 20
251.947680664426
 30
0.0
 11
-211.39994900000011
 21
251.947680664426
 31
0.0
  0
CIRCLE
  8
SIZE
  6
CONTINUOUS
 62
    30
 10
-184.39994900000011
 20
251.947680664426
 30
0.0
 40
6.0
  0
LINE
  8
SIZE
  6
CONTINUOUS
 62
    30
 10
-184.39994900000011
 20
251.947680664426
 30
0.0
 11
-172.39994900000011
 21
251.947680664426
 31
0.0
  0
CIRCLE
  8
SIZE
  6
CONTINUOUS
 62
    30
 10
-211.39994900000011
 20
251.947680664426
 30
0.0
 40
6.0
  0
LINE
  8
SIZE
  6
CONTINUOUS
 62
    30
 10
-211.39994900000011
 20
251.947680664426
 30
0.0
 11
-223.39994900000011
 21
251.947680664426
 31
0.0
  0
TEXT
  8
SIZE
  6
CONTINUOUS
 62
    30
 10
-354.26150685714259
 20
276.947680664426
 30
0.0
 40
64.0
  1
27
 41
0.9
 72
     1
 11
-307.63293542857122
 21
276.947680664426
 31
0.0
  0
POINT
  8
DEFPOINTS
  6
CONTINUOUS
 62
    30
 10
-211.39994900000011
 20
150.49992400000019
 30
0.0
  0
POINT
  8
DEFPOINTS
  6
CONTINUOUS
 62
    30
 10
-184.39994900000011
 20
150.99992399999999
 30
0.0
  0
POINT
  8
DEFPOINTS
  6
CONTINUOUS
 62
    30
 10
-184.39994900000011
 20
251.947680664426
 30
0.0
  0
LINE
  8
SIZE
  6
CONTINUOUS
 62
    30
 10
-211.39994900000011
 20
170.49992399999999
 30
0.0
 11
-211.39994900000011
 21
372.1138243466803
 31
0.0
  0
LINE
  8
SIZE
  6
CONTINUOUS
 62
    30
 10
-159.39994900000011
 20
174.76938452392571
 30
0.0
 11
-159.39994900000011
 21
372.1138243466803
 31
0.0
  0
LINE
  8
SIZE
  6
CONTINUOUS
 62
    30
 10
-147.39994900000011
 20
352.1138243466803
 30
0.0
 11
-135.39994900000011
 21
352.1138243466803
 31
0.0
  0
LINE
  8
SIZE
  6
CONTINUOUS
 62
    30
 10
-223.39994900000011
 20
352.1138243466803
 30
0.0
 11
-379.26150685714288
 21
352.1138243466803
 31
0.0
  0
LINE
  8
SIZE
  6
CONTINUOUS
 62
    30
 10
-159.39994900000011
 20
352.1138243466803
 30
0.0
 11
-211.39994900000011
 21
352.1138243466803
 31
0.0
  0
CIRCLE
  8
SIZE
  6
CONTINUOUS
 62
    30
 10
-159.39994900000011
 20
352.1138243466803
 30
0.0
 40
6.0
  0
LINE
  8
SIZE
  6
CONTINUOUS
 62
    30
 10
-159.39994900000011
 20
352.1138243466803
 30
0.0
 11
-147.39994900000011
 21
352.1138243466803
 31
0.0
  0
CIRCLE
  8
SIZE
  6
CONTINUOUS
 62
    30
 10
-211.39994900000011
 20
352.1138243466803
 30
0.0
 40
6.0
  0
LINE
  8
SIZE
  6
CONTINUOUS
 62
    30
 10
-211.39994900000011
 20
352.1138243466803
 30
0.0
 11
-223.39994900000011
 21
352.1138243466803
 31
0.0
  0
TEXT
  8
SIZE
  6
CONTINUOUS
 62
    30
 10
-354.26150685714259
 20
377.1138243466803
 30
0.0
 40
64.0
  1
52
 41
0.9
 72
     1
 11
-307.63293542857122
 21
377.1138243466803
 31
0.0
  0
POINT
  8
DEFPOINTS
  6
CONTINUOUS
 62
    30
 10
-211.39994900000011
 20
150.49992399999999
 30
0.0
  0
POINT
  8
DEFPOINTS
  6
CONTINUOUS
 62
    30
 10
-159.39994900000011
 20
154.76938452392571
 30
0.0
  0
POINT
  8
DEFPOINTS
  6
CONTINUOUS
 62
    30
 10
-159.39994900000011
 20
352.1138243466803
 30
0.0
  0
LINE
  8
SIZE
  6
CONTINUOUS
 62
    30
 10
-118.5000070000001
 20
34.999924000000078
 30
0.0
 11
-344.65635339931771
 21
34.999924000000142
 31
0.0
  0
LINE
  8
SIZE
  6
CONTINUOUS
 62
    30
 10
-161.0
 20
0.0000000000001137
 30
0.0
 11
-344.65635339931771
 21
0.0000000000001705
 31
0.0
  0
LINE
  8
SIZE
  6
CONTINUOUS
 62
    30
 10
-324.65635339931771
 20
46.999924000000142
 30
0.0
 11
-324.65635339931771
 21
58.999924000000142
 31
0.0
  0
LINE
  8
SIZE
  6
CONTINUOUS
 62
    30
 10
-324.65635339931771
 20
-11.999999999999829
 30
0.0
 11
-324.65635339931771
 21
-167.25714285714281
 31
0.0
  0
LINE
  8
SIZE
  6
CONTINUOUS
 62
    30
 10
-324.65635339931771
 20
34.999924000000142
 30
0.0
 11
-324.65635339931771
 21
0.0000000000001705
 31
0.0
  0
CIRCLE
  8
SIZE
  6
CONTINUOUS
 62
    30
 10
-324.65635339931771
 20
34.999924000000142
 30
0.0
 40
6.0
  0
LINE
  8
SIZE
  6
CONTINUOUS
 62
    30
 10
-324.65635339931771
 20
34.999924000000142
 30
0.0
 11
-324.65635339931771
 21
46.999924000000142
 31
0.0
  0
CIRCLE
  8
SIZE
  6
CONTINUOUS
 62
    30
 10
-324.65635339931771
 20
0.0000000000001705
 30
0.0
 40
6.0
  0
LINE
  8
SIZE
  6
CONTINUOUS
 62
    30
 10
-324.65635339931771
 20
0.0000000000001705
 30
0.0
 11
-324.65635339931771
 21
-11.999999999999829
 31
0.0
  0
TEXT
  8
SIZE
  6
CONTINUOUS
 62
    30
 10
-349.65635339931771
 20
-142.2571428571429
 30
0.0
 40
64.0
  1
35
 50
90.0
 41
0.9
 72
     1
 11
-349.65635339931771
 21
-95.628571428571433
 31
0.0
  0
POINT
  8
DEFPOINTS
  6
CONTINUOUS
 62
    30
 10
-98.500007000000096
 20
34.999924000000078
 30
0.0
  0
POINT
  8
DEFPOINTS
  6
CONTINUOUS
 62
    30
 10
-141.0
 20
0.0000000000001137
 30
0.0
  0
POINT
  8
DEFPOINTS
  6
CONTINUOUS
 62
    30
 10
-324.65635339931771
 20
0.0000000000001705
 30
0.0
  0
LINE
  8
SIZE
  6
CONTINUOUS
 62
    30
 10
-236.39994900000011
 20
101.99992399999999
 30
0.0
 11
-449.6568753676529
 21
101.99992399999999
 31
0.0
  0
LINE
  8
SIZE
  6
CONTINUOUS
 62
    30
 10
-161.0
 20
0.0000000000001137
 30
0.0
 11
-449.6568753676529
 21
0.0000000000002274
 31
0.0
  0
LINE
  8
SIZE
  6
CONTINUOUS
 62
    30
 10
-429.6568753676529
 20
89.999924000000021
 30
0.0
 11
-429.6568753676529
 21
12.000000000000229
 31
0.0
  0
LINE
  8
SIZE
  6
CONTINUOUS
 62
    30
 10
-429.6568753676529
 20
0.0000000000001705
 30
0.0
 11
-429.65687536765302
 21
-199.14285714285711
 31
0.0
  0
CIRCLE
  8
SIZE
  6
CONTINUOUS
 62
    30
 10
-429.6568753676529
 20
101.99992399999999
 30
0.0
 40
6.0
  0
LINE
  8
SIZE
  6
CONTINUOUS
 62
    30
 10
-429.6568753676529
 20
101.99992399999999
 30
0.0
 11
-429.6568753676529
 21
89.999923999999965
 31
0.0
  0
CIRCLE
  8
SIZE
  6
CONTINUOUS
 62
    30
 10
-429.6568753676529
 20
0.0000000000001705
 30
0.0
 40
6.0
  0
LINE
  8
SIZE
  6
CONTINUOUS
 62
    30
 10
-429.6568753676529
 20
0.0000000000001705
 30
0.0
 11
-429.6568753676529
 21
12.000000000000171
 31
0.0
  0
TEXT
  8
SIZE
  6
CONTINUOUS
 62
    30
 10
-454.6568753676529
 20
-174.14285714285711
 30
0.0
 40
64.0
  1
102
 50
90.0
 41
0.9
 72
     1
 11
-454.6568753676529
 21
-105.5714285714286
 31
0.0
  0
POINT
  8
DEFPOINTS
  6
CONTINUOUS
 62
    30
 10
-216.39994900000011
 20
101.99992399999999
 30
0.0
  0
POINT
  8
DEFPOINTS
  6
CONTINUOUS
 62
    30
 10
-141.0
 20
0.0000000000001137
 30
0.0
  0
POINT
  8
DEFPOINTS
  6
CONTINUOUS
 62
    30
 10
-429.6568753676529
 20
0.0000000000001705
 30
0.0
  0
LINE
  8
SIZE
  6
CONTINUOUS
 62
    30
 10
-230.89994900000011
 20
150.99992399999999
 30
0.0
 11
-581.25754757535651
 21
150.99992400000019
 31
0.0
  0
LINE
  8
SIZE
  6
CONTINUOUS
 62
    30
 10
-230.89994900000011
 20
52.999924000000078
 30
0.0
 11
-581.25754757535651
 21
52.999924000000192
 31
0.0
  0
LINE
  8
SIZE
  6
CONTINUOUS
 62
    30
 10
-561.25754757535651
 20
138.99992399999999
 30
0.0
 11
-561.25754757535651
 21
64.999924000000192
 31
0.0
  0
LINE
  8
SIZE
  6
CONTINUOUS
 62
    30
 10
-561.25754757535651
 20
52.999924000000192
 30
0.0
 11
-561.25754757535651
 21
-201.29173646411061
 31
0.0
  0
CIRCLE
  8
SIZE
  6
CONTINUOUS
 62
    30
 10
-561.25754757535651
 20
150.99992399999999
 30
0.0
 40
6.0
  0
LINE
  8
SIZE
  6
CONTINUOUS
 62
    30
 10
-561.25754757535651
 20
150.99992399999999
 30
0.0
 11
-561.25754757535651
 21
138.99992399999999
 31
0.0
  0
CIRCLE
  8
SIZE
  6
CONTINUOUS
 62
    30
 10
-561.25754757535651
 20
52.999924000000192
 30
0.0
 40
6.0
  0
LINE
  8
SIZE
  6
CONTINUOUS
 62
    30
 10
-561.25754757535651
 20
52.999924000000192
 30
0.0
 11
-561.25754757535651
 21
64.999924000000192
 31
0.0
  0
TEXT
  8
SIZE
  6
CONTINUOUS
 62
    30
 10
-596.92421424202325
 20
-186.44030789268211
 30
0.0
 40
64.0
  1
φ98
 50
90.0
 41
0.9
 72
     1
 11
-596.92421424202325
 21
-99.491736464110659
 31
0.0
  0
POINT
  8
DEFPOINTS
  6
CONTINUOUS
 62
    30
 10
-210.89994900000011
 20
150.99992399999999
 30
0.0
  0
POINT
  8
DEFPOINTS
  6
CONTINUOUS
 62
    30
 10
-210.89994900000011
 20
52.999924000000078
 30
0.0
  0
POINT
  8
DEFPOINTS
  6
CONTINUOUS
 62
    30
 10
-561.25754757535651
 20
52.999924000000192
 30
0.0
  0
LINE
  8
SIZE
  6
CONTINUOUS
 62
    30
 10
-200.0715210000001
 20
154.49992399999999
 30
0.0
 11
-705.85817291836429
 21
154.49992400000019
 31
0.0
  0
LINE
  8
SIZE
  6
CONTINUOUS
 62
    30
 10
-200.07185699999999
 20
49.499924000000078
 30
0.0
 11
-705.85817291836429
 21
49.499924000000249
 31
0.0
  0
LINE
  8
SIZE
  6
CONTINUOUS
 62
    30
 10
-685.85817291836429
 20
142.49992400000019
 30
0.0
 11
-685.85817291836429
 21
61.499924000000192
 31
0.0
  0
LINE
  8
SIZE
  6
CONTINUOUS
 62
    30
 10
-685.85817291836429
 20
49.499924000000192
 30
0.0
 11
-685.85817291836429
 21
-245.1213430957859
 31
0.0
  0
CIRCLE
  8
SIZE
  6
CONTINUOUS
 62
    30
 10
-685.85817291836429
 20
154.49992400000019
 30
0.0
 40
6.0
  0
LINE
  8
SIZE
  6
CONTINUOUS
 62
    30
 10
-685.85817291836429
 20
154.49992400000019
 30
0.0
 11
-685.85817291836429
 21
142.49992400000019
 31
0.0
  0
CIRCLE
  8
SIZE
  6
CONTINUOUS
 62
    30
 10
-685.85817291836429
 20
49.499924000000192
 30
0.0
 40
6.0
  0
LINE
  8
SIZE
  6
CONTINUOUS
 62
    30
 10
-685.85817291836429
 20
49.499924000000192
 30
0.0
 11
-685.85817291836429
 21
61.499924000000192
 31
0.0
  0
TEXT
  8
SIZE
  6
CONTINUOUS
 62
    30
 10
-721.5248395850308
 20
-230.26991452435729
 30
0.0
 40
64.0
  1
φ105
 50
90.0
 41
0.9
 72
     1
 11
-721.5248395850308
 21
-121.3784859529287
 31
0.0
  0
POINT
  8
DEFPOINTS
  6
CONTINUOUS
 62
    30
 10
-180.0715210000001
 20
154.49992399999999
 30
0.0
  0
POINT
  8
DEFPOINTS
  6
CONTINUOUS
 62
    30
 10
-180.07185699999999
 20
49.499924000000078
 30
0.0
  0
POINT
  8
DEFPOINTS
  6
CONTINUOUS
 62
    30
 10
-685.85817291836429
 20
49.499924000000192
 30
0.0
  0
LINE
  8
SIZE
  6
CONTINUOUS
 62
    30
 10
-75.0
 20
-25.705613999999969
 30
0.0
 11
-75.0
 21
-186.03768220895029
 31
0.0
  0
LINE
  8
SIZE
  6
CONTINUOUS
 62
    30
 10
75.0
 20
-25.705613999999969
 30
0.0
 11
75.0
 21
-186.03768220895029
 31
0.0
  0
LINE
  8
SIZE
  6
CONTINUOUS
 62
    30
 10
-87.0
 20
-166.03768220895029
 30
0.0
 11
-99.0
 21
-166.03768220895029
 31
0.0
  0
LINE
  8
SIZE
  6
CONTINUOUS
 62
    30
 10
87.0
 20
-166.03768220895029
 30
0.0
 11
99.0
 21
-166.03768220895029
 31
0.0
  0
LINE
  8
SIZE
  6
CONTINUOUS
 62
    30
 10
-75.0
 20
-166.03768220895029
 30
0.0
 11
75.0
 21
-166.03768220895029
 31
0.0
  0
CIRCLE
  8
SIZE
  6
CONTINUOUS
 62
    30
 10
-75.0
 20
-166.03768220895029
 30
0.0
 40
6.0
  0
LINE
  8
SIZE
  6
CONTINUOUS
 62
    30
 10
-75.0
 20
-166.03768220895029
 30
0.0
 11
-87.0
 21
-166.03768220895029
 31
0.0
  0
CIRCLE
  8
SIZE
  6
CONTINUOUS
 62
    30
 10
75.0
 20
-166.03768220895029
 30
0.0
 40
6.0
  0
LINE
  8
SIZE
  6
CONTINUOUS
 62
    30
 10
75.0
 20
-166.03768220895029
 30
0.0
 11
87.0
 21
-166.03768220895029
 31
0.0
  0
TEXT
  8
SIZE
  6
CONTINUOUS
 62
    30
 10
-68.571428571428569
 20
-141.03768220895029
 30
0.0
 40
64.0
  1
150
 41
0.9
 72
     1
 11
0.0
 21
-141.03768220895029
 31
0.0
  0
POINT
  8
DEFPOINTS
  6
CONTINUOUS
 62
    30
 10
-75.0
 20
-5.7056139999999687
 30
0.0
  0
POINT
  8
DEFPOINTS
  6
CONTINUOUS
 62
    30
 10
75.0
 20
-5.7056139999999687
 30
0.0
  0
POINT
  8
DEFPOINTS
  6
CONTINUOUS
 62
    30
 10
75.0
 20
-166.03768220895029
 30
0.0
  0
LINE
  8
SIZE
  6
CONTINUOUS
 62
    30
 10
-141.0
 20
-20.600173999999921
 30
0.0
 11
-141.0
 21
-421.47512544864293
 31
0.0
  0
LINE
  8
SIZE
  6
CONTINUOUS
 62
    30
 10
141.0
 20
-20.600173999999921
 30
0.0
 11
141.0
 21
-421.47512544864293
 31
0.0
  0
LINE
  8
SIZE
  6
CONTINUOUS
 62
    30
 10
-129.0
 20
-401.47512544864293
 30
0.0
 11
129.0
 21
-401.47512544864293
 31
0.0
  0
CIRCLE
  8
SIZE
  6
CONTINUOUS
 62
    30
 10
-141.0
 20
-401.47512544864293
 30
0.0
 40
6.0
  0
LINE
  8
SIZE
  6
CONTINUOUS
 62
    30
 10
-141.0
 20
-401.47512544864293
 30
0.0
 11
-129.0
 21
-401.47512544864293
 31
0.0
  0
CIRCLE
  8
SIZE
  6
CONTINUOUS
 62
    30
 10
141.0
 20
-401.47512544864293
 30
0.0
 40
6.0
  0
LINE
  8
SIZE
  6
CONTINUOUS
 62
    30
 10
141.0
 20
-401.47512544864293
 30
0.0
 11
129.0
 21
-401.47512544864293
 31
0.0
  0
TEXT
  8
SIZE
  6
CONTINUOUS
 62
    30
 10
-110.5371428571429
 20
-376.47512544864293
 30
0.0
 40
64.0
  1
□282
 41
0.9
 72
     1
 11
0.0
 21
-376.47512544864293
 31
0.0
  0
POINT
  8
DEFPOINTS
  6
CONTINUOUS
 62
    30
 10
-141.0
 20
-0.6001739999999245
 30
0.0
  0
POINT
  8
DEFPOINTS
  6
CONTINUOUS
 62
    30
 10
141.0
 20
-0.6001739999999245
 30
0.0
  0
POINT
  8
DEFPOINTS
  6
CONTINUOUS
 62
    30
 10
141.0
 20
-401.47512544864293
 30
0.0
  0
LINE
  8
SIZE
  6
CONTINUOUS
 62
    30
 10
54.950000000000053
 20
205.5497780000002
 30
0.0
 11
380.08534601033898
 21
205.54977800000009
 31
0.0
  0
LINE
  8
SIZE
  6
CONTINUOUS
 62
    30
 10
161.0
 20
0.0000000000001137
 30
0.0
 11
380.08534601033898
 21
0.0000000000000568
 31
0.0
  0
LINE
  8
SIZE
  6
CONTINUOUS
 62
    30
 10
360.08534601033898
 20
193.54977800000009
 30
0.0
 11
360.08534601033898
 21
12.00000000000006
 31
0.0
  0
CIRCLE
  8
SIZE
  6
CONTINUOUS
 62
    30
 10
360.08534601033898
 20
205.54977800000009
 30
0.0
 40
6.0
  0
LINE
  8
SIZE
  6
CONTINUOUS
 62
    30
 10
360.08534601033898
 20
205.54977800000009
 30
0.0
 11
360.08534601033898
 21
193.54977800000009
 31
0.0
  0
CIRCLE
  8
SIZE
  6
CONTINUOUS
 62
    30
 10
360.08534601033898
 20
0.0000000000000568
 30
0.0
 40
6.0
  0
LINE
  8
SIZE
  6
CONTINUOUS
 62
    30
 10
360.08534601033898
 20
0.0000000000000568
 30
0.0
 11
360.08534601033898
 21
12.00000000000006
 31
0.0
  0
TEXT
  8
SIZE
  6
CONTINUOUS
 62
    30
 10
335.08534601033898
 20
30.089174714285861
 30
0.0
 40
64.0
  1
206
 50
90.0
 41
0.9
 72
     1
 11
335.08534601033898
 21
102.7748890000001
 31
0.0
  0
POINT
  8
DEFPOINTS
  6
CONTINUOUS
 62
    30
 10
34.950000000000053
 20
205.5497780000002
 30
0.0
  0
POINT
  8
DEFPOINTS
  6
CONTINUOUS
 62
    30
 10
141.0
 20
0.0000000000001137
 30
0.0
  0
POINT
  8
DEFPOINTS
  6
CONTINUOUS
 62
    30
 10
360.08534601033898
 20
0.0000000000000568
 30
0.0
  0
LINE
  8
SIZE
  6
CONTINUOUS
 62
    30
 10
161.0
 20
0.0000000000001137
 30
0.0
 11
380.08534601033898
 21
0.0000000000000568
 31
0.0
  0
LINE
  8
SIZE
  6
CONTINUOUS
 62
    30
 10
129.00004398229521
 20
-15.000075999986111
 30
0.0
 11
380.08534601033898
 21
-15.000075999986169
 31
0.0
  0
LINE
  8
SIZE
  6
CONTINUOUS
 62
    30
 10
360.08534601033898
 20
12.00000000000006
 30
0.0
 11
360.08534601033898
 21
24.00000000000006
 31
0.0
  0
LINE
  8
SIZE
  6
CONTINUOUS
 62
    30
 10
360.08534601033898
 20
-27.000075999986169
 30
0.0
 11
360.08534601033898
 21
-171.2857902857005
 31
0.0
  0
LINE
  8
SIZE
  6
CONTINUOUS
 62
    30
 10
360.08534601033898
 20
0.0000000000000568
 30
0.0
 11
360.08534601033898
 21
-15.000075999986169
 31
0.0
  0
CIRCLE
  8
SIZE
  6
CONTINUOUS
 62
    30
 10
360.08534601033898
 20
0.0000000000000568
 30
0.0
 40
6.0
  0
LINE
  8
SIZE
  6
CONTINUOUS
 62
    30
 10
360.08534601033898
 20
0.0000000000000568
 30
0.0
 11
360.08534601033898
 21
12.00000000000006
 31
0.0
  0
CIRCLE
  8
SIZE
  6
CONTINUOUS
 62
    30
 10
360.08534601033898
 20
-15.000075999986169
 30
0.0
 40
6.0
  0
LINE
  8
SIZE
  6
CONTINUOUS
 62
    30
 10
360.08534601033898
 20
-15.000075999986169
 30
0.0
 11
360.08534601033898
 21
-27.000075999986169
 31
0.0
  0
TEXT
  8
SIZE
  6
CONTINUOUS
 62
    30
 10
335.08534601033898
 20
-146.28579028570039
 30
0.0
 40
64.0
  1
15
 50
90.0
 41
0.9
 72
     1
 11
335.08534601033898
 21
-105.14293314284321
 31
0.0
  0
POINT
  8
DEFPOINTS
  6
CONTINUOUS
 62
    30
 10
141.0
 20
0.0000000000001137
 30
0.0
  0
POINT
  8
DEFPOINTS
  6
CONTINUOUS
 62
    30
 10
109.0000439822952
 20
-15.000075999986111
 30
0.0
  0
POINT
  8
DEFPOINTS
  6
CONTINUOUS
 62
    30
 10
360.08534601033898
 20
-15.000075999986169
 30
0.0
  0
TEXT
  8
ETC
  6
CONTINUOUS
 62
    61
 10
517.52724069444912
 20
784.58930340560573
 30
0.0
 40
64.0
  1
VD-13ZVY6_4
 41
0.9
  0
TEXT
  8
ETC
  6
CONTINUOUS
 62
    61
 10
513.34124669444873
 20
666.63399339077455
 30
0.0
 40
64.0
  1
換気扇
 41
0.9
  0
TEXT
  8
ETC
  6
CONTINUOUS
 62
    61
 10
564.04264494300469
 20
558.48522050454926
 30
0.0
 40
40.0
  1
VD-13ZVY6
 41
0.9
  0
LINE
  8
DETAIL
  6
CONTINUOUS
 62
     5
 10
-121.5097810000001
 20
0.0
 30
0.0
 11
-121.5097810000001
 21
0.5001379999999926
 31
0.0
  0
LINE
  8
DETAIL
  6
CONTINUOUS
 62
     5
 10
-121.5097810000001
 20
0.5001379999999926
 30
0.0
 11
-98.600004000000126
 21
0.5000039999999899
 31
0.0
  0
ARC
  8
DETAIL
  6
CONTINUOUS
 62
     5
 10
-210.89994900000011
 20
53.499924000000078
 30
0.0
 40
0.5
 50
180.0
 51
270.0
  0
LINE
  8
DETAIL
  6
CONTINUOUS
 62
     5
 10
-157.92507499999999
 20
48.025050000000078
 30
0.0
 11
-158.5212690000001
 21
48.621244000000047
 31
0.0
  0
LINE
  8
DETAIL
  6
CONTINUOUS
 62
     5
 10
-181.48607100000001
 20
50.08571100000006
 30
0.0
 11
-183.96060900000001
 21
52.560249000000113
 31
0.0
  0
LINE
  8
DETAIL
  6
CONTINUOUS
 62
     5
 10
-160.64258900000021
 20
49.499924000000078
 30
0.0
 11
-180.07185699999999
 21
49.499924000000078
 31
0.0
  0
LINE
  8
DETAIL
  6
CONTINUOUS
 62
     5
 10
-185.0212690000001
 20
52.999588000000017
 30
0.0
 11
-210.89994900000011
 21
52.999588000000017
 31
0.0
  0
ARC
  8
DETAIL
  6
CONTINUOUS
 62
     5
 10
-185.0212690000001
 20
51.499588000000017
 30
0.0
 40
1.5
 50
44.999999999990777
 51
90.0
  0
ARC
  8
DETAIL
  6
CONTINUOUS
 62
     5
 10
-180.07185699999999
 20
51.499924000000078
 30
0.0
 40
2.0
 50
224.99999999999079
 51
270.0
  0
ARC
  8
DETAIL
  6
CONTINUOUS
 62
     5
 10
-160.64258900000021
 20
46.499924000000078
 30
0.0
 40
3.0
 50
44.999999999990777
 51
90.0
  0
ARC
  8
DETAIL
  6
CONTINUOUS
 62
     5
 10
-155.45020099999999
 20
50.499924000000078
 30
0.0
 40
3.5
 50
224.99999999999079
 51
270.0
  0
LINE
  8
DETAIL
  6
CONTINUOUS
 62
     5
 10
-155.45020099999999
 20
46.999924000000078
 30
0.0
 11
-100.5000070000001
 21
46.999924000000078
 31
0.0
  0
LINE
  8
DETAIL
  6
CONTINUOUS
 62
     5
 10
-211.39994900000011
 20
150.49992399999999
 30
0.0
 11
-211.39994900000011
 21
53.499924000000078
 31
0.0
  0
LINE
  8
DETAIL
  6
CONTINUOUS
 62
     5
 10
-180.89994900000011
 20
154.32028399999999
 30
0.0
 11
-180.89994900000011
 21
49.67941200000007
 31
0.0
  0
LINE
  8
DETAIL
  6
CONTINUOUS
 62
     5
 10
-159.39994900000011
 20
154.7693850000002
 30
0.0
 11
-159.39994900000011
 21
49.2304630000001
 31
0.0
  0
LINE
  8
DETAIL
  6
CONTINUOUS
 62
     5
 10
-184.39994900000011
 20
150.99992399999999
 30
0.0
 11
-184.39994900000011
 21
52.864858000000027
 31
0.0
  0
LINE
  8
DETAIL
  6
CONTINUOUS
 62
     5
 10
-157.92507499999999
 20
155.97479799999999
 30
0.0
 11
-158.5212690000001
 21
155.378604
 31
0.0
  0
LINE
  8
DETAIL
  6
CONTINUOUS
 62
     5
 10
-181.48573500000009
 20
153.91413800000009
 30
0.0
 11
-183.96060900000001
 21
151.43926400000009
 31
0.0
  0
LINE
  8
DETAIL
  6
CONTINUOUS
 62
     5
 10
-160.64258900000021
 20
154.49992399999999
 30
0.0
 11
-180.0715210000001
 21
154.49992399999999
 31
0.0
  0
LINE
  8
DETAIL
  6
CONTINUOUS
 62
     5
 10
-185.0212690000001
 20
150.99992399999999
 30
0.0
 11
-210.89994900000011
 21
150.99992399999999
 31
0.0
  0
ARC
  8
DETAIL
  6
CONTINUOUS
 62
     5
 10
-185.0212690000001
 20
152.49992399999999
 30
0.0
 40
1.5
 50
270.0
 51
315.00000000000921
  0
ARC
  8
DETAIL
  6
CONTINUOUS
 62
     5
 10
-180.0715210000001
 20
152.49992399999999
 30
0.0
 40
2.0
 50
90.0
 51
135.00000000000921
  0
ARC
  8
DETAIL
  6
CONTINUOUS
 62
     5
 10
-160.64258900000021
 20
157.49992399999999
 30
0.0
 40
3.0
 50
270.0
 51
315.00000000000921
  0
ARC
  8
DETAIL
  6
CONTINUOUS
 62
     5
 10
-155.45020099999999
 20
153.49992399999999
 30
0.0
 40
3.5
 50
90.0
 51
135.00000000000921
  0
LINE
  8
DETAIL
  6
CONTINUOUS
 62
     5
 10
-155.45020099999999
 20
156.99992399999999
 30
0.0
 11
-100.5000070000001
 21
156.99992399999999
 31
0.0
  0
ARC
  8
DETAIL
  6
CONTINUOUS
 62
     5
 10
-210.89994900000011
 20
150.49992399999999
 30
0.0
 40
0.5
 50
90.0
 51
180.0
  0
ARC
  8
DETAIL
  6
CONTINUOUS
 62
     5
 10
-97.950000000000045
 20
0.44992400000001
 30
0.0
 40
0.45
 50
270.0
 51
0.0
  0
ARC
  8
DETAIL
  6
CONTINUOUS
 62
     5
 10
-98.600000000000023
 20
1.1000040000000131
 30
0.0
 40
0.6
 50
269.99966399999738
 51
0.0
  0
LINE
  8
DETAIL
  6
CONTINUOUS
 62
     5
 10
-97.5
 20
0.44992400000001
 30
0.0
 11
-97.5
 21
154.94992400000001
 31
0.0
  0
LINE
  8
DETAIL
  6
CONTINUOUS
 62
     5
 10
-98.0
 20
170.49992399999999
 30
0.0
 11
-98.0
 21
1.1000040000000131
 31
0.0
  0
ARC
  8
DETAIL
  6
CONTINUOUS
 62
     5
 10
-100.5000070000001
 20
44.999924000000078
 30
0.0
 40
2.0
 50
0.0
 51
90.0
  0
LINE
  8
DETAIL
  6
CONTINUOUS
 62
     5
 10
-98.500007000000096
 20
34.999924000000078
 30
0.0
 11
-98.0
 21
34.999924000000078
 31
0.0
  0
LINE
  8
DETAIL
  6
CONTINUOUS
 62
     5
 10
-98.500007000000096
 20
169.58586200000011
 30
0.0
 11
-98.500007000000096
 21
34.999924000000078
 31
0.0
  0
LINE
  8
DETAIL
  6
CONTINUOUS
 62
     5
 10
-98.0
 20
169.58586200000011
 30
0.0
 11
-98.0
 21
34.999924000000078
 31
0.0
  0
LINE
  8
NOTE
  6
CENTER
 62
     4
 10
-66.304394000000002
 20
101.99992399999999
 30
0.0
 11
-216.39994900000011
 21
101.99992399999999
 31
0.0
  0
ARC
  8
DETAIL
  6
CONTINUOUS
 62
     5
 10
-90.500000000000114
 20
153.49992399999971
 30
0.0
 40
3.000000000000286
 50
28.90333453985194
 51
90.0
  0
ARC
  8
DETAIL
  6
CONTINUOUS
 62
     5
 10
-100.5000070000001
 20
158.99992399999999
 30
0.0
 40
2.0
 50
270.0
 51
0.0
  0
LINE
  8
DETAIL
  6
CONTINUOUS
 62
     5
 10
-98.500007000000096
 20
169.58586200000011
 30
0.0
 11
-98.0
 21
169.58586200000011
 31
0.0
  0
ARC
  8
DETAIL
  6
CONTINUOUS
 62
     5
 10
-97.5
 20
170.49992399999999
 30
0.0
 40
0.5
 50
0.0
 51
90.0
  0
ARC
  8
DETAIL
  6
CONTINUOUS
 62
     5
 10
-97.5
 20
170.49992399999999
 30
0.0
 40
0.5
 50
90.0
 51
180.0
  0
LINE
  8
DETAIL
  6
CONTINUOUS
 62
     5
 10
-97.0
 20
170.49992399999999
 30
0.0
 11
-97.0
 21
156.49992399999999
 31
0.0
  0
LINE
  8
DETAIL
  6
CONTINUOUS
 62
     5
 10
-97.5
 20
170.49992399999999
 30
0.0
 11
-97.5
 21
156.49992399999999
 31
0.0
  0
LINE
  8
DETAIL
  6
CONTINUOUS
 62
     5
 10
-98.0
 20
156.49992399999999
 30
0.0
 11
-90.5
 21
156.49992399999999
 31
0.0
  0
LINE
  8
DETAIL
  6
CONTINUOUS
 62
     5
 10
-16.950000000000049
 20
205.54977800000009
 30
0.0
 11
34.950000000000053
 21
205.54977800000009
 31
0.0
  0
ARC
  8
DETAIL
  6
CONTINUOUS
 62
     5
 10
-16.950000000000049
 20
200.04977800000009
 30
0.0
 40
5.5
 50
90.0
 51
180.0
  0
LINE
  8
DETAIL
  6
CONTINUOUS
 62
     5
 10
-22.450000000000049
 20
200.04977800000009
 30
0.0
 11
-22.450000000000049
 21
161.34982600000001
 31
0.0
  0
ARC
  8
DETAIL
  6
CONTINUOUS
 62
     5
 10
34.950000000000053
 20
200.04977800000009
 30
0.0
 40
5.5
 50
0.0
 51
90.0
  0
LINE
  8
DETAIL
  6
CONTINUOUS
 62
     5
 10
40.450000000000053
 20
200.04977800000009
 30
0.0
 11
40.450000000000053
 21
161.34982600000001
 31
0.0
  0
LINE
  8
DETAIL
  6
CONTINUOUS
 62
     5
 10
-141.0
 20
-0.6001739999999245
 30
0.0
 11
141.0
 21
-0.6001739999999245
 31
0.0
  0
LINE
  8
DETAIL
  6
CONTINUOUS
 62
     5
 10
141.0
 20
0.0
 30
0.0
 11
-141.0
 21
0.0
 31
0.0
  0
LINE
  8
DETAIL
  6
CONTINUOUS
 62
     5
 10
-109.0
 20
-15.00007599999992
 30
0.0
 11
109.0
 21
-15.00007599999992
 31
0.0
  0
ARC
  8
DETAIL
  6
CONTINUOUS
 62
     5
 10
-137.0
 20
-6.967804000000001
 30
0.0
 40
2.0
 50
179.9999629999937
 51
245.68426999999579
  0
ARC
  8
DETAIL
  6
CONTINUOUS
 62
     5
 10
-139.39999400000011
 20
-1.000075999999922
 30
0.0
 40
0.4
 50
359.9999989999921
 51
90.0
  0
LINE
  8
DETAIL
  6
CONTINUOUS
 62
     5
 10
-139.0
 20
-1.000075999999922
 30
0.0
 11
-139.0
 21
-6.967804000000001
 31
0.0
  0
LINE
  8
DETAIL
  6
CONTINUOUS
 62
     5
 10
-141.0
 20
-0.0000759999999218
 30
0.0
 11
-141.0
 21
-0.6001739999999245
 31
0.0
  0
ARC
  8
DETAIL
  6
CONTINUOUS
 62
     5
 10
-109.0
 20
54.999924000000078
 30
0.0
 40
70.0
 50
245.68426999999579
 51
269.99996400000163
  0
ARC
  8
DETAIL
  6
CONTINUOUS
 62
     5
 10
109.0
 20
54.999924000000078
 30
0.0
 40
70.0
 50
270.00003599999837
 51
294.31573000000418
  0
ARC
  8
DETAIL
  6
CONTINUOUS
 62
     5
 10
137.0
 20
-6.967804000000001
 30
0.0
 40
2.0
 50
294.31573000000418
 51
0.0000370000063293
  0
ARC
  8
DETAIL
  6
CONTINUOUS
 62
     5
 10
139.39999299999999
 20
-1.000075999999922
 30
0.0
 40
0.4
 50
90.0
 51
180.00000099999491
  0
LINE
  8
DETAIL
  6
CONTINUOUS
 62
     5
 10
139.0
 20
-1.000075999999922
 30
0.0
 11
139.0
 21
-6.967804000000001
 31
0.0
  0
LINE
  8
DETAIL
  6
CONTINUOUS
 62
     5
 10
141.0
 20
-0.0000759999999218
 30
0.0
 11
141.0
 21
-0.6001739999999245
 31
0.0
  0
LINE
  8
DETAIL
  6
CONTINUOUS
 62
     5
 10
54.195729000000028
 20
161.34982600000001
 30
0.0
 11
-36.171559000000123
 21
161.34982600000001
 31
0.0
  0
LINE
  8
DETAIL
  6
CONTINUOUS
 62
     5
 10
-98.0
 20
154.94992400000001
 30
0.0
 11
95.599994999999808
 21
154.94992400000001
 31
0.0
  0
LINE
  8
DETAIL
  6
CONTINUOUS
 62
     5
 10
-98.0
 20
146.99992399999999
 30
0.0
 11
96.129734999999982
 21
146.99992399999999
 31
0.0
  0
ARC
  8
DETAIL
  6
CONTINUOUS
 62
     5
 10
97.950000000000045
 20
0.44992400000001
 30
0.0
 40
0.45
 50
180.0
 51
270.0
  0
LINE
  8
DETAIL
  6
CONTINUOUS
 62
     5
 10
97.5
 20
0.44992400000001
 30
0.0
 11
97.5
 21
3.5499240000000332
 31
0.0
  0
LINE
  8
DETAIL
  6
CONTINUOUS
 62
     5
 10
-43.399869000000081
 20
154.94992400000001
 30
0.0
 11
-37.585906000000023
 21
160.7638870000001
 31
0.0
  0
ARC
  8
DETAIL
  6
CONTINUOUS
 62
     5
 10
-36.171559000000123
 20
159.3495820000002
 30
0.0
 40
2.0
 50
90.00007199999682
 51
135.00052700001251
  0
LINE
  8
DETAIL
  6
CONTINUOUS
 62
     5
 10
97.5
 20
0.44992400000001
 30
0.0
 11
97.5
 21
146.0999240000001
 31
0.0
  0
ARC
  8
DETAIL
  6
CONTINUOUS
 62
     5
 10
95.59999300000004
 20
153.34982600000001
 30
0.0
 40
1.6000000000000001
 50
0.0000009999948896
 51
89.99992800000318
  0
LINE
  8
DETAIL
  6
CONTINUOUS
 62
     5
 10
97.200000000000045
 20
153.34982600000001
 30
0.0
 11
97.200000000000045
 21
148.0497290000001
 31
0.0
  0
ARC
  8
DETAIL
  6
CONTINUOUS
 62
     5
 10
96.149996999999985
 20
148.0497290000001
 30
0.0
 40
1.05
 50
268.89432699999429
 51
0.0000009999948896
  0
ARC
  8
DETAIL
  6
CONTINUOUS
 62
     5
 10
96.599999999999909
 20
146.0999240000001
 30
0.0
 40
0.9
 50
0.0
 51
90.0
  0
LINE
  8
DETAIL
  6
CONTINUOUS
 62
     5
 10
61.399867999999969
 20
154.94992400000001
 30
0.0
 11
55.585904999999912
 21
160.7638870000001
 31
0.0
  0
ARC
  8
DETAIL
  6
CONTINUOUS
 62
     5
 10
54.171557999999777
 20
159.3495820000002
 30
0.0
 40
2.0
 50
44.999472999987553
 51
89.99992800000318
  0
LINE
  8
NOTE
  6
CENTER
 62
     4
 10
-77.0
 20
126.198543
 30
0.0
 11
-77.0
 21
174.401464
 31
0.0
  0
LINE
  8
NOTE
  6
CENTER
 62
     4
 10
106.0
 20
-5.7056139999999687
 30
0.0
 11
106.0
 21
4.141980999999987
 31
0.0
  0
LINE
  8
NOTE
  6
CENTER
 62
     4
 10
75.0
 20
-5.7056139999999687
 30
0.0
 11
75.0
 21
5.0742970000000014
 31
0.0
  0
LINE
  8
NOTE
  6
CENTER
 62
     4
 10
-106.0
 20
-5.7056139999999687
 30
0.0
 11
-106.0
 21
4.141980999999987
 31
0.0
  0
LINE
  8
NOTE
  6
CENTER
 62
     4
 10
-75.0
 20
-5.7056139999999687
 30
0.0
 11
-75.0
 21
5.0742970000000014
 31
0.0
  0
ARC
  8
OUTLINE
  6
CONTINUOUS
 62
     3
 10
-210.89994900000011
 20
53.499924000000078
 30
0.0
 40
0.5
 50
180.0
 51
270.0
  0
LINE
  8
OUTLINE
  6
CONTINUOUS
 62
     3
 10
-157.92507499999999
 20
48.025050000000078
 30
0.0
 11
-158.5212690000001
 21
48.621244000000161
 31
0.0
  0
LINE
  8
OUTLINE
  6
CONTINUOUS
 62
     3
 10
-181.48607100000001
 20
50.08571100000006
 30
0.0
 11
-183.96060900000001
 21
52.560249000000113
 31
0.0
  0
LINE
  8
OUTLINE
  6
CONTINUOUS
 62
     3
 10
-160.64258900000021
 20
49.499924000000078
 30
0.0
 11
-180.07185699999999
 21
49.499924000000078
 31
0.0
  0
LINE
  8
OUTLINE
  6
CONTINUOUS
 62
     3
 10
-185.0212690000001
 20
52.999588000000131
 30
0.0
 11
-210.89994900000011
 21
52.999588000000131
 31
0.0
  0
ARC
  8
OUTLINE
  6
CONTINUOUS
 62
     3
 10
-185.0212690000001
 20
51.499588000000131
 30
0.0
 40
1.5
 50
44.999999999990777
 51
90.0
  0
ARC
  8
OUTLINE
  6
CONTINUOUS
 62
     3
 10
-180.07185699999999
 20
51.499924000000078
 30
0.0
 40
2.0
 50
224.99999999999079
 51
270.0
  0
ARC
  8
OUTLINE
  6
CONTINUOUS
 62
     3
 10
-160.64258900000021
 20
46.499924000000078
 30
0.0
 40
3.0
 50
44.999999999990777
 51
90.0
  0
ARC
  8
OUTLINE
  6
CONTINUOUS
 62
     3
 10
-155.45020099999999
 20
50.499924000000078
 30
0.0
 40
3.5
 50
224.99999999999079
 51
270.0
  0
LINE
  8
OUTLINE
  6
CONTINUOUS
 62
     3
 10
-155.45020099999999
 20
46.999924000000078
 30
0.0
 11
-100.5000070000001
 21
46.999924000000078
 31
0.0
  0
LINE
  8
OUTLINE
  6
CONTINUOUS
 62
     3
 10
-211.39994900000011
 20
150.49992400000019
 30
0.0
 11
-211.39994900000011
 21
53.499924000000078
 31
0.0
  0
LINE
  8
OUTLINE
  6
CONTINUOUS
 62
     3
 10
-157.92507499999999
 20
155.97479800000019
 30
0.0
 11
-158.5212690000001
 21
155.37860400000011
 31
0.0
  0
LINE
  8
OUTLINE
  6
CONTINUOUS
 62
     3
 10
-181.48573500000009
 20
153.91413800000021
 30
0.0
 11
-183.96060900000001
 21
151.43926400000009
 31
0.0
  0
LINE
  8
OUTLINE
  6
CONTINUOUS
 62
     3
 10
-160.64258900000021
 20
154.49992400000019
 30
0.0
 11
-180.0715210000001
 21
154.49992400000019
 31
0.0
  0
LINE
  8
OUTLINE
  6
CONTINUOUS
 62
     3
 10
-185.0212690000001
 20
150.99992400000019
 30
0.0
 11
-210.89994900000011
 21
150.99992400000019
 31
0.0
  0
ARC
  8
OUTLINE
  6
CONTINUOUS
 62
     3
 10
-185.0212690000001
 20
152.49992400000019
 30
0.0
 40
1.5
 50
270.0
 51
315.00000000000921
  0
ARC
  8
OUTLINE
  6
CONTINUOUS
 62
     3
 10
-180.0715210000001
 20
152.49992400000019
 30
0.0
 40
2.0
 50
90.0
 51
135.00000000000921
  0
ARC
  8
OUTLINE
  6
CONTINUOUS
 62
     3
 10
-160.64258900000021
 20
157.49992400000019
 30
0.0
 40
3.0
 50
270.0
 51
315.00000000000921
  0
ARC
  8
OUTLINE
  6
CONTINUOUS
 62
     3
 10
-155.45020099999999
 20
153.49992400000019
 30
0.0
 40
3.5
 50
90.0
 51
135.00000000000921
  0
LINE
  8
OUTLINE
  6
CONTINUOUS
 62
     3
 10
-155.45020099999999
 20
156.99992400000019
 30
0.0
 11
-100.5000070000001
 21
156.99992400000019
 31
0.0
  0
ARC
  8
OUTLINE
  6
CONTINUOUS
 62
     3
 10
-210.89994900000011
 20
150.49992400000019
 30
0.0
 40
0.5
 50
90.0
 51
180.0
  0
ARC
  8
OUTLINE
  6
CONTINUOUS
 62
     3
 10
-100.5000070000001
 20
44.999924000000078
 30
0.0
 40
2.0
 50
0.0
 51
90.0
  0
LINE
  8
OUTLINE
  6
CONTINUOUS
 62
     3
 10
-98.500007000000096
 20
34.999924000000078
 30
0.0
 11
-98.0
 21
34.999924000000078
 31
0.0
  0
ARC
  8
OUTLINE
  6
CONTINUOUS
 62
     3
 10
-100.5000070000001
 20
158.99992400000019
 30
0.0
 40
2.0
 50
270.0
 51
0.0
  0
LINE
  8
OUTLINE
  6
CONTINUOUS
 62
     3
 10
-98.500007000000096
 20
169.58586200000011
 30
0.0
 11
-98.0
 21
169.58586200000011
 31
0.0
  0
ARC
  8
OUTLINE
  6
CONTINUOUS
 62
     3
 10
-97.5
 20
170.49992400000019
 30
0.0
 40
0.5
 50
0.0
 51
90.0
  0
ARC
  8
OUTLINE
  6
CONTINUOUS
 62
     3
 10
-97.5
 20
170.49992400000019
 30
0.0
 40
0.5
 50
90.0
 51
180.0
  0
LINE
  8
OUTLINE
  6
CONTINUOUS
 62
     3
 10
-16.950000000000049
 20
205.5497780000002
 30
0.0
 11
34.950000000000053
 21
205.5497780000002
 31
0.0
  0
ARC
  8
OUTLINE
  6
CONTINUOUS
 62
     3
 10
-16.950000000000049
 20
200.0497780000002
 30
0.0
 40
5.5
 50
90.0
 51
180.0
  0
LINE
  8
OUTLINE
  6
CONTINUOUS
 62
     3
 10
-22.450000000000049
 20
200.0497780000002
 30
0.0
 11
-22.450000000000049
 21
161.34982600000009
 31
0.0
  0
ARC
  8
OUTLINE
  6
CONTINUOUS
 62
     3
 10
34.950000000000053
 20
200.0497780000002
 30
0.0
 40
5.5
 50
0.0
 51
90.0
  0
LINE
  8
OUTLINE
  6
CONTINUOUS
 62
     3
 10
40.450000000000053
 20
200.0497780000002
 30
0.0
 11
40.450000000000053
 21
161.34982600000009
 31
0.0
  0
LINE
  8
OUTLINE
  6
CONTINUOUS
 62
     3
 10
-109.0
 20
-15.00007599999992
 30
0.0
 11
109.0
 21
-15.00007599999992
 31
0.0
  0
ARC
  8
OUTLINE
  6
CONTINUOUS
 62
     3
 10
-137.0
 20
-6.9678039999997736
 30
0.0
 40
2.0
 50
179.9999629999937
 51
245.68426999999579
  0
LINE
  8
OUTLINE
  6
CONTINUOUS
 62
     3
 10
-139.0
 20
-1.000075999999922
 30
0.0
 11
-139.0
 21
-6.9678039999997736
 31
0.0
  0
LINE
  8
OUTLINE
  6
CONTINUOUS
 62
     3
 10
-141.0
 20
-0.0000759999999218
 30
0.0
 11
-141.0
 21
-0.6001739999998108
 31
0.0
  0
ARC
  8
OUTLINE
  6
CONTINUOUS
 62
     3
 10
-109.0
 20
54.999924000000078
 30
0.0
 40
70.0
 50
245.68426999999579
 51
269.99996400000163
  0
ARC
  8
OUTLINE
  6
CONTINUOUS
 62
     3
 10
109.0
 20
54.999924000000078
 30
0.0
 40
70.0
 50
270.00003599999837
 51
294.31573000000418
  0
ARC
  8
OUTLINE
  6
CONTINUOUS
 62
     3
 10
137.0
 20
-6.9678039999997736
 30
0.0
 40
2.0
 50
294.31573000000418
 51
0.0000370000063293
  0
LINE
  8
OUTLINE
  6
CONTINUOUS
 62
     3
 10
139.0
 20
-1.000075999999922
 30
0.0
 11
139.0
 21
-6.9678039999997736
 31
0.0
  0
LINE
  8
OUTLINE
  6
CONTINUOUS
 62
     3
 10
97.5
 20
0.4499240000001237
 30
0.0
 11
97.5
 21
3.549924000000146
 31
0.0
  0
LINE
  8
OUTLINE
  6
CONTINUOUS
 62
     3
 10
-43.399869000000081
 20
154.9499240000001
 30
0.0
 11
-37.585906000000023
 21
160.76388700000021
 31
0.0
  0
ARC
  8
OUTLINE
  6
CONTINUOUS
 62
     3
 10
-36.171559000000123
 20
159.3495820000002
 30
0.0
 40
2.0
 50
90.00007199999682
 51
135.00052700001251
  0
ARC
  8
OUTLINE
  6
CONTINUOUS
 62
     3
 10
95.59999300000004
 20
153.34982600000009
 30
0.0
 40
1.6000000000000001
 50
0.0000009999948896
 51
89.99992800000318
  0
LINE
  8
OUTLINE
  6
CONTINUOUS
 62
     3
 10
97.200000000000045
 20
153.34982600000009
 30
0.0
 11
97.200000000000045
 21
148.04972900000021
 31
0.0
  0
ARC
  8
OUTLINE
  6
CONTINUOUS
 62
     3
 10
96.149996999999985
 20
148.04972900000021
 30
0.0
 40
1.05
 50
268.89432699999429
 51
0.0000009999948896
  0
ARC
  8
OUTLINE
  6
CONTINUOUS
 62
     3
 10
96.599999999999909
 20
146.0999240000001
 30
0.0
 40
0.9
 50
0.0
 51
90.0
  0
LINE
  8
OUTLINE
  6
CONTINUOUS
 62
     3
 10
61.399867999999969
 20
154.9499240000001
 30
0.0
 11
55.585904999999912
 21
160.76388700000021
 31
0.0
  0
ARC
  8
OUTLINE
  6
CONTINUOUS
 62
     3
 10
54.171557999999777
 20
159.3495820000002
 30
0.0
 40
2.0
 50
44.999472999987553
 51
89.99992800000318
  0
LINE
  8
OUTLINE
  6
CONTINUOUS
 62
     3
 10
54.195729000000028
 20
161.34982600000009
 30
0.0
 11
40.450000000000053
 21
161.34982600000009
 31
0.0
  0
LINE
  8
OUTLINE
  6
CONTINUOUS
 62
     3
 10
-22.450000000000049
 20
161.34982600000009
 30
0.0
 11
-36.171559000000123
 21
161.34982600000009
 31
0.0
  0
LINE
  8
OUTLINE
  6
CONTINUOUS
 62
     3
 10
-87.873691000000008
 20
154.9499240000001
 30
0.0
 11
-43.399869000000081
 21
154.9499240000001
 31
0.0
  0
LINE
  8
OUTLINE
  6
CONTINUOUS
 62
     3
 10
61.399867999999969
 20
154.9499240000001
 30
0.0
 11
95.599994999999808
 21
154.9499240000001
 31
0.0
  0
ARC
  8
OUTLINE
  6
CONTINUOUS
 62
     3
 10
-90.5
 20
153.49992400000019
 30
0.0
 40
3.0
 50
28.903335000006731
 51
90.0
  0
LINE
  8
OUTLINE
  6
CONTINUOUS
 62
     3
 10
-98.500007000000096
 20
44.999924000000078
 30
0.0
 11
-98.500007000000096
 21
34.999924000000078
 31
0.0
  0
LINE
  8
OUTLINE
  6
CONTINUOUS
 62
     3
 10
-98.500007000000096
 20
169.58586200000011
 30
0.0
 11
-98.500007000000096
 21
158.99992400000019
 31
0.0
  0
LINE
  8
OUTLINE
  6
CONTINUOUS
 62
     3
 10
-98.0
 20
170.49992400000019
 30
0.0
 11
-98.0
 21
169.58586200000011
 31
0.0
  0
LINE
  8
OUTLINE
  6
CONTINUOUS
 62
     3
 10
-97.0
 20
156.49992400000019
 30
0.0
 11
-90.5
 21
156.49992400000019
 31
0.0
  0
LINE
  8
OUTLINE
  6
CONTINUOUS
 62
     3
 10
-97.0
 20
170.49992400000019
 30
0.0
 11
-97.0
 21
156.49992400000019
 31
0.0
  0
LINE
  8
OUTLINE
  6
CONTINUOUS
 62
     3
 10
-98.0
 20
34.999924000000078
 30
0.0
 11
-98.0
 21
0.0000000000001137
 31
0.0
  0
LINE
  8
OUTLINE
  6
CONTINUOUS
 62
     3
 10
-98.0
 20
0.0000000000001137
 30
0.0
 11
-141.0
 21
0.0000000000001137
 31
0.0
  0
LINE
  8
OUTLINE
  6
CONTINUOUS
 62
     3
 10
-141.0
 20
-0.6001739999998108
 30
0.0
 11
-139.39115699999999
 21
-0.6001739999998108
 31
0.0
  0
ARC
  8
OUTLINE
  6
CONTINUOUS
 62
     3
 10
-139.39999400000011
 20
-1.000075999999922
 30
0.0
 40
0.4
 50
359.9999989999921
 51
88.734058999998837
  0
ARC
  8
OUTLINE
  6
CONTINUOUS
 62
     3
 10
139.39999299999999
 20
-1.000075999999922
 30
0.0
 40
0.4
 50
91.265941000001177
 51
180.00000099999491
  0
LINE
  8
OUTLINE
  6
CONTINUOUS
 62
     3
 10
141.0
 20
-0.6001739999998108
 30
0.0
 11
139.39115599999991
 21
-0.6001739999998108
 31
0.0
  0
LINE
  8
OUTLINE
  6
CONTINUOUS
 62
     3
 10
141.0
 20
0.0000000000001137
 30
0.0
 11
141.0
 21
-0.6001739999998108
 31
0.0
  0
LINE
  8
OUTLINE
  6
CONTINUOUS
 62
     3
 10
97.5
 20
0.0000000000001137
 30
0.0
 11
141.0
 21
0.0000000000001137
 31
0.0
  0
LINE
  8
OUTLINE
  6
CONTINUOUS
 62
     3
 10
97.5
 20
0.0000000000001137
 30
0.0
 11
97.5
 21
146.0999240000001
 31
0.0
  0
TEXT
  8
NOTE
  6
CONTINUOUS
 62
     4
 10
369.70928249910088
 20
297.30655089318111
 30
0.0
 40
63.999999999999993
  1
8-φ5×8
 41
0.9
  0
LINE
  8
NOTE
  6
CONTINUOUS
 62
     4
 10
341.28356948079181
 20
264.81163527260509
 30
0.0
 11
753.7394207379848
 21
264.81163527260509
 31
0.0
  0
ENDSEC
  0
EOF
