  0
SECTION
  2
HEADER
  9
$ACADVER
  1
AC1009
  9
$DWGCODEPAGE
  3
dos932
  9
$INSBASE
 10
0.0
 20
0.0
 30
0.0
  9
$EXTMIN
 10
-912.18326829012585
 20
-730.91124351009603
 30
-0.0038144062317542
  9
$EXTMAX
 10
965.39337402433557
 20
908.75244979834133
 30
0.0057221914242405
  9
$LIMMIN
 10
-2970.0
 20
-2100.0
  9
$LIMMAX
 10
2970.0
 20
2100.0
  9
$ORTHOMODE
 70
     1
  9
$REGENMODE
 70
     1
  9
$FILLMODE
 70
     1
  9
$QTEXTMODE
 70
     0
  9
$MIRRTEXT
 70
     0
  9
$LTSCALE
 40
20.0
  9
$ATTMODE
 70
     1
  9
$TEXTSIZE
 40
64.0
  9
$TRACEWID
 40
0.05
  9
$TEXTSTYLE
  7
STANDARD
  9
$CLAYER
  8
OUTLINE
  9
$CELTYPE
  6
CONTINUOUS
  9
$CECOLOR
 62
     7
  9
$DIMSCALE
 40
1.0
  9
$DIMASZ
 40
12.0
  9
$DIMEXO
 40
20.0
  9
$DIMDLI
 40
200.0
  9
$DIMRND
 40
0.0
  9
$DIMDLE
 40
0.0
  9
$DIMEXE
 40
20.0
  9
$DIMTP
 40
0.0
  9
$DIMTM
 40
0.0
  9
$DIMTXT
 40
64.0
  9
$DIMCEN
 40
0.09
  9
$DIMTSZ
 40
0.0
  9
$DIMTOL
 70
     0
  9
$DIMLIM
 70
     0
  9
$DIMTIH
 70
     0
  9
$DIMTOH
 70
     0
  9
$DIMSE1
 70
     0
  9
$DIMSE2
 70
     0
  9
$DIMTAD
 70
     1
  9
$DIMZIN
 70
     8
  9
$DIMBLK
  1

  9
$DIMASO
 70
     1
  9
$DIMSHO
 70
     0
  9
$DIMPOST
  1

  9
$DIMAPOST
  1

  9
$DIMALT
 70
     0
  9
$DIMALTD
 70
     2
  9
$DIMALTF
 40
25.399999999999999
  9
$DIMLFAC
 40
1.0
  9
$DIMTOFL
 70
     1
  9
$DIMTVP
 40
0.0
  9
$DIMTIX
 70
     1
  9
$DIMSOXD
 70
     0
  9
$DIMSAH
 70
     0
  9
$DIMBLK1
  1

  9
$DIMBLK2
  1

  9
$DIMSTYLE
  2
STANDARD
  9
$DIMCLRD
 70
     7
  9
$DIMCLRE
 70
     7
  9
$DIMCLRT
 70
     7
  9
$DIMTFAC
 40
1.0
  9
$DIMGAP
 40
25.0
  9
$LUNITS
 70
     2
  9
$LUPREC
 70
     4
  9
$SKETCHINC
 40
0.1
  9
$FILLETRAD
 40
3.0
  9
$AUNITS
 70
     1
  9
$AUPREC
 70
     3
  9
$MENU
  1
ACAD
  9
$ELEVATION
 40
0.0
  9
$PELEVATION
 40
0.0
  9
$THICKNESS
 40
50.0
  9
$LIMCHECK
 70
     0
  9
$CHAMFERA
 40
0.0
  9
$CHAMFERB
 40
0.0
  9
$SKPOLY
 70
     0
  9
$TDCREATE
 40
2453019.62301037
  9
$TDUPDATE
 40
2458899.489869051
  9
$TDINDWG
 40
1.7737242708
  9
$TDUSRTIMER
 40
1.7737242708
  9
$USRTIMER
 70
     1
  9
$ANGBASE
 50
0.0
  9
$ANGDIR
 70
     0
  9
$PDMODE
 70
     3
  9
$PDSIZE
 40
-2.0
  9
$PLINEWID
 40
0.0
  9
$SPLFRAME
 70
     0
  9
$SPLINETYPE
 70
     6
  9
$SPLINESEGS
 70
     8
  9
$SURFTAB1
 70
     6
  9
$SURFTAB2
 70
     6
  9
$SURFTYPE
 70
     6
  9
$SURFU
 70
     6
  9
$SURFV
 70
     6
  9
$UCSNAME
  2

  9
$UCSORG
 10
0.0
 20
0.0
 30
0.0
  9
$UCSXDIR
 10
1.0
 20
0.0
 30
0.0
  9
$UCSYDIR
 10
0.0
 20
1.0
 30
0.0
  9
$PUCSNAME
  2

  9
$PUCSORG
 10
0.0
 20
0.0
 30
0.0
  9
$PUCSXDIR
 10
1.0
 20
0.0
 30
0.0
  9
$PUCSYDIR
 10
0.0
 20
1.0
 30
0.0
  9
$USERI1
 70
     0
  9
$USERI2
 70
     0
  9
$USERI3
 70
     0
  9
$USERI4
 70
     0
  9
$USERI5
 70
     0
  9
$USERR1
 40
20.0
  9
$USERR2
 40
0.0
  9
$USERR3
 40
0.0
  9
$USERR4
 40
0.0
  9
$USERR5
 40
0.0
  9
$WORLDVIEW
 70
     1
  9
$SHADEDGE
 70
     3
  9
$SHADEDIF
 70
    70
  9
$TILEMODE
 70
     1
  9
$MAXACTVP
 70
    48
  9
$PINSBASE
 10
0.0
 20
0.0
 30
0.0
  9
$PLIMCHECK
 70
     0
  9
$PEXTMIN
 10
-100000000000000000000.0
 20
-100000000000000000000.0
 30
-100000000000000000000.0
  9
$PEXTMAX
 10
100000000000000000000.0
 20
100000000000000000000.0
 30
100000000000000000000.0
  9
$PLIMMIN
 10
0.0
 20
0.0
  9
$PLIMMAX
 10
12.0
 20
9.0
  9
$UNITMODE
 70
     0
  9
$VISRETAIN
 70
     0
  9
$PLINEGEN
 70
     0
  9
$PSLTSCALE
 70
     0
  9
$TREEDEPTH
 70
  3020
  9
$ATTDIA
 70
     0
  9
$ATTREQ
 70
     1
  9
$BLIPMODE
 70
     1
  9
$COORDS
 70
     1
  9
$DRAGMODE
 70
     2
  9
$OSMODE
 70
     0
  9
$HANDLING
 70
     0
  9
$HANDSEED
  5
1AD66
  0
ENDSEC
  0
SECTION
  2
TABLES
  0
TABLE
  2
LTYPE
 70
     2
  0
LTYPE
  2
CONTINUOUS
 70
     0
  3
実線
 72
    65
 73
     0
 40
0.0
  0
LTYPE
  2
DASHDOT
 70
     0
  3
____ _ ____ _ ____ _ ____ _ ____ _ ____ _ ____
 72
    65
 73
     4
 40
5.5
 49
4.0
 49
-0.6
 49
0.3
 49
-0.6
  0
ENDTAB
  0
TABLE
  2
LAYER
 70
    12
  0
LAYER
  2
0
 70
     0
 62
     7
  6
CONTINUOUS
  0
LAYER
  2
BASIS
 70
     0
 62
     6
  6
DASHDOT
  0
LAYER
  2
OUTLINE
 70
     0
 62
     3
  6
CONTINUOUS
  0
LAYER
  2
DETAIL
 70
     0
 62
     5
  6
CONTINUOUS
  0
LAYER
  2
SIZE
 70
     0
 62
    30
  6
CONTINUOUS
  0
LAYER
  2
ARRANGE
 70
     0
 62
     1
  6
CONTINUOUS
  0
LAYER
  2
DEFPOINTS
 70
     0
 62
     7
  6
CONTINUOUS
  0
LAYER
  2
ETC
 70
     0
 62
    61
  6
CONTINUOUS
  0
LAYER
  2
FIX
 70
     0
 62
    11
  6
CONTINUOUS
  0
LAYER
  2
NOTE
 70
     0
 62
     4
  6
CONTINUOUS
  0
LAYER
  2
SERVICESPACE
 70
    64
 62
     2
  6
DASHDOT
  0
LAYER
  2
SYMBOLLINE
 70
    64
 62
    15
  6
CONTINUOUS
  0
ENDTAB
  0
TABLE
  2
STYLE
 70
     1
  0
STYLE
  2
STANDARD
 70
     0
 40
64.0
 41
0.9
 50
0.0
 71
     0
 42
64.0
  3
SIMPLEX.shx
  4
BIGFONT.shx
  0
ENDTAB
  0
TABLE
  2
APPID
 70
    17
  0
APPID
  2
ACAD
 70
     0
  0
APPID
  2
AUTOCAD_POSTSCRIPT_FIGURE
 70
     0
  0
APPID
  2
ACAD_EXEMPT_FROM_CAD_STANDARDS
 70
     0
  0
APPID
  2
ACAD_PSEXT
 70
     0
  0
APPID
  2
ACAUTHENVIRON
 70
     0
  0
APPID
  2
GENIUS_GENOENT_13
 70
     0
  0
APPID
  2
GENIUS_GENCFG_13
 70
     0
  0
APPID
  2
GENIUS_GENCFG0_13
 70
     0
  0
APPID
  2
GENIUS_GENCFG1_13
 70
     0
  0
APPID
  2
GENIUS_GENCFG2_13
 70
     0
  0
APPID
  2
GENIUS_GENCFG3_13
 70
     0
  0
APPID
  2
GENIUS_GENCFG4_13
 70
     0
  0
APPID
  2
GENIUS_GEVCFG0_13
 70
     0
  0
APPID
  2
CONTENTBLOCKICON
 70
     0
  0
APPID
  2
CONTENTBLOCKDESCRIPTION
 70
     0
  0
APPID
  2
ACAD_NAV_VCDISPLAY
 70
     0
  0
APPID
  2
ACAD_MLEADERVER
 70
     0
  0
ENDTAB
  0
TABLE
  2
DIMSTYLE
 70
     1
  0
DIMSTYLE
  2
STANDARD
 70
     0
  3

  4

  5
_ORIGIN
  6

  7

 40
1.0
 41
12.0
 42
20.0
 43
200.0
 44
20.0
 45
0.0
 46
0.0
 47
0.0
 48
0.0
140
64.0
141
0.09
142
0.0
143
25.399999999999999
144
1.0
145
0.0
146
1.0
147
25.0
 71
     0
 72
     0
 73
     0
 74
     0
 75
     0
 76
     0
 77
     1
 78
     8
170
     0
171
     2
172
     1
173
     0
174
     1
175
     0
176
     7
177
     7
178
     7
  0
ENDTAB
  0
TABLE
  2
VIEW
 70
     1
  0
VIEW
  2
ALL
 70
     0
 40
4282.6198079999986
 10
0.0
 20
41.309904000000003
 41
5940.0
 11
0.0
 21
0.0
 31
1.0
 12
0.0
 22
0.0
 32
0.0
 42
50.0
 43
0.0
 44
0.0
 50
0.0
 71
     0
  0
ENDTAB
  0
TABLE
  2
UCS
 70
     0
  0
ENDTAB
  0
TABLE
  2
VPORT
 70
     1
  0
VPORT
  2
*ACTIVE
 70
     0
 10
0.0
 20
0.0
 11
1.0
 21
1.0
 12
26.60505286710486
 22
88.920603144122651
 13
0.0
 23
0.0
 14
1.0
 24
1.0
 15
0.0
 25
0.0
 16
0.0
 26
0.0
 36
1.0
 17
0.0
 27
0.0
 37
0.0
 40
1649.8268980190271
 41
1.6339193381592549
 42
50.0
 43
0.0
 44
0.0
 50
0.0
 51
0.0
 71
     0
 72
  1000
 73
     1
 74
     3
 75
     0
 76
     0
 77
     0
 78
     0
  0
ENDTAB
  0
ENDSEC
  0
SECTION
  2
BLOCKS
  0
BLOCK
  8
0
  2
_ORIGIN
 70
     0
 10
0.0
 20
0.0
 30
0.0
  3
_ORIGIN
  1
_ORIGIN
  0
CIRCLE
  8
0
  6
CONTINUOUS
 62
     7
 10
0.0
 20
0.0
 30
0.0
 40
0.5
  0
LINE
  8
0
  6
CONTINUOUS
 62
     7
 10
0.0
 20
0.0
 30
0.0
 11
-1.0
 21
0.0
 31
0.0
  0
ENDBLK
  8
0
  0
ENDSEC
  0
SECTION
  2
ENTITIES
  0
LINE
  8
OUTLINE
  6
CONTINUOUS
 62
     3
 10
97.5
 20
155.0
 30
0.0
 11
-97.5
 21
155.0
 31
0.0
  0
LINE
  8
OUTLINE
  6
CONTINUOUS
 62
     3
 10
141.0
 20
0.0
 30
0.0
 11
-141.0
 21
0.0
 31
0.0
  0
CIRCLE
  8
ARRANGE
  6
CONTINUOUS
 62
     1
 10
0.0
 20
0.0
 30
0.0
 40
40.0
  0
LINE
  8
BASIS
  6
DASHDOT
 62
     6
 10
40.0
 20
102.0
 30
0.0
 11
-150.0
 21
102.0
 31
0.0
  0
POINT
  8
ARRANGE
  6
CONTINUOUS
 62
     1
 10
0.0
 20
0.0
 30
0.0
  0
LINE
  8
DETAIL
  6
CONTINUOUS
 62
     5
 10
33.757016000000021
 20
171.0
 30
0.0
 11
-122.5
 21
171.0
 31
0.0
  0
LINE
  8
SIZE
  6
CONTINUOUS
 62
    30
 10
-25.0
 20
501.3342419999999
 30
0.0
 11
38.0
 21
501.3342419999999
 31
0.0
  0
LINE
  8
SIZE
  6
CONTINUOUS
 62
    30
 10
-25.0
 20
501.3342419999999
 30
0.0
 11
38.0
 21
501.3342419999999
 31
0.0
  0
TEXT
  8
SIZE
  6
CONTINUOUS
 62
    30
 10
-72.685714285714283
 20
713.26741200000015
 30
0.0
 40
64.0
  1
229
 41
0.9
 72
     1
 11
0.0
 21
713.26741200000015
 31
0.0
  0
LINE
  8
SIZE
  6
CONTINUOUS
 62
    30
 10
102.5
 20
688.26741200000015
 30
0.0
 11
-102.5
 21
688.26741200000015
 31
0.0
  0
LINE
  8
SIZE
  6
CONTINUOUS
 62
    30
 10
85.5
 20
-448.05732399999999
 30
0.0
 11
-85.5
 21
-448.05732399999999
 31
0.0
  0
TEXT
  8
SIZE
  6
CONTINUOUS
 62
    30
 10
-68.571428571428569
 20
-547.70033899999999
 30
0.0
 40
64.0
  1
212
 41
0.9
 72
     1
 11
0.0
 21
-547.70033899999999
 31
0.0
  0
LINE
  8
SIZE
  6
CONTINUOUS
 62
    30
 10
94.0
 20
-569.85661300000004
 30
0.0
 11
-94.0
 21
-569.85661300000004
 31
0.0
  0
TEXT
  8
SIZE
  6
CONTINUOUS
 62
    30
 10
-68.571428571428569
 20
-308.11068299999999
 30
0.0
 40
64.0
  1
150
 41
0.9
 72
     1
 11
0.0
 21
-308.11068299999999
 31
0.0
  0
LINE
  8
SIZE
  6
CONTINUOUS
 62
    30
 10
63.0
 20
-330.217736
 30
0.0
 11
-63.0
 21
-330.217736
 31
0.0
  0
TEXT
  8
SIZE
  6
CONTINUOUS
 62
    30
 10
-110.5371428571429
 20
-685.05868299999997
 30
0.0
 40
64.0
  1
□282
 41
0.9
 72
     1
 11
0.0
 21
-685.05868299999997
 31
0.0
  0
LINE
  8
SIZE
  6
CONTINUOUS
 62
    30
 10
129.0
 20
-710.62202500000001
 30
0.0
 11
-129.0
 21
-710.62202500000001
 31
0.0
  0
ARC
  8
DETAIL
  6
CONTINUOUS
 62
     5
 10
-7.5
 20
143.0
 30
0.0
 40
15.0
 50
0.0
 51
90.0
  0
ARC
  8
DETAIL
  6
CONTINUOUS
 62
     5
 10
-7.5
 20
61.0
 30
0.0
 40
15.0
 50
270.0
 51
0.0
  0
ARC
  8
DETAIL
  6
CONTINUOUS
 62
     5
 10
-10.5
 20
65.0
 30
0.0
 40
30.0
 50
270.0
 51
0.0
  0
ARC
  8
DETAIL
  6
CONTINUOUS
 62
     5
 10
-10.5
 20
139.0
 30
0.0
 40
30.0
 50
0.0
 51
90.0
  0
LINE
  8
DETAIL
  6
CONTINUOUS
 62
     5
 10
38.0
 20
193.0
 30
0.0
 11
-25.0
 21
193.0
 31
0.0
  0
LINE
  8
DETAIL
  6
CONTINUOUS
 62
     5
 10
141.0
 20
0.0
 30
0.0
 11
-141.0
 21
0.0
 31
0.0
  0
LINE
  8
DETAIL
  6
CONTINUOUS
 62
     5
 10
109.252287
 20
-15.0
 30
0.0
 11
-109.252287
 21
-15.0
 31
0.0
  0
LINE
  8
OUTLINE
  6
CONTINUOUS
 62
     3
 10
-97.5
 20
0.0
 30
0.0
 11
-97.5
 21
155.0
 31
0.0
  0
LINE
  8
SIZE
  6
CONTINUOUS
 62
    30
 10
-132.5
 20
25.0
 30
0.0
 11
-132.5
 21
-216.75446400000001
 31
0.0
  0
LINE
  8
DETAIL
  6
CONTINUOUS
 62
     5
 10
-99.25
 20
35.0
 30
0.0
 11
-99.25
 21
0.0
 31
0.0
  0
LINE
  8
DETAIL
  6
CONTINUOUS
 62
     5
 10
-101.25
 20
35.0
 30
0.0
 11
-101.25
 21
0.0
 31
0.0
  0
LINE
  8
SIZE
  6
CONTINUOUS
 62
    30
 10
-601.81532800000002
 20
0.0
 30
0.0
 11
-601.81532800000002
 21
12.0
 31
0.0
  0
CIRCLE
  8
SIZE
  6
CONTINUOUS
 62
    30
 10
-601.81532800000002
 20
0.0
 30
0.0
 40
6.0
  0
LINE
  8
NOTE
  6
CONTINUOUS
 62
     4
 10
-75.0
 20
-20.0
 30
0.0
 11
-75.0
 21
20.0
 31
0.0
  0
LINE
  8
NOTE
  6
CONTINUOUS
 62
     4
 10
-106.0
 20
-20.0
 30
0.0
 11
-106.0
 21
20.0
 31
0.0
  0
CIRCLE
  8
FIX
  6
CONTINUOUS
 62
    11
 10
-106.0
 20
0.0
 30
0.0
 40
2.5
  0
CIRCLE
  8
FIX
  6
CONTINUOUS
 62
    11
 10
-75.0
 20
0.0
 30
0.0
 40
2.5
  0
LINE
  8
DETAIL
  6
CONTINUOUS
 62
     5
 10
-97.5
 20
0.0
 30
0.0
 11
-97.5
 21
35.0
 31
0.0
  0
LINE
  8
BASIS
  6
DASHDOT
 62
     6
 10
0.0
 20
-40.0
 30
0.0
 11
0.0
 21
240.382338
 31
0.0
  0
LINE
  8
SIZE
  6
CONTINUOUS
 62
    30
 10
-141.0
 20
-28.561506000000008
 30
0.0
 11
-141.0
 21
-730.62202500000001
 31
0.0
  0
LINE
  8
SIZE
  6
CONTINUOUS
 62
    30
 10
-141.0
 20
-710.62202500000001
 30
0.0
 11
-129.0
 21
-710.62202500000001
 31
0.0
  0
CIRCLE
  8
SIZE
  6
CONTINUOUS
 62
    30
 10
-141.0
 20
-710.62202500000001
 30
0.0
 40
6.0
  0
LINE
  8
SIZE
  6
CONTINUOUS
 62
    30
 10
-161.0
 20
0.0
 30
0.0
 11
-621.81532800000002
 21
0.0
 31
0.0
  0
LINE
  8
SIZE
  6
CONTINUOUS
 62
    30
 10
-601.81532800000002
 20
0.0
 30
0.0
 11
-601.81532800000002
 21
-183.60630900000001
 31
0.0
  0
TEXT
  8
SIZE
  6
CONTINUOUS
 62
    30
 10
-627.28816900000004
 20
-165.54279157142861
 30
0.0
 40
64.0
  1
102
 50
90.0
 41
0.9
 72
     1
 11
-627.28816900000004
 21
-96.971362999999997
 31
0.0
  0
LINE
  8
SIZE
  6
CONTINUOUS
 62
    30
 10
-97.5
 20
-20.0
 30
0.0
 11
-97.5
 21
-468.05732399999999
 31
0.0
  0
LINE
  8
SIZE
  6
CONTINUOUS
 62
    30
 10
-106.0
 20
-40.0
 30
0.0
 11
-106.0
 21
-589.85661300000004
 31
0.0
  0
CIRCLE
  8
SIZE
  6
CONTINUOUS
 62
    30
 10
-75.0
 20
-330.217736
 30
0.0
 40
6.0
  0
LINE
  8
SIZE
  6
CONTINUOUS
 62
    30
 10
-75.0
 20
-40.0
 30
0.0
 11
-75.0
 21
-350.21773600000012
 31
0.0
  0
CIRCLE
  8
SIZE
  6
CONTINUOUS
 62
    30
 10
-106.0
 20
-569.85661300000004
 30
0.0
 40
6.0
  0
LINE
  8
SIZE
  6
CONTINUOUS
 62
    30
 10
-106.0
 20
-569.85661300000004
 30
0.0
 11
-94.0
 21
-569.85661300000004
 31
0.0
  0
LINE
  8
SIZE
  6
CONTINUOUS
 62
    30
 10
-97.5
 20
-448.05732399999999
 30
0.0
 11
-85.5
 21
-448.05732399999999
 31
0.0
  0
CIRCLE
  8
SIZE
  6
CONTINUOUS
 62
    30
 10
-97.5
 20
-448.05732399999999
 30
0.0
 40
6.0
  0
LINE
  8
SIZE
  6
CONTINUOUS
 62
    30
 10
-75.0
 20
-330.217736
 30
0.0
 11
-63.0
 21
-330.217736
 31
0.0
  0
TEXT
  8
SIZE
  6
CONTINUOUS
 62
    30
 10
-282.29432042857138
 20
-171.75446400000001
 30
0.0
 40
64.0
  1
35
 41
0.9
 72
     1
 11
-235.66574900000001
 21
-171.75446400000001
 31
0.0
  0
LINE
  8
SIZE
  6
CONTINUOUS
 62
    30
 10
-307.29432100000008
 20
-196.75446400000001
 30
0.0
 11
-132.5
 21
-196.75446400000001
 31
0.0
  0
LINE
  8
SIZE
  6
CONTINUOUS
 62
    30
 10
-97.5
 20
-20.0
 30
0.0
 11
-97.5
 21
-216.75446400000001
 31
0.0
  0
LINE
  8
SIZE
  6
CONTINUOUS
 62
    30
 10
-97.5
 20
-196.75446400000001
 30
0.0
 11
-132.5
 21
-196.75446400000001
 31
0.0
  0
LINE
  8
SIZE
  6
CONTINUOUS
 62
    30
 10
-97.5
 20
-196.75446400000001
 30
0.0
 11
-132.5
 21
-196.75446400000001
 31
0.0
  0
LINE
  8
SIZE
  6
CONTINUOUS
 62
    30
 10
-132.5
 20
-196.75446400000001
 30
0.0
 11
-144.5
 21
-196.75446400000001
 31
0.0
  0
CIRCLE
  8
SIZE
  6
CONTINUOUS
 62
    30
 10
-132.5
 20
-196.75446400000001
 30
0.0
 40
6.0
  0
LINE
  8
SIZE
  6
CONTINUOUS
 62
    30
 10
-144.5
 20
-196.75446400000001
 30
0.0
 11
-156.5
 21
-196.75446400000001
 31
0.0
  0
LINE
  8
SIZE
  6
CONTINUOUS
 62
    30
 10
-97.5
 20
-196.75446400000001
 30
0.0
 11
-85.5
 21
-196.75446400000001
 31
0.0
  0
CIRCLE
  8
SIZE
  6
CONTINUOUS
 62
    30
 10
-97.5
 20
-196.75446400000001
 30
0.0
 40
6.0
  0
LINE
  8
SIZE
  6
CONTINUOUS
 62
    30
 10
-85.5
 20
-196.75446400000001
 30
0.0
 11
-73.5
 21
-196.75446400000001
 31
0.0
  0
LINE
  8
NOTE
  6
CONTINUOUS
 62
     4
 10
-86.0
 20
0.0
 30
0.0
 11
-126.0
 21
0.0
 31
0.0
  0
LINE
  8
DETAIL
  6
CONTINUOUS
 62
     5
 10
-141.0
 20
-8.5615060000000085
 30
0.0
 11
-109.252287
 21
-15.0
 31
0.0
  0
LINE
  8
DETAIL
  6
CONTINUOUS
 62
     5
 10
-141.0
 20
-8.5615060000000085
 30
0.0
 11
-141.0
 21
0.0
 31
0.0
  0
LINE
  8
NOTE
  6
CONTINUOUS
 62
     4
 10
-55.0
 20
0.0
 30
0.0
 11
-95.0
 21
0.0
 31
0.0
  0
LINE
  8
NOTE
  6
CONTINUOUS
 62
     4
 10
-912.13911599999994
 20
445.54336499999999
 30
0.0
 11
-207.68833100000009
 21
445.54336499999999
 31
0.0
  0
TEXT
  8
NOTE
  6
CONTINUOUS
 62
     4
 10
-863.48620900000003
 20
482.95888300000001
 30
0.0
 40
64.0
  1
AH 2-φ15×22
 41
0.9
  0
LINE
  8
SIZE
  6
CONTINUOUS
 62
    30
 10
-114.5
 20
227.0
 30
0.0
 11
-114.5
 21
708.26741200000015
 31
0.0
  0
LINE
  8
SIZE
  6
CONTINUOUS
 62
    30
 10
-170.0
 20
102.0
 30
0.0
 11
-621.81532800000002
 21
102.0
 31
0.0
  0
LINE
  8
SIZE
  6
CONTINUOUS
 62
    30
 10
-601.81532800000002
 20
12.0
 30
0.0
 11
-601.81532800000002
 21
90.0
 31
0.0
  0
LINE
  8
SIZE
  6
CONTINUOUS
 62
    30
 10
-601.81532800000002
 20
102.0
 30
0.0
 11
-601.81532800000002
 21
90.0
 31
0.0
  0
CIRCLE
  8
SIZE
  6
CONTINUOUS
 62
    30
 10
-601.81532800000002
 20
102.0
 30
0.0
 40
6.0
  0
LINE
  8
NOTE
  6
CONTINUOUS
 62
     4
 10
-114.5
 20
185.0
 30
0.0
 11
-207.68833100000009
 21
445.54336499999999
 31
0.0
  0
LINE
  8
SIZE
  6
CONTINUOUS
 62
    30
 10
-25.0
 20
214.0
 30
0.0
 11
-25.0
 21
521.3342419999999
 31
0.0
  0
ARC
  8
DETAIL
  6
CONTINUOUS
 62
     5
 10
-100.33474200000001
 20
139.0
 30
0.0
 40
30.0
 50
90.0
 51
180.0
  0
ARC
  8
DETAIL
  6
CONTINUOUS
 62
     5
 10
-122.5
 20
161.0
 30
0.0
 40
10.0
 50
90.0
 51
180.0
  0
LINE
  8
BASIS
  6
DASHDOT
 62
     6
 10
-56.0
 20
23.289230999999969
 30
0.0
 11
-56.0
 21
179.821865
 31
0.0
  0
ARC
  8
DETAIL
  6
CONTINUOUS
 62
     5
 10
-103.5
 20
61.0
 30
0.0
 40
15.0
 50
180.0
 51
270.0
  0
ARC
  8
DETAIL
  6
CONTINUOUS
 62
     5
 10
-103.5
 20
143.0
 30
0.0
 40
15.0
 50
90.0
 51
180.0
  0
ARC
  8
DETAIL
  6
CONTINUOUS
 62
     5
 10
-100.33474200000001
 20
65.0
 30
0.0
 40
30.0
 50
180.0
 51
270.0
  0
LINE
  8
DETAIL
  6
CONTINUOUS
 62
     5
 10
-10.5
 20
35.0
 30
0.0
 11
-122.5
 21
35.0
 31
0.0
  0
LINE
  8
DETAIL
  6
CONTINUOUS
 62
     5
 10
-130.33474200000001
 20
139.0
 30
0.0
 11
-130.33474200000001
 21
65.0
 31
0.0
  0
LINE
  8
DETAIL
  6
CONTINUOUS
 62
     5
 10
-132.5
 20
45.0
 30
0.0
 11
-132.5
 21
161.0
 31
0.0
  0
LINE
  8
DETAIL
  6
CONTINUOUS
 62
     5
 10
-118.5
 20
143.0
 30
0.0
 11
-118.5
 21
61.0
 31
0.0
  0
ARC
  8
DETAIL
  6
CONTINUOUS
 62
     5
 10
-122.5
 20
45.0
 30
0.0
 40
10.0
 50
180.0
 51
270.0
  0
POINT
  8
DEFPOINTS
  6
CONTINUOUS
 62
    30
 10
-150.0
 20
102.0
 30
0.0
  0
TEXT
  8
NOTE
  6
CONTINUOUS
 62
     4
 10
-103.220297
 20
64.945250999999985
 30
0.0
 40
64.0
  1
EA
 41
0.9
  0
CIRCLE
  8
DETAIL
  6
CONTINUOUS
 62
     5
 10
-56.0
 20
102.0
 30
0.0
 40
49.0
  0
CIRCLE
  8
DETAIL
  6
CONTINUOUS
 62
     5
 10
-56.0
 20
102.0
 30
0.0
 40
52.5
  0
LINE
  8
DETAIL
  6
CONTINUOUS
 62
     5
 10
-103.5
 20
46.0
 30
0.0
 11
-7.5
 21
46.0
 31
0.0
  0
LINE
  8
DETAIL
  6
CONTINUOUS
 62
     5
 10
-19.211191999999979
 20
102.0
 30
0.0
 11
-92.788808000000017
 21
102.0
 31
0.0
  0
LINE
  8
DETAIL
  6
CONTINUOUS
 62
     5
 10
-7.5
 20
158.0
 30
0.0
 11
-103.5
 21
158.0
 31
0.0
  0
LINE
  8
DETAIL
  6
CONTINUOUS
 62
     5
 10
-94.435245000000009
 20
105.0
 30
0.0
 11
-92.788808000000017
 21
102.0
 31
0.0
  0
LINE
  8
DETAIL
  6
CONTINUOUS
 62
     5
 10
-105.0
 20
105.0
 30
0.0
 11
-94.435245000000009
 21
105.0
 31
0.0
  0
POINT
  8
DEFPOINTS
  6
CONTINUOUS
 62
    30
 10
-55.5
 20
151.0
 30
0.0
  0
POINT
  8
DEFPOINTS
  6
CONTINUOUS
 62
    30
 10
-55.5
 20
154.5
 30
0.0
  0
LINE
  8
DETAIL
  6
CONTINUOUS
 62
     5
 10
-17.564754999999991
 20
105.0
 30
0.0
 11
-19.211191999999979
 21
102.0
 31
0.0
  0
LINE
  8
DETAIL
  6
CONTINUOUS
 62
     5
 10
-7.0
 20
105.0
 30
0.0
 11
-17.564754999999991
 21
105.0
 31
0.0
  0
LINE
  8
NOTE
  6
CONTINUOUS
 62
     4
 10
-114.5
 20
185.0
 30
0.0
 11
-118.547011
 21
224.79474500000001
 31
0.0
  0
LINE
  8
NOTE
  6
CONTINUOUS
 62
     4
 10
-137.902187
 20
217.43975399999999
 30
0.0
 11
-114.5
 21
185.0
 31
0.0
  0
CIRCLE
  8
FIX
  6
CONTINUOUS
 62
    11
 10
-114.5
 20
185.0
 30
0.0
 40
7.5
  0
LINE
  8
NOTE
  6
CONTINUOUS
 62
     4
 10
-94.5
 20
185.0
 30
0.0
 11
-132.25
 21
185.0
 31
0.0
  0
LINE
  8
DETAIL
  6
CONTINUOUS
 62
     5
 10
-127.5
 20
185.0
 30
0.0
 11
-99.25
 21
185.0
 31
0.0
  0
LINE
  8
DETAIL
  6
CONTINUOUS
 62
     5
 10
-127.5
 20
183.0
 30
0.0
 11
-101.25
 21
183.0
 31
0.0
  0
LINE
  8
DETAIL
  6
CONTINUOUS
 62
     5
 10
-127.5
 20
185.0
 30
0.0
 11
-127.5
 21
183.0
 31
0.0
  0
LINE
  8
DETAIL
  6
CONTINUOUS
 62
     5
 10
-10.5
 20
169.0
 30
0.0
 11
-100.33474200000001
 21
169.0
 31
0.0
  0
LINE
  8
NOTE
  6
CONTINUOUS
 62
     4
 10
-114.5
 20
166.0
 30
0.0
 11
-114.5
 21
205.0
 31
0.0
  0
LINE
  8
DETAIL
  6
CONTINUOUS
 62
     5
 10
-101.25
 20
183.0
 30
0.0
 11
-101.25
 21
171.0
 31
0.0
  0
LINE
  8
DETAIL
  6
CONTINUOUS
 62
     5
 10
-99.25
 20
185.0
 30
0.0
 11
-99.25
 21
171.0
 31
0.0
  0
POINT
  8
DEFPOINTS
  6
CONTINUOUS
 62
    30
 10
0.0
 20
240.382338
 30
0.0
  0
LINE
  8
DETAIL
  6
CONTINUOUS
 62
     5
 10
-25.0
 20
171.0
 30
0.0
 11
-25.0
 21
193.0
 31
0.0
  0
CIRCLE
  8
SIZE
  6
CONTINUOUS
 62
    30
 10
-25.0
 20
501.3342419999999
 30
0.0
 40
6.0
  0
CIRCLE
  8
SIZE
  6
CONTINUOUS
 62
    30
 10
-114.5
 20
688.26741200000015
 30
0.0
 40
6.0
  0
LINE
  8
SIZE
  6
CONTINUOUS
 62
    30
 10
-114.5
 20
688.26741200000015
 30
0.0
 11
-102.5
 21
688.26741200000015
 31
0.0
  0
LINE
  8
OUTLINE
  6
CONTINUOUS
 62
     3
 10
97.5
 20
0.0
 30
0.0
 11
97.5
 21
155.0
 31
0.0
  0
CIRCLE
  8
SIZE
  6
CONTINUOUS
 62
    30
 10
440.30345799999992
 20
0.0
 30
0.0
 40
6.0
  0
CIRCLE
  8
SIZE
  6
CONTINUOUS
 62
    30
 10
440.30345799999992
 20
0.0
 30
0.0
 40
6.0
  0
CIRCLE
  8
FIX
  6
CONTINUOUS
 62
    11
 10
75.0
 20
0.0
 30
0.0
 40
2.5
  0
LINE
  8
NOTE
  6
CONTINUOUS
 62
     4
 10
75.0
 20
-20.0
 30
0.0
 11
75.0
 21
20.0
 31
0.0
  0
CIRCLE
  8
FIX
  6
CONTINUOUS
 62
    11
 10
106.0
 20
0.0
 30
0.0
 40
2.5
  0
LINE
  8
NOTE
  6
CONTINUOUS
 62
     4
 10
106.0
 20
-20.0
 30
0.0
 11
106.0
 21
20.0
 31
0.0
  0
LINE
  8
DETAIL
  6
CONTINUOUS
 62
     5
 10
33.757016000000021
 20
171.0
 30
0.0
 11
33.757016000000021
 21
0.0
 31
0.0
  0
LINE
  8
DETAIL
  6
CONTINUOUS
 62
     5
 10
99.25
 20
185.0
 30
0.0
 11
99.25
 21
0.0
 31
0.0
  0
LINE
  8
DETAIL
  6
CONTINUOUS
 62
     5
 10
101.25
 20
183.0
 30
0.0
 11
101.25
 21
0.0
 31
0.0
  0
LINE
  8
DETAIL
  6
CONTINUOUS
 62
     5
 10
97.5
 20
0.0
 30
0.0
 11
97.5
 21
155.0
 31
0.0
  0
LINE
  8
SIZE
  6
CONTINUOUS
 62
    30
 10
141.0
 20
-28.561506000000008
 30
0.0
 11
141.0
 21
-730.62202500000001
 31
0.0
  0
LINE
  8
SIZE
  6
CONTINUOUS
 62
    30
 10
141.0
 20
-710.62202500000001
 30
0.0
 11
129.0
 21
-710.62202500000001
 31
0.0
  0
CIRCLE
  8
SIZE
  6
CONTINUOUS
 62
    30
 10
141.0
 20
-710.62202500000001
 30
0.0
 40
6.0
  0
LINE
  8
NOTE
  6
CONTINUOUS
 62
     4
 10
238.225179
 20
-311.501891
 30
0.0
 11
626.78665099999989
 21
-311.501891
 31
0.0
  0
TEXT
  8
NOTE
  6
CONTINUOUS
 62
     4
 10
258.98800599999998
 20
-278.875406
 30
0.0
 40
64.0
  1
8-φ5×8
 41
0.9
  0
LINE
  8
SIZE
  6
CONTINUOUS
 62
    30
 10
161.0
 20
0.0
 30
0.0
 11
323.88817699999998
 21
0.0
 31
0.0
  0
LINE
  8
SIZE
  6
CONTINUOUS
 62
    30
 10
161.0
 20
0.0
 30
0.0
 11
460.30345799999992
 21
0.0
 31
0.0
  0
LINE
  8
SIZE
  6
CONTINUOUS
 62
    30
 10
129.252287
 20
-15.0
 30
0.0
 11
460.30345799999992
 21
-15.0
 31
0.0
  0
LINE
  8
SIZE
  6
CONTINUOUS
 62
    30
 10
161.0
 20
0.0
 30
0.0
 11
460.30345799999992
 21
0.0
 31
0.0
  0
LINE
  8
SIZE
  6
CONTINUOUS
 62
    30
 10
97.5
 20
-20.0
 30
0.0
 11
97.5
 21
-468.05732399999999
 31
0.0
  0
LINE
  8
SIZE
  6
CONTINUOUS
 62
    30
 10
106.0
 20
-40.0
 30
0.0
 11
106.0
 21
-589.85661300000004
 31
0.0
  0
CIRCLE
  8
SIZE
  6
CONTINUOUS
 62
    30
 10
75.0
 20
-330.217736
 30
0.0
 40
6.0
  0
LINE
  8
SIZE
  6
CONTINUOUS
 62
    30
 10
75.0
 20
-40.0
 30
0.0
 11
75.0
 21
-350.21773600000012
 31
0.0
  0
TEXT
  8
SIZE
  6
CONTINUOUS
 62
    30
 10
170.07765142857139
 20
-423.05732399999999
 30
0.0
 40
64.0
  1
□195
 41
0.9
 72
     1
 11
275.12907999999987
 21
-423.05732399999999
 31
0.0
  0
LINE
  8
SIZE
  6
CONTINUOUS
 62
    30
 10
401.34050900000011
 20
-448.05732399999999
 30
0.0
 11
97.5
 21
-448.05732399999999
 31
0.0
  0
CIRCLE
  8
SIZE
  6
CONTINUOUS
 62
    30
 10
106.0
 20
-569.85661300000004
 30
0.0
 40
6.0
  0
LINE
  8
SIZE
  6
CONTINUOUS
 62
    30
 10
106.0
 20
-569.85661300000004
 30
0.0
 11
94.0
 21
-569.85661300000004
 31
0.0
  0
LINE
  8
SIZE
  6
CONTINUOUS
 62
    30
 10
97.5
 20
-448.05732399999999
 30
0.0
 11
85.5
 21
-448.05732399999999
 31
0.0
  0
CIRCLE
  8
SIZE
  6
CONTINUOUS
 62
    30
 10
97.5
 20
-448.05732399999999
 30
0.0
 40
6.0
  0
LINE
  8
SIZE
  6
CONTINUOUS
 62
    30
 10
75.0
 20
-330.217736
 30
0.0
 11
63.0
 21
-330.217736
 31
0.0
  0
LINE
  8
NOTE
  6
CONTINUOUS
 62
     4
 10
106.0
 20
0.0
 30
0.0
 11
238.225179
 21
-311.501891
 31
0.0
  0
LINE
  8
DETAIL
  6
CONTINUOUS
 62
     5
 10
129.75
 20
0.0
 30
0.0
 11
99.25
 21
0.0
 31
0.0
  0
LINE
  8
DETAIL
  6
CONTINUOUS
 62
     5
 10
129.75
 20
0.0
 30
0.0
 11
99.25
 21
0.0
 31
0.0
  0
LINE
  8
DETAIL
  6
CONTINUOUS
 62
     5
 10
129.75
 20
0.0
 30
0.0
 11
99.25
 21
0.0
 31
0.0
  0
LINE
  8
NOTE
  6
CONTINUOUS
 62
     4
 10
129.80450799999991
 20
-32.145690000000059
 30
0.0
 11
106.0
 21
0.0
 31
0.0
  0
LINE
  8
NOTE
  6
CONTINUOUS
 62
     4
 10
86.0
 20
0.0
 30
0.0
 11
126.0
 21
0.0
 31
0.0
  0
LINE
  8
DETAIL
  6
CONTINUOUS
 62
     5
 10
141.0
 20
-8.5615060000000085
 30
0.0
 11
109.252287
 21
-15.0
 31
0.0
  0
LINE
  8
NOTE
  6
CONTINUOUS
 62
     4
 10
55.0
 20
0.0
 30
0.0
 11
95.0
 21
0.0
 31
0.0
  0
LINE
  8
NOTE
  6
CONTINUOUS
 62
     4
 10
106.0
 20
0.0
 30
0.0
 11
110.542464
 21
-39.741237999999953
 31
0.0
  0
LINE
  8
DETAIL
  6
CONTINUOUS
 62
     5
 10
141.0
 20
-8.5615060000000085
 30
0.0
 11
141.0
 21
0.0
 31
0.0
  0
LINE
  8
SIZE
  6
CONTINUOUS
 62
    30
 10
440.30345799999992
 20
-15.0
 30
0.0
 11
440.30345799999992
 21
-134.77606499999999
 31
0.0
  0
TEXT
  8
SIZE
  6
CONTINUOUS
 62
    30
 10
412.25500000000011
 20
-132.90576214285721
 30
0.0
 40
64.0
  1
15
 50
90.0
 41
0.9
 72
     1
 11
412.25500000000011
 21
-91.762905000000046
 31
0.0
  0
LINE
  8
SIZE
  6
CONTINUOUS
 62
    30
 10
440.30345799999992
 20
-15.0
 30
0.0
 11
440.30345799999992
 21
-27.0
 31
0.0
  0
CIRCLE
  8
SIZE
  6
CONTINUOUS
 62
    30
 10
440.30345799999992
 20
-15.0
 30
0.0
 40
6.0
  0
LINE
  8
SIZE
  6
CONTINUOUS
 62
    30
 10
440.30345799999992
 20
0.0
 30
0.0
 11
440.30345799999992
 21
-15.0
 31
0.0
  0
LINE
  8
SIZE
  6
CONTINUOUS
 62
    30
 10
440.30345799999992
 20
0.0
 30
0.0
 11
440.30345799999992
 21
-15.0
 31
0.0
  0
LINE
  8
SIZE
  6
CONTINUOUS
 62
    30
 10
440.30345799999992
 20
-27.0
 30
0.0
 11
440.30345799999992
 21
-39.0
 31
0.0
  0
LINE
  8
SIZE
  6
CONTINUOUS
 62
    30
 10
114.5
 20
226.0
 30
0.0
 11
114.5
 21
708.26741200000015
 31
0.0
  0
LINE
  8
SIZE
  6
CONTINUOUS
 62
    30
 10
38.0
 20
214.0
 30
0.0
 11
38.0
 21
521.3342419999999
 31
0.0
  0
TEXT
  8
NOTE
  6
CONTINUOUS
 62
     4
 10
168.47750199999999
 20
272.39259399999992
 30
0.0
 40
64.0
  1
EL
 41
0.9
  0
LINE
  8
NOTE
  6
CONTINUOUS
 62
     4
 10
144.94049199999989
 20
246.65106499999999
 30
0.0
 11
266.99366099999997
 21
246.65106499999999
 31
0.0
  0
LINE
  8
NOTE
  6
CONTINUOUS
 62
     4
 10
77.0
 20
155.0
 30
0.0
 11
108.59324599999999
 21
179.532974
 31
0.0
  0
LINE
  8
NOTE
  6
CONTINUOUS
 62
     4
 10
92.094065999999998
 20
192.04280199999991
 30
0.0
 11
77.0
 21
155.0
 31
0.0
  0
LINE
  8
NOTE
  6
CONTINUOUS
 62
     4
 10
77.0
 20
155.0
 30
0.0
 11
144.94049199999989
 21
246.65106499999999
 31
0.0
  0
LINE
  8
NOTE
  6
CONTINUOUS
 62
     4
 10
77.0
 20
135.0
 30
0.0
 11
77.0
 21
175.0
 31
0.0
  0
LINE
  8
DETAIL
  6
CONTINUOUS
 62
     5
 10
38.0
 20
162.0
 30
0.0
 11
38.0
 21
193.0
 31
0.0
  0
LINE
  8
DETAIL
  6
CONTINUOUS
 62
     5
 10
19.5
 20
65.0
 30
0.0
 11
19.5
 21
139.0
 31
0.0
  0
LINE
  8
DETAIL
  6
CONTINUOUS
 62
     5
 10
7.5
 20
61.0
 30
0.0
 11
7.5
 21
143.0
 31
0.0
  0
LINE
  8
DETAIL
  6
CONTINUOUS
 62
     5
 10
97.5
 20
155.0
 30
0.0
 11
33.757016000000021
 21
155.0
 31
0.0
  0
LINE
  8
DETAIL
  6
CONTINUOUS
 62
     5
 10
56.5
 20
155.0
 30
0.0
 11
52.52828199999999
 21
162.0
 31
0.0
  0
LINE
  8
DETAIL
  6
CONTINUOUS
 62
     5
 10
52.52828199999999
 20
162.0
 30
0.0
 11
33.757016000000021
 21
162.0
 31
0.0
  0
LINE
  8
NOTE
  6
CONTINUOUS
 62
     4
 10
59.0
 20
155.0
 30
0.0
 11
99.0
 21
155.0
 31
0.0
  0
LINE
  8
DETAIL
  6
CONTINUOUS
 62
     5
 10
59.0
 20
155.0
 30
0.0
 11
97.5
 21
155.0
 31
0.0
  0
CIRCLE
  8
FIX
  6
CONTINUOUS
 62
    11
 10
114.5
 20
185.0
 30
0.0
 40
7.5
  0
LINE
  8
NOTE
  6
CONTINUOUS
 62
     4
 10
94.5
 20
185.0
 30
0.0
 11
132.25
 21
185.0
 31
0.0
  0
LINE
  8
DETAIL
  6
CONTINUOUS
 62
     5
 10
127.5
 20
185.0
 30
0.0
 11
99.25
 21
185.0
 31
0.0
  0
LINE
  8
DETAIL
  6
CONTINUOUS
 62
     5
 10
127.5
 20
183.0
 30
0.0
 11
101.25
 21
183.0
 31
0.0
  0
LINE
  8
NOTE
  6
CONTINUOUS
 62
     4
 10
114.5
 20
166.0
 30
0.0
 11
114.5
 21
206.0
 31
0.0
  0
LINE
  8
DETAIL
  6
CONTINUOUS
 62
     5
 10
127.5
 20
185.0
 30
0.0
 11
127.5
 21
183.0
 31
0.0
  0
TEXT
  8
SIZE
  6
CONTINUOUS
 62
    30
 10
123.285085
 20
526.3342419999999
 30
0.0
 40
64.0
  1
φ63
 41
0.9
 72
     1
 11
200.08508499999991
 21
526.3342419999999
 31
0.0
  0
LINE
  8
SIZE
  6
CONTINUOUS
 62
    30
 10
300.51365700000002
 20
501.3342419999999
 30
0.0
 11
38.0
 21
501.3342419999999
 31
0.0
  0
LINE
  8
SIZE
  6
CONTINUOUS
 62
    30
 10
50.0
 20
501.3342419999999
 30
0.0
 11
62.0
 21
501.3342419999999
 31
0.0
  0
LINE
  8
SIZE
  6
CONTINUOUS
 62
    30
 10
38.0
 20
501.3342419999999
 30
0.0
 11
50.0
 21
501.3342419999999
 31
0.0
  0
CIRCLE
  8
SIZE
  6
CONTINUOUS
 62
    30
 10
38.0
 20
501.3342419999999
 30
0.0
 40
6.0
  0
CIRCLE
  8
SIZE
  6
CONTINUOUS
 62
    30
 10
114.5
 20
688.26741200000015
 30
0.0
 40
6.0
  0
LINE
  8
SIZE
  6
CONTINUOUS
 62
    30
 10
114.5
 20
688.26741200000015
 30
0.0
 11
102.5
 21
688.26741200000015
 31
0.0
  0
TEXT
  8
ETC
  6
CONTINUOUS
 62
    61
 10
369.99651399999988
 20
830.68265099999985
 30
0.0
 40
64.0
  1
VD-13ZY13_2
 41
0.9
  0
TEXT
  8
ETC
  6
CONTINUOUS
 62
    61
 10
365.81052
 20
712.72734100000002
 30
0.0
 40
64.0
  1
換気扇
 41
0.9
  0
TEXT
  8
ETC
  6
CONTINUOUS
 62
    61
 10
416.41802200000012
 20
604.89156099999991
 30
0.0
 40
40.0
  1
VD-13ZY13
 41
0.9
  0
LINE
  8
SIZE
  6
CONTINUOUS
 62
    30
 10
161.0
 20
0.0
 30
0.0
 11
305.478431
 21
0.0
 31
0.0
  0
LINE
  8
SIZE
  6
CONTINUOUS
 62
    30
 10
147.5
 20
185.0
 30
0.0
 11
305.478431
 21
185.0
 31
0.0
  0
LINE
  8
SIZE
  6
CONTINUOUS
 62
    30
 10
285.478431
 20
-12.0
 30
0.0
 11
285.478431
 21
-24.0
 31
0.0
  0
LINE
  8
SIZE
  6
CONTINUOUS
 62
    30
 10
285.478431
 20
197.0
 30
0.0
 11
285.478431
 21
209.0
 31
0.0
  0
LINE
  8
SIZE
  6
CONTINUOUS
 62
    30
 10
285.478431
 20
0.0
 30
0.0
 11
285.478431
 21
185.0
 31
0.0
  0
CIRCLE
  8
SIZE
  6
CONTINUOUS
 62
    30
 10
285.478431
 20
0.0
 30
0.0
 40
6.0
  0
LINE
  8
SIZE
  6
CONTINUOUS
 62
    30
 10
285.478431
 20
0.0
 30
0.0
 11
285.478431
 21
-12.0
 31
0.0
  0
CIRCLE
  8
SIZE
  6
CONTINUOUS
 62
    30
 10
285.478431
 20
185.0
 30
0.0
 40
6.0
  0
LINE
  8
SIZE
  6
CONTINUOUS
 62
    30
 10
285.478431
 20
185.0
 30
0.0
 11
285.478431
 21
197.0
 31
0.0
  0
TEXT
  8
SIZE
  6
CONTINUOUS
 62
    30
 10
260.478431
 20
23.928571428571431
 30
0.0
 40
64.0
  1
185
 50
90.0
 41
0.9
 72
     1
 11
260.478431
 21
92.5
 31
0.0
  0
POINT
  8
DEFPOINTS
  6
CONTINUOUS
 62
    30
 10
141.0
 20
0.0
 30
0.0
  0
POINT
  8
DEFPOINTS
  6
CONTINUOUS
 62
    30
 10
127.5
 20
185.0
 30
0.0
  0
POINT
  8
DEFPOINTS
  6
CONTINUOUS
 62
    30
 10
285.478431
 20
185.0
 30
0.0
  0
LINE
  8
SIZE
  6
CONTINUOUS
 62
    30
 10
0.0
 20
260.382338
 30
0.0
 11
0.0
 21
406.39259399999992
 31
0.0
  0
LINE
  8
SIZE
  6
CONTINUOUS
 62
    30
 10
77.0
 20
195.0
 30
0.0
 11
77.0
 21
406.39259399999992
 31
0.0
  0
LINE
  8
SIZE
  6
CONTINUOUS
 62
    30
 10
12.0
 20
386.39259399999992
 30
0.0
 11
65.0
 21
386.39259399999992
 31
0.0
  0
LINE
  8
SIZE
  6
CONTINUOUS
 62
    30
 10
77.0
 20
386.39259399999992
 30
0.0
 11
267.70555100000001
 21
386.39259399999992
 31
0.0
  0
CIRCLE
  8
SIZE
  6
CONTINUOUS
 62
    30
 10
0.0
 20
386.39259399999992
 30
0.0
 40
6.0
  0
LINE
  8
SIZE
  6
CONTINUOUS
 62
    30
 10
0.0
 20
386.39259399999992
 30
0.0
 11
12.0
 21
386.39259399999992
 31
0.0
  0
CIRCLE
  8
SIZE
  6
CONTINUOUS
 62
    30
 10
77.0
 20
386.39259399999992
 30
0.0
 40
6.0
  0
LINE
  8
SIZE
  6
CONTINUOUS
 62
    30
 10
77.0
 20
386.39259399999992
 30
0.0
 11
65.0
 21
386.39259399999992
 31
0.0
  0
TEXT
  8
SIZE
  6
CONTINUOUS
 62
    30
 10
149.4484075714285
 20
411.39259399999992
 30
0.0
 40
64.0
  1
77
 41
0.9
 72
     1
 11
196.07697899999991
 21
411.39259399999992
 31
0.0
  0
POINT
  8
DEFPOINTS
  6
CONTINUOUS
 62
    30
 10
0.0
 20
240.382338
 30
0.0
  0
POINT
  8
DEFPOINTS
  6
CONTINUOUS
 62
    30
 10
77.0
 20
175.0
 30
0.0
  0
POINT
  8
DEFPOINTS
  6
CONTINUOUS
 62
    30
 10
77.0
 20
386.39259399999992
 30
0.0
  0
LINE
  8
SIZE
  6
CONTINUOUS
 62
    30
 10
0.0
 20
260.382338
 30
0.0
 11
0.0
 21
602.86519199999998
 31
0.0
  0
LINE
  8
SIZE
  6
CONTINUOUS
 62
    30
 10
-56.0
 20
199.821865
 30
0.0
 11
-56.0
 21
602.86519199999998
 31
0.0
  0
LINE
  8
SIZE
  6
CONTINUOUS
 62
    30
 10
12.0
 20
582.86519199999998
 30
0.0
 11
24.0
 21
582.86519199999998
 31
0.0
  0
LINE
  8
SIZE
  6
CONTINUOUS
 62
    30
 10
-68.0
 20
582.86519199999998
 30
0.0
 11
-80.0
 21
582.86519199999998
 31
0.0
  0
LINE
  8
SIZE
  6
CONTINUOUS
 62
    30
 10
0.0
 20
582.86519199999998
 30
0.0
 11
-56.0
 21
582.86519199999998
 31
0.0
  0
CIRCLE
  8
SIZE
  6
CONTINUOUS
 62
    30
 10
0.0
 20
582.86519199999998
 30
0.0
 40
6.0
  0
LINE
  8
SIZE
  6
CONTINUOUS
 62
    30
 10
0.0
 20
582.86519199999998
 30
0.0
 11
12.0
 21
582.86519199999998
 31
0.0
  0
CIRCLE
  8
SIZE
  6
CONTINUOUS
 62
    30
 10
-56.0
 20
582.86519199999998
 30
0.0
 40
6.0
  0
LINE
  8
SIZE
  6
CONTINUOUS
 62
    30
 10
-56.0
 20
582.86519199999998
 30
0.0
 11
-68.0
 21
582.86519199999998
 31
0.0
  0
TEXT
  8
SIZE
  6
CONTINUOUS
 62
    30
 10
-73.257142857142853
 20
607.86519199999998
 30
0.0
 40
64.0
  1
56
 41
0.9
 72
     1
 11
-28.0
 21
607.86519199999998
 31
0.0
  0
POINT
  8
DEFPOINTS
  6
CONTINUOUS
 62
    30
 10
0.0
 20
240.382338
 30
0.0
  0
POINT
  8
DEFPOINTS
  6
CONTINUOUS
 62
    30
 10
-56.0
 20
179.821865
 30
0.0
  0
POINT
  8
DEFPOINTS
  6
CONTINUOUS
 62
    30
 10
-56.0
 20
582.86519199999998
 30
0.0
  0
LINE
  8
SIZE
  6
CONTINUOUS
 62
    30
 10
161.0
 20
0.0
 30
0.0
 11
460.30345799999992
 21
0.0
 31
0.0
  0
LINE
  8
SIZE
  6
CONTINUOUS
 62
    30
 10
58.0
 20
193.0
 30
0.0
 11
460.30345799999992
 21
193.0
 31
0.0
  0
LINE
  8
SIZE
  6
CONTINUOUS
 62
    30
 10
440.30345799999992
 20
12.0
 30
0.0
 11
440.30345799999992
 21
181.0
 31
0.0
  0
CIRCLE
  8
SIZE
  6
CONTINUOUS
 62
    30
 10
440.30345799999992
 20
0.0
 30
0.0
 40
6.0
  0
LINE
  8
SIZE
  6
CONTINUOUS
 62
    30
 10
440.30345799999992
 20
0.0
 30
0.0
 11
440.30345799999992
 21
12.0
 31
0.0
  0
CIRCLE
  8
SIZE
  6
CONTINUOUS
 62
    30
 10
440.30345799999992
 20
193.0
 30
0.0
 40
6.0
  0
LINE
  8
SIZE
  6
CONTINUOUS
 62
    30
 10
440.30345799999992
 20
193.0
 30
0.0
 11
440.30345799999992
 21
181.0
 31
0.0
  0
TEXT
  8
SIZE
  6
CONTINUOUS
 62
    30
 10
415.30345799999992
 20
27.928571428571441
 30
0.0
 40
64.0
  1
193
 50
90.0
 41
0.9
 72
     1
 11
415.30345799999992
 21
96.5
 31
0.0
  0
POINT
  8
DEFPOINTS
  6
CONTINUOUS
 62
    30
 10
141.0
 20
0.0
 30
0.0
  0
POINT
  8
DEFPOINTS
  6
CONTINUOUS
 62
    30
 10
38.0
 20
193.0
 30
0.0
  0
POINT
  8
DEFPOINTS
  6
CONTINUOUS
 62
    30
 10
440.30345799999992
 20
193.0
 30
0.0
  0
LINE
  8
SIZE
  6
CONTINUOUS
 62
    30
 10
-161.0
 20
0.0
 30
0.0
 11
-353.49085700000001
 21
0.0
 31
0.0
  0
LINE
  8
SIZE
  6
CONTINUOUS
 62
    30
 10
-142.5
 20
35.0
 30
0.0
 11
-353.49085700000001
 21
35.0
 31
0.0
  0
LINE
  8
SIZE
  6
CONTINUOUS
 62
    30
 10
-333.49085700000001
 20
47.0
 30
0.0
 11
-333.49085700000001
 21
59.0
 31
0.0
  0
LINE
  8
SIZE
  6
CONTINUOUS
 62
    30
 10
-333.49085700000001
 20
-12.0
 30
0.0
 11
-333.49085700000001
 21
-167.25714300000001
 31
0.0
  0
LINE
  8
SIZE
  6
CONTINUOUS
 62
    30
 10
-333.49085700000001
 20
35.0
 30
0.0
 11
-333.49085700000001
 21
0.0
 31
0.0
  0
CIRCLE
  8
SIZE
  6
CONTINUOUS
 62
    30
 10
-333.49085700000001
 20
35.0
 30
0.0
 40
6.0
  0
LINE
  8
SIZE
  6
CONTINUOUS
 62
    30
 10
-333.49085700000001
 20
35.0
 30
0.0
 11
-333.49085700000001
 21
47.0
 31
0.0
  0
CIRCLE
  8
SIZE
  6
CONTINUOUS
 62
    30
 10
-333.49085700000001
 20
0.0
 30
0.0
 40
6.0
  0
LINE
  8
SIZE
  6
CONTINUOUS
 62
    30
 10
-333.49085700000001
 20
0.0
 30
0.0
 11
-333.49085700000001
 21
-12.0
 31
0.0
  0
TEXT
  8
SIZE
  6
CONTINUOUS
 62
    30
 10
-358.49085700000001
 20
-142.2571424285714
 30
0.0
 40
64.0
  1
35
 50
90.0
 41
0.9
 72
     1
 11
-358.49085700000001
 21
-95.628570999999965
 31
0.0
  0
POINT
  8
DEFPOINTS
  6
CONTINUOUS
 62
    30
 10
-141.0
 20
0.0
 30
0.0
  0
POINT
  8
DEFPOINTS
  6
CONTINUOUS
 62
    30
 10
-122.5
 20
35.0
 30
0.0
  0
POINT
  8
DEFPOINTS
  6
CONTINUOUS
 62
    30
 10
-333.49085700000001
 20
35.0
 30
0.0
  0
LINE
  8
SIZE
  6
CONTINUOUS
 62
    30
 10
-161.0
 20
0.0
 30
0.0
 11
-496.36527799999999
 21
0.0
 31
0.0
  0
LINE
  8
SIZE
  6
CONTINUOUS
 62
    30
 10
-123.5
 20
46.0
 30
0.0
 11
-496.36527799999999
 21
46.0
 31
0.0
  0
LINE
  8
SIZE
  6
CONTINUOUS
 62
    30
 10
-476.36527799999999
 20
58.0
 30
0.0
 11
-476.36527799999999
 21
70.0
 31
0.0
  0
LINE
  8
SIZE
  6
CONTINUOUS
 62
    30
 10
-476.36527799999999
 20
-12.0
 30
0.0
 11
-476.36527799999999
 21
-164.514286
 31
0.0
  0
LINE
  8
SIZE
  6
CONTINUOUS
 62
    30
 10
-476.36527799999999
 20
46.0
 30
0.0
 11
-476.36527799999999
 21
0.0
 31
0.0
  0
CIRCLE
  8
SIZE
  6
CONTINUOUS
 62
    30
 10
-476.36527799999999
 20
46.0
 30
0.0
 40
6.0
  0
LINE
  8
SIZE
  6
CONTINUOUS
 62
    30
 10
-476.36527799999999
 20
46.0
 30
0.0
 11
-476.36527799999999
 21
58.0
 31
0.0
  0
CIRCLE
  8
SIZE
  6
CONTINUOUS
 62
    30
 10
-476.36527799999999
 20
0.0
 30
0.0
 40
6.0
  0
LINE
  8
SIZE
  6
CONTINUOUS
 62
    30
 10
-476.36527799999999
 20
0.0
 30
0.0
 11
-476.36527799999999
 21
-12.0
 31
0.0
  0
TEXT
  8
SIZE
  6
CONTINUOUS
 62
    30
 10
-501.36527799999999
 20
-139.51428585714291
 30
0.0
 40
64.0
  1
46
 50
90.0
 41
0.9
 72
     1
 11
-501.36527799999999
 21
-94.257143000000042
 31
0.0
  0
POINT
  8
DEFPOINTS
  6
CONTINUOUS
 62
    30
 10
-141.0
 20
0.0
 30
0.0
  0
POINT
  8
DEFPOINTS
  6
CONTINUOUS
 62
    30
 10
-103.5
 20
46.0
 30
0.0
  0
POINT
  8
DEFPOINTS
  6
CONTINUOUS
 62
    30
 10
-476.36527799999999
 20
46.0
 30
0.0
  0
LINE
  8
SIZE
  6
CONTINUOUS
 62
    30
 10
127.5
 20
205.0
 30
0.0
 11
127.5
 21
839.49898399999984
 31
0.0
  0
LINE
  8
SIZE
  6
CONTINUOUS
 62
    30
 10
-127.5
 20
205.0
 30
0.0
 11
-127.5
 21
839.49898399999984
 31
0.0
  0
LINE
  8
SIZE
  6
CONTINUOUS
 62
    30
 10
115.5
 20
819.49898399999984
 30
0.0
 11
-115.5
 21
819.49898399999984
 31
0.0
  0
CIRCLE
  8
SIZE
  6
CONTINUOUS
 62
    30
 10
127.5
 20
819.49898399999984
 30
0.0
 40
6.0
  0
LINE
  8
SIZE
  6
CONTINUOUS
 62
    30
 10
127.5
 20
819.49898399999984
 30
0.0
 11
115.5
 21
819.49898399999984
 31
0.0
  0
CIRCLE
  8
SIZE
  6
CONTINUOUS
 62
    30
 10
-127.5
 20
819.49898399999984
 30
0.0
 40
6.0
  0
LINE
  8
SIZE
  6
CONTINUOUS
 62
    30
 10
-127.5
 20
819.49898399999984
 30
0.0
 11
-115.5
 21
819.49898399999984
 31
0.0
  0
TEXT
  8
SIZE
  6
CONTINUOUS
 62
    30
 10
-74.05714285714285
 20
844.49898399999984
 30
0.0
 40
64.0
  1
255
 41
0.9
 72
     1
 11
0.0
 21
844.49898399999984
 31
0.0
  0
POINT
  8
DEFPOINTS
  6
CONTINUOUS
 62
    30
 10
127.5
 20
185.0
 30
0.0
  0
POINT
  8
DEFPOINTS
  6
CONTINUOUS
 62
    30
 10
-127.5
 20
185.0
 30
0.0
  0
POINT
  8
DEFPOINTS
  6
CONTINUOUS
 62
    30
 10
-127.5
 20
819.49898399999984
 30
0.0
  0
LINE
  8
SIZE
  6
CONTINUOUS
 62
    30
 10
-476.33915599999989
 20
130.56094300000001
 30
0.0
 11
-116.859672
 21
106.135255
 31
0.0
  0
LINE
  8
SIZE
  6
CONTINUOUS
 62
    30
 10
4.859672000000046
 20
97.864744999999971
 30
0.0
 11
16.832066000000051
 21
97.051251999999977
 31
0.0
  0
TEXT
  8
SIZE
  6
CONTINUOUS
 62
    30
 10
-453.80670916192611
 20
154.08755895335321
 30
0.0
 40
64.0
  1
φ98
 50
356.11288240883738
 41
0.9
 72
     1
 11
-377.18338401330971
 21
148.88121252140979
 31
0.0
  0
LINE
  8
SIZE
  6
CONTINUOUS
 62
    30
 10
-7.1127229999999599
 20
98.678237999999965
 30
0.0
 11
-104.887277
 21
105.32176200000001
 31
0.0
  0
CIRCLE
  8
SIZE
  6
CONTINUOUS
 62
    30
 10
-7.1127229999999599
 20
98.678237999999965
 30
0.0
 40
6.0
  0
LINE
  8
SIZE
  6
CONTINUOUS
 62
    30
 10
-7.1127229999999599
 20
98.678237999999965
 30
0.0
 11
4.8596714776759882
 21
97.864745239790636
 31
0.0
  0
CIRCLE
  8
SIZE
  6
CONTINUOUS
 62
    30
 10
-104.887277
 20
105.32176200000001
 30
0.0
 40
6.0
  0
LINE
  8
SIZE
  6
CONTINUOUS
 62
    30
 10
-104.887277
 20
105.32176200000001
 30
0.0
 11
-116.859671477676
 21
106.13525476020941
 31
0.0
  0
POINT
  8
DEFPOINTS
  6
CONTINUOUS
 62
    30
 10
-104.887277
 20
105.32176200000001
 30
0.0
  0
POINT
  8
DEFPOINTS
  6
CONTINUOUS
 62
    30
 10
-7.1127229999999599
 20
98.678237999999965
 30
0.0
  0
LINE
  8
SIZE
  6
CONTINUOUS
 62
    30
 10
-448.86227500000001
 20
297.09631600000012
 30
0.0
 11
-113.768852
 21
130.68814599999999
 31
0.0
  0
LINE
  8
SIZE
  6
CONTINUOUS
 62
    30
 10
1.7688520000000381
 20
73.311854000000039
 30
0.0
 11
12.51654599999995
 21
67.974524999999971
 31
0.0
  0
TEXT
  8
SIZE
  6
CONTINUOUS
 62
    30
 10
-419.0367391110006
 20
310.19781249676947
 30
0.0
 40
64.0
  1
φ105
 50
333.5909190135211
 41
0.9
 72
     1
 11
-330.59856040784888
 21
266.27924712397862
 31
0.0
  0
LINE
  8
SIZE
  6
CONTINUOUS
 62
    30
 10
-8.9788409999999885
 20
78.649183999999991
 30
0.0
 11
-103.021159
 21
125.35081599999999
 31
0.0
  0
CIRCLE
  8
SIZE
  6
CONTINUOUS
 62
    30
 10
-8.9788409999999885
 20
78.649183999999991
 30
0.0
 40
6.0
  0
LINE
  8
SIZE
  6
CONTINUOUS
 62
    30
 10
-8.9788409999999885
 20
78.649183999999991
 30
0.0
 11
1.7688524641697541
 21
73.311854592867235
 31
0.0
  0
CIRCLE
  8
SIZE
  6
CONTINUOUS
 62
    30
 10
-103.021159
 20
125.35081599999999
 30
0.0
 40
6.0
  0
LINE
  8
SIZE
  6
CONTINUOUS
 62
    30
 10
-103.021159
 20
125.35081599999999
 30
0.0
 11
-113.7688524641698
 21
130.68814540713279
 31
0.0
  0
POINT
  8
DEFPOINTS
  6
CONTINUOUS
 62
    30
 10
-103.021159
 20
125.35081599999999
 30
0.0
  0
POINT
  8
DEFPOINTS
  6
CONTINUOUS
 62
    30
 10
-8.9788409999999885
 20
78.649183999999991
 30
0.0
  0
ENDSEC
  0
EOF
