  0
SECTION
  2
HEADER
  9
$ACADVER
  1
AC1009
  9
$DWGCODEPAGE
  3
dos932
  9
$INSBASE
 10
0.0
 20
0.0
 30
0.0
  9
$EXTMIN
 10
-882.56849464238803
 20
-615.87523263398907
 30
-0.0038144062317542
  9
$EXTMAX
 10
1049.225964042547
 20
890.16724469858127
 30
0.0057221914242405
  9
$LIMMIN
 10
-2970.0
 20
-2100.0
  9
$LIMMAX
 10
2970.0
 20
2100.0
  9
$ORTHOMODE
 70
     1
  9
$REGENMODE
 70
     1
  9
$FILLMODE
 70
     1
  9
$QTEXTMODE
 70
     0
  9
$MIRRTEXT
 70
     0
  9
$LTSCALE
 40
20.0
  9
$ATTMODE
 70
     1
  9
$TEXTSIZE
 40
64.0
  9
$TRACEWID
 40
0.05
  9
$TEXTSTYLE
  7
STANDARD
  9
$CLAYER
  8
OUTLINE
  9
$CELTYPE
  6
CONTINUOUS
  9
$CECOLOR
 62
     7
  9
$DIMSCALE
 40
1.0
  9
$DIMASZ
 40
12.0
  9
$DIMEXO
 40
20.0
  9
$DIMDLI
 40
200.0
  9
$DIMRND
 40
0.0
  9
$DIMDLE
 40
0.0
  9
$DIMEXE
 40
20.0
  9
$DIMTP
 40
0.0
  9
$DIMTM
 40
0.0
  9
$DIMTXT
 40
64.0
  9
$DIMCEN
 40
0.09
  9
$DIMTSZ
 40
0.0
  9
$DIMTOL
 70
     0
  9
$DIMLIM
 70
     0
  9
$DIMTIH
 70
     0
  9
$DIMTOH
 70
     0
  9
$DIMSE1
 70
     0
  9
$DIMSE2
 70
     0
  9
$DIMTAD
 70
     1
  9
$DIMZIN
 70
     8
  9
$DIMBLK
  1

  9
$DIMASO
 70
     1
  9
$DIMSHO
 70
     0
  9
$DIMPOST
  1

  9
$DIMAPOST
  1

  9
$DIMALT
 70
     0
  9
$DIMALTD
 70
     2
  9
$DIMALTF
 40
25.399999999999999
  9
$DIMLFAC
 40
1.0
  9
$DIMTOFL
 70
     1
  9
$DIMTVP
 40
0.0
  9
$DIMTIX
 70
     1
  9
$DIMSOXD
 70
     0
  9
$DIMSAH
 70
     0
  9
$DIMBLK1
  1

  9
$DIMBLK2
  1

  9
$DIMSTYLE
  2
STANDARD
  9
$DIMCLRD
 70
     7
  9
$DIMCLRE
 70
     7
  9
$DIMCLRT
 70
     7
  9
$DIMTFAC
 40
1.0
  9
$DIMGAP
 40
25.0
  9
$LUNITS
 70
     2
  9
$LUPREC
 70
     4
  9
$SKETCHINC
 40
0.1
  9
$FILLETRAD
 40
3.0
  9
$AUNITS
 70
     1
  9
$AUPREC
 70
     3
  9
$MENU
  1
ACAD
  9
$ELEVATION
 40
0.0
  9
$PELEVATION
 40
0.0
  9
$THICKNESS
 40
50.0
  9
$LIMCHECK
 70
     0
  9
$CHAMFERA
 40
0.0
  9
$CHAMFERB
 40
0.0
  9
$SKPOLY
 70
     0
  9
$TDCREATE
 40
2453019.62301037
  9
$TDUPDATE
 40
2458899.489992373
  9
$TDINDWG
 40
1.7768067014
  9
$TDUSRTIMER
 40
1.7768067014
  9
$USRTIMER
 70
     1
  9
$ANGBASE
 50
0.0
  9
$ANGDIR
 70
     0
  9
$PDMODE
 70
     3
  9
$PDSIZE
 40
-2.0
  9
$PLINEWID
 40
0.0
  9
$SPLFRAME
 70
     0
  9
$SPLINETYPE
 70
     6
  9
$SPLINESEGS
 70
     8
  9
$SURFTAB1
 70
     6
  9
$SURFTAB2
 70
     6
  9
$SURFTYPE
 70
     6
  9
$SURFU
 70
     6
  9
$SURFV
 70
     6
  9
$UCSNAME
  2

  9
$UCSORG
 10
0.0
 20
0.0
 30
0.0
  9
$UCSXDIR
 10
1.0
 20
0.0
 30
0.0
  9
$UCSYDIR
 10
0.0
 20
1.0
 30
0.0
  9
$PUCSNAME
  2

  9
$PUCSORG
 10
0.0
 20
0.0
 30
0.0
  9
$PUCSXDIR
 10
1.0
 20
0.0
 30
0.0
  9
$PUCSYDIR
 10
0.0
 20
1.0
 30
0.0
  9
$USERI1
 70
     0
  9
$USERI2
 70
     0
  9
$USERI3
 70
     0
  9
$USERI4
 70
     0
  9
$USERI5
 70
     0
  9
$USERR1
 40
20.0
  9
$USERR2
 40
0.0
  9
$USERR3
 40
0.0
  9
$USERR4
 40
0.0
  9
$USERR5
 40
0.0
  9
$WORLDVIEW
 70
     1
  9
$SHADEDGE
 70
     3
  9
$SHADEDIF
 70
    70
  9
$TILEMODE
 70
     1
  9
$MAXACTVP
 70
    48
  9
$PINSBASE
 10
0.0
 20
0.0
 30
0.0
  9
$PLIMCHECK
 70
     0
  9
$PEXTMIN
 10
-100000000000000000000.0
 20
-100000000000000000000.0
 30
-100000000000000000000.0
  9
$PEXTMAX
 10
100000000000000000000.0
 20
100000000000000000000.0
 30
100000000000000000000.0
  9
$PLIMMIN
 10
0.0
 20
0.0
  9
$PLIMMAX
 10
12.0
 20
9.0
  9
$UNITMODE
 70
     0
  9
$VISRETAIN
 70
     0
  9
$PLINEGEN
 70
     0
  9
$PSLTSCALE
 70
     0
  9
$TREEDEPTH
 70
  3020
  9
$ATTDIA
 70
     0
  9
$ATTREQ
 70
     1
  9
$BLIPMODE
 70
     1
  9
$COORDS
 70
     1
  9
$DRAGMODE
 70
     2
  9
$OSMODE
 70
     0
  9
$HANDLING
 70
     0
  9
$HANDSEED
  5
1B169
  0
ENDSEC
  0
SECTION
  2
TABLES
  0
TABLE
  2
LTYPE
 70
     2
  0
LTYPE
  2
CONTINUOUS
 70
     0
  3
実線
 72
    65
 73
     0
 40
0.0
  0
LTYPE
  2
DASHDOT
 70
     0
  3
____ _ ____ _ ____ _ ____ _ ____ _ ____ _ ____
 72
    65
 73
     4
 40
5.5
 49
4.0
 49
-0.6
 49
0.3
 49
-0.6
  0
ENDTAB
  0
TABLE
  2
LAYER
 70
    12
  0
LAYER
  2
0
 70
     0
 62
     7
  6
CONTINUOUS
  0
LAYER
  2
BASIS
 70
     0
 62
     6
  6
DASHDOT
  0
LAYER
  2
OUTLINE
 70
     0
 62
     3
  6
CONTINUOUS
  0
LAYER
  2
DETAIL
 70
     0
 62
     5
  6
CONTINUOUS
  0
LAYER
  2
SIZE
 70
     0
 62
    30
  6
CONTINUOUS
  0
LAYER
  2
ARRANGE
 70
     0
 62
     1
  6
CONTINUOUS
  0
LAYER
  2
DEFPOINTS
 70
     0
 62
     7
  6
CONTINUOUS
  0
LAYER
  2
ETC
 70
     0
 62
    61
  6
CONTINUOUS
  0
LAYER
  2
FIX
 70
     0
 62
    11
  6
CONTINUOUS
  0
LAYER
  2
NOTE
 70
     0
 62
     4
  6
CONTINUOUS
  0
LAYER
  2
SERVICESPACE
 70
    64
 62
     2
  6
DASHDOT
  0
LAYER
  2
SYMBOLLINE
 70
    64
 62
    15
  6
CONTINUOUS
  0
ENDTAB
  0
TABLE
  2
STYLE
 70
     1
  0
STYLE
  2
STANDARD
 70
     0
 40
64.0
 41
0.9
 50
0.0
 71
     0
 42
64.0
  3
SIMPLEX.shx
  4
BIGFONT.shx
  0
ENDTAB
  0
TABLE
  2
APPID
 70
    17
  0
APPID
  2
ACAD
 70
     0
  0
APPID
  2
AUTOCAD_POSTSCRIPT_FIGURE
 70
     0
  0
APPID
  2
ACAD_EXEMPT_FROM_CAD_STANDARDS
 70
     0
  0
APPID
  2
ACAD_PSEXT
 70
     0
  0
APPID
  2
ACAUTHENVIRON
 70
     0
  0
APPID
  2
GENIUS_GENOENT_13
 70
     0
  0
APPID
  2
GENIUS_GENCFG_13
 70
     0
  0
APPID
  2
GENIUS_GENCFG0_13
 70
     0
  0
APPID
  2
GENIUS_GENCFG1_13
 70
     0
  0
APPID
  2
GENIUS_GENCFG2_13
 70
     0
  0
APPID
  2
GENIUS_GENCFG3_13
 70
     0
  0
APPID
  2
GENIUS_GENCFG4_13
 70
     0
  0
APPID
  2
GENIUS_GEVCFG0_13
 70
     0
  0
APPID
  2
CONTENTBLOCKICON
 70
     0
  0
APPID
  2
CONTENTBLOCKDESCRIPTION
 70
     0
  0
APPID
  2
ACAD_NAV_VCDISPLAY
 70
     0
  0
APPID
  2
ACAD_MLEADERVER
 70
     0
  0
ENDTAB
  0
TABLE
  2
DIMSTYLE
 70
     1
  0
DIMSTYLE
  2
STANDARD
 70
     0
  3

  4

  5
_ORIGIN
  6

  7

 40
1.0
 41
12.0
 42
20.0
 43
200.0
 44
20.0
 45
0.0
 46
0.0
 47
0.0
 48
0.0
140
64.0
141
0.09
142
0.0
143
25.399999999999999
144
1.0
145
0.0
146
1.0
147
25.0
 71
     0
 72
     0
 73
     0
 74
     0
 75
     0
 76
     0
 77
     1
 78
     8
170
     0
171
     2
172
     1
173
     0
174
     1
175
     0
176
     7
177
     7
178
     7
  0
ENDTAB
  0
TABLE
  2
VIEW
 70
     1
  0
VIEW
  2
ALL
 70
     0
 40
4282.6198079999986
 10
0.0
 20
41.309904000000003
 41
5940.0
 11
0.0
 21
0.0
 31
1.0
 12
0.0
 22
0.0
 32
0.0
 42
50.0
 43
0.0
 44
0.0
 50
0.0
 71
     0
  0
ENDTAB
  0
TABLE
  2
UCS
 70
     0
  0
ENDTAB
  0
TABLE
  2
VPORT
 70
     1
  0
VPORT
  2
*ACTIVE
 70
     0
 10
0.0
 20
0.0
 11
1.0
 21
1.0
 12
83.328734700079508
 22
137.1460060322961
 13
0.0
 23
0.0
 14
1.0
 24
1.0
 15
0.0
 25
0.0
 16
0.0
 26
0.0
 36
1.0
 17
0.0
 27
0.0
 37
0.0
 40
1515.377451365624
 41
1.6339193381592549
 42
50.0
 43
0.0
 44
0.0
 50
0.0
 51
0.0
 71
     0
 72
  1000
 73
     1
 74
     3
 75
     0
 76
     0
 77
     0
 78
     0
  0
ENDTAB
  0
ENDSEC
  0
SECTION
  2
BLOCKS
  0
BLOCK
  8
0
  2
_ORIGIN
 70
     0
 10
0.0
 20
0.0
 30
0.0
  3
_ORIGIN
  1
_ORIGIN
  0
CIRCLE
  8
0
  6
CONTINUOUS
 62
     7
 10
0.0
 20
0.0
 30
0.0
 40
0.5
  0
LINE
  8
0
  6
CONTINUOUS
 62
     7
 10
0.0
 20
0.0
 30
0.0
 11
-1.0
 21
0.0
 31
0.0
  0
ENDBLK
  8
0
  0
ENDSEC
  0
SECTION
  2
ENTITIES
  0
CIRCLE
  8
ARRANGE
  6
CONTINUOUS
 62
     1
 10
0.0
 20
0.0
 30
0.0
 40
40.0
  0
POINT
  8
ARRANGE
  6
CONTINUOUS
 62
     1
 10
0.0
 20
0.0
 30
0.0
  0
LINE
  8
OUTLINE
  6
CONTINUOUS
 62
     3
 10
97.5
 20
155.0
 30
0.0
 11
-97.5
 21
155.0
 31
0.0
  0
LINE
  8
OUTLINE
  6
CONTINUOUS
 62
     3
 10
141.0
 20
0.0
 30
0.0
 11
-141.0
 21
0.0
 31
0.0
  0
LINE
  8
SIZE
  6
CONTINUOUS
 62
    30
 10
0.0
 20
461.69801499999988
 30
0.0
 11
232.30690999999999
 21
461.69801499999988
 31
0.0
  0
CIRCLE
  8
SIZE
  6
CONTINUOUS
 62
    30
 10
0.0
 20
461.69801499999988
 30
0.0
 40
6.0
  0
LINE
  8
SIZE
  6
CONTINUOUS
 62
    30
 10
248.20509699999999
 20
461.69801499999988
 30
0.0
 11
0.0
 21
461.69801499999988
 31
0.0
  0
TEXT
  8
SIZE
  6
CONTINUOUS
 62
    30
 10
-108.09662957142859
 20
737.31793900000002
 30
0.0
 40
64.0
  1
□195
 41
0.9
 72
     1
 11
-3.04520100000002
 21
737.31793900000002
 31
0.0
  0
LINE
  8
SIZE
  6
CONTINUOUS
 62
    30
 10
82.45479899999998
 20
712.57567100000006
 30
0.0
 11
-85.5
 21
712.57567100000006
 31
0.0
  0
LINE
  8
NOTE
  6
CONTINUOUS
 62
     4
 10
0.0
 20
185.0
 30
0.0
 11
38.589747999999993
 21
195.527646
 31
0.0
  0
LINE
  8
NOTE
  6
CONTINUOUS
 62
     4
 10
28.155879000000031
 20
214.41208299999991
 30
0.0
 11
0.0
 21
185.0
 31
0.0
  0
LINE
  8
NOTE
  6
CONTINUOUS
 62
     4
 10
0.0
 20
185.0
 30
0.0
 11
364.49232699999988
 21
397.48930100000013
 31
0.0
  0
LINE
  8
SIZE
  6
CONTINUOUS
 62
    30
 10
-22.5
 20
581.64436799999999
 30
0.0
 11
40.5
 21
581.64436799999999
 31
0.0
  0
LINE
  8
SIZE
  6
CONTINUOUS
 62
    30
 10
-22.5
 20
581.64436799999999
 30
0.0
 11
40.5
 21
581.64436799999999
 31
0.0
  0
TEXT
  8
SIZE
  6
CONTINUOUS
 62
    30
 10
-67.799999999999983
 20
606.48214099999996
 30
0.0
 40
64.0
  1
φ63
 41
0.9
 72
     1
 11
9.0
 21
606.48214099999996
 31
0.0
  0
LINE
  8
SIZE
  6
CONTINUOUS
 62
    30
 10
85.5
 20
-330.97480000000002
 30
0.0
 11
-85.5
 21
-330.97480000000002
 31
0.0
  0
TEXT
  8
SIZE
  6
CONTINUOUS
 62
    30
 10
-68.571428571428569
 20
-428.58623899999998
 30
0.0
 40
64.0
  1
212
 41
0.9
 72
     1
 11
0.0
 21
-428.58623899999998
 31
0.0
  0
LINE
  8
SIZE
  6
CONTINUOUS
 62
    30
 10
94.0
 20
-455.07848200000001
 30
0.0
 11
-94.0
 21
-455.07848200000001
 31
0.0
  0
TEXT
  8
SIZE
  6
CONTINUOUS
 62
    30
 10
-68.571428571428569
 20
-199.59653399999999
 30
0.0
 40
64.0
  1
150
 41
0.9
 72
     1
 11
0.0
 21
-199.59653399999999
 31
0.0
  0
LINE
  8
SIZE
  6
CONTINUOUS
 62
    30
 10
63.0
 20
-225.373829
 30
0.0
 11
-63.0
 21
-225.373829
 31
0.0
  0
TEXT
  8
SIZE
  6
CONTINUOUS
 62
    30
 10
-110.5371428571429
 20
-569.39357700000016
 30
0.0
 40
64.0
  1
□282
 41
0.9
 72
     1
 11
0.0
 21
-569.39357700000016
 31
0.0
  0
LINE
  8
SIZE
  6
CONTINUOUS
 62
    30
 10
129.0
 20
-595.84389399999998
 30
0.0
 11
-129.0
 21
-595.84389399999998
 31
0.0
  0
CIRCLE
  8
FIX
  6
CONTINUOUS
 62
    11
 10
0.0
 20
185.0
 30
0.0
 40
7.5
  0
LINE
  8
NOTE
  6
CONTINUOUS
 62
     4
 10
20.0
 20
185.0
 30
0.0
 11
-20.0
 21
185.0
 31
0.0
  0
LINE
  8
DETAIL
  6
CONTINUOUS
 62
     5
 10
40.5
 20
193.0
 30
0.0
 11
-22.5
 21
193.0
 31
0.0
  0
LINE
  8
DETAIL
  6
CONTINUOUS
 62
     5
 10
141.0
 20
0.0
 30
0.0
 11
-141.0
 21
0.0
 31
0.0
  0
LINE
  8
DETAIL
  6
CONTINUOUS
 62
     5
 10
109.252287
 20
-15.0
 30
0.0
 11
-109.252287
 21
-15.0
 31
0.0
  0
LINE
  8
DETAIL
  6
CONTINUOUS
 62
     5
 10
-17.5
 20
185.0
 30
0.0
 11
17.5
 21
185.0
 31
0.0
  0
LINE
  8
DETAIL
  6
CONTINUOUS
 62
     5
 10
-17.5
 20
183.0
 30
0.0
 11
17.5
 21
183.0
 31
0.0
  0
LINE
  8
DETAIL
  6
CONTINUOUS
 62
     5
 10
-104.04520100000001
 20
46.0
 30
0.0
 11
-104.04520100000001
 21
0.0
 31
0.0
  0
LINE
  8
DETAIL
  6
CONTINUOUS
 62
     5
 10
-97.5
 20
0.0
 30
0.0
 11
-97.5
 21
171.0
 31
0.0
  0
LINE
  8
DETAIL
  6
CONTINUOUS
 62
     5
 10
-100.54520100000001
 20
171.0
 30
0.0
 11
-100.54520100000001
 21
0.0
 31
0.0
  0
LINE
  8
SIZE
  6
CONTINUOUS
 62
    30
 10
-536.65930700000001
 20
51.0
 30
0.0
 11
-536.65930700000001
 21
-179.18174400000001
 31
0.0
  0
LINE
  8
SIZE
  6
CONTINUOUS
 62
    30
 10
-661.18515200000002
 20
49.5
 30
0.0
 11
-661.18515200000002
 21
-224.30745899999999
 31
0.0
  0
LINE
  8
SIZE
  6
CONTINUOUS
 62
    30
 10
-793.02205800000002
 20
0.0
 30
0.0
 11
-793.02205800000002
 21
12.0
 31
0.0
  0
CIRCLE
  8
SIZE
  6
CONTINUOUS
 62
    30
 10
-793.02205800000002
 20
0.0
 30
0.0
 40
6.0
  0
LINE
  8
SIZE
  6
CONTINUOUS
 62
    30
 10
-661.18515200000002
 20
-255.02514500000001
 30
0.0
 11
-661.18515200000002
 21
49.5
 31
0.0
  0
LINE
  8
SIZE
  6
CONTINUOUS
 62
    30
 10
-536.65930700000001
 20
-211.16408300000001
 30
0.0
 11
-536.65930700000001
 21
53.0
 31
0.0
  0
LINE
  8
DETAIL
  6
CONTINUOUS
 62
     5
 10
-97.5
 20
0.0
 30
0.0
 11
-97.5
 21
169.0
 31
0.0
  0
LINE
  8
DETAIL
  6
CONTINUOUS
 62
     5
 10
-17.5
 20
0.0
 30
0.0
 11
-17.5
 21
185.0
 31
0.0
  0
LINE
  8
DETAIL
  6
CONTINUOUS
 62
     5
 10
-97.5
 20
0.0
 30
0.0
 11
-97.5
 21
155.0
 31
0.0
  0
LINE
  8
NOTE
  6
CONTINUOUS
 62
     4
 10
-75.0
 20
-20.0
 30
0.0
 11
-75.0
 21
20.0
 31
0.0
  0
LINE
  8
NOTE
  6
CONTINUOUS
 62
     4
 10
-106.0
 20
-20.0
 30
0.0
 11
-106.0
 21
20.0
 31
0.0
  0
CIRCLE
  8
FIX
  6
CONTINUOUS
 62
    11
 10
-106.0
 20
0.0
 30
0.0
 40
2.5
  0
CIRCLE
  8
FIX
  6
CONTINUOUS
 62
    11
 10
-75.0
 20
0.0
 30
0.0
 40
2.5
  0
LINE
  8
DETAIL
  6
CONTINUOUS
 62
     5
 10
-97.5
 20
0.0
 30
0.0
 11
-97.5
 21
35.0
 31
0.0
  0
LINE
  8
BASIS
  6
DASHDOT
 62
     6
 10
0.0
 20
-40.0
 30
0.0
 11
0.0
 21
240.382338
 31
0.0
  0
LINE
  8
SIZE
  6
CONTINUOUS
 62
    30
 10
-161.0
 20
0.0
 30
0.0
 11
-813.02205800000002
 21
0.0
 31
0.0
  0
LINE
  8
SIZE
  6
CONTINUOUS
 62
    30
 10
-793.02205800000002
 20
0.0
 30
0.0
 11
-793.02205800000002
 21
-161.13145800000001
 31
0.0
  0
TEXT
  8
SIZE
  6
CONTINUOUS
 62
    30
 10
-818.38892299999998
 20
-158.1057975714285
 30
0.0
 40
64.0
  1
102
 50
90.0
 41
0.9
 72
     1
 11
-818.38892299999998
 21
-89.53436899999997
 31
0.0
  0
TEXT
  8
SIZE
  6
CONTINUOUS
 62
    30
 10
-686.18515200000002
 20
-231.39657314285719
 30
0.0
 40
64.0
  1
φ105
 50
90.0
 41
0.9
 72
     1
 11
-686.18515200000002
 21
-132.653716
 31
0.0
  0
TEXT
  8
SIZE
  6
CONTINUOUS
 62
    30
 10
-561.65930700000001
 20
-187.53551200000001
 30
0.0
 40
64.0
  1
φ98
 50
90.0
 41
0.9
 72
     1
 11
-561.65930700000001
 21
-110.735512
 31
0.0
  0
CIRCLE
  8
SIZE
  6
CONTINUOUS
 62
    30
 10
-97.5
 20
-330.97480000000002
 30
0.0
 40
6.0
  0
LINE
  8
SIZE
  6
CONTINUOUS
 62
    30
 10
-97.5
 20
-20.0
 30
0.0
 11
-97.5
 21
-350.97480000000002
 31
0.0
  0
LINE
  8
SIZE
  6
CONTINUOUS
 62
    30
 10
-106.0
 20
-40.0
 30
0.0
 11
-106.0
 21
-475.07848200000001
 31
0.0
  0
LINE
  8
SIZE
  6
CONTINUOUS
 62
    30
 10
-141.0
 20
-28.561506000000008
 30
0.0
 11
-141.0
 21
-615.84389399999998
 31
0.0
  0
LINE
  8
SIZE
  6
CONTINUOUS
 62
    30
 10
-97.5
 20
-330.97480000000002
 30
0.0
 11
-396.42851400000001
 21
-330.97480000000002
 31
0.0
  0
LINE
  8
SIZE
  6
CONTINUOUS
 62
    30
 10
-406.46655900000002
 20
-330.97480000000002
 30
0.0
 11
-97.5
 21
-330.97480000000002
 31
0.0
  0
LINE
  8
SIZE
  6
CONTINUOUS
 62
    30
 10
-141.0
 20
-595.84389399999998
 30
0.0
 11
-129.0
 21
-595.84389399999998
 31
0.0
  0
CIRCLE
  8
SIZE
  6
CONTINUOUS
 62
    30
 10
-141.0
 20
-595.84389399999998
 30
0.0
 40
6.0
  0
LINE
  8
SIZE
  6
CONTINUOUS
 62
    30
 10
-106.0
 20
-455.07848200000001
 30
0.0
 11
-94.0
 21
-455.07848200000001
 31
0.0
  0
CIRCLE
  8
SIZE
  6
CONTINUOUS
 62
    30
 10
-106.0
 20
-455.07848200000001
 30
0.0
 40
6.0
  0
LINE
  8
SIZE
  6
CONTINUOUS
 62
    30
 10
-97.5
 20
-330.97480000000002
 30
0.0
 11
-85.5
 21
-330.97480000000002
 31
0.0
  0
TEXT
  8
SIZE
  6
CONTINUOUS
 62
    30
 10
-385.30655857142858
 20
-305.97480000000002
 30
0.0
 40
64.0
  1
□195
 41
0.9
 72
     1
 11
-280.25513000000001
 21
-305.97480000000002
 31
0.0
  0
LINE
  8
SIZE
  6
CONTINUOUS
 62
    30
 10
-75.0
 20
-40.0
 30
0.0
 11
-75.0
 21
-245.373829
 31
0.0
  0
LINE
  8
SIZE
  6
CONTINUOUS
 62
    30
 10
-75.0
 20
-225.373829
 30
0.0
 11
-63.0
 21
-225.373829
 31
0.0
  0
CIRCLE
  8
SIZE
  6
CONTINUOUS
 62
    30
 10
-75.0
 20
-225.373829
 30
0.0
 40
6.0
  0
LINE
  8
NOTE
  6
CONTINUOUS
 62
     4
 10
-86.0
 20
0.0
 30
0.0
 11
-126.0
 21
0.0
 31
0.0
  0
LINE
  8
DETAIL
  6
CONTINUOUS
 62
     5
 10
-141.0
 20
-8.5615060000000085
 30
0.0
 11
-109.252287
 21
-15.0
 31
0.0
  0
LINE
  8
DETAIL
  6
CONTINUOUS
 62
     5
 10
-141.0
 20
-8.5615060000000085
 30
0.0
 11
-141.0
 21
0.0
 31
0.0
  0
LINE
  8
NOTE
  6
CONTINUOUS
 62
     4
 10
-55.0
 20
0.0
 30
0.0
 11
-95.0
 21
0.0
 31
0.0
  0
TEXT
  8
SIZE
  6
CONTINUOUS
 62
    30
 10
-341.15535942857139
 20
605.04438100000016
 30
0.0
 40
64.0
  1
52
 41
0.9
 72
     1
 11
-294.52678800000001
 21
605.04438100000016
 31
0.0
  0
LINE
  8
SIZE
  6
CONTINUOUS
 62
    30
 10
-211.5
 20
171.0
 30
0.0
 11
-211.5
 21
732.57567100000006
 31
0.0
  0
LINE
  8
SIZE
  6
CONTINUOUS
 62
    30
 10
-97.5
 20
191.0
 30
0.0
 11
-97.5
 21
732.57567100000006
 31
0.0
  0
LINE
  8
SIZE
  6
CONTINUOUS
 62
    30
 10
-97.5
 20
191.0
 30
0.0
 11
-97.5
 21
732.57567100000006
 31
0.0
  0
LINE
  8
SIZE
  6
CONTINUOUS
 62
    30
 10
-262.63435099999992
 20
102.0
 30
0.0
 11
-813.02205800000002
 21
102.0
 31
0.0
  0
LINE
  8
SIZE
  6
CONTINUOUS
 62
    30
 10
-204.5
 20
154.5
 30
0.0
 11
-681.18515200000002
 21
154.5
 31
0.0
  0
LINE
  8
SIZE
  6
CONTINUOUS
 62
    30
 10
-204.5
 20
49.5
 30
0.0
 11
-681.18515200000002
 21
49.5
 31
0.0
  0
CIRCLE
  8
SIZE
  6
CONTINUOUS
 62
    30
 10
-536.65930700000001
 20
151.0
 30
0.0
 40
6.0
  0
CIRCLE
  8
SIZE
  6
CONTINUOUS
 62
    30
 10
-536.65930700000001
 20
53.0
 30
0.0
 40
6.0
  0
LINE
  8
SIZE
  6
CONTINUOUS
 62
    30
 10
-231.5
 20
151.0
 30
0.0
 11
-556.65930700000001
 21
151.0
 31
0.0
  0
LINE
  8
SIZE
  6
CONTINUOUS
 62
    30
 10
-231.5
 20
53.0
 30
0.0
 11
-556.65930700000001
 21
53.0
 31
0.0
  0
LINE
  8
SIZE
  6
CONTINUOUS
 62
    30
 10
-793.02205800000002
 20
12.0
 30
0.0
 11
-793.02205800000002
 21
90.0
 31
0.0
  0
LINE
  8
SIZE
  6
CONTINUOUS
 62
    30
 10
-793.02205800000002
 20
102.0
 30
0.0
 11
-793.02205800000002
 21
90.0
 31
0.0
  0
CIRCLE
  8
SIZE
  6
CONTINUOUS
 62
    30
 10
-793.02205800000002
 20
102.0
 30
0.0
 40
6.0
  0
LINE
  8
SIZE
  6
CONTINUOUS
 62
    30
 10
-661.18515200000002
 20
61.5
 30
0.0
 11
-661.18515200000002
 21
142.5
 31
0.0
  0
LINE
  8
SIZE
  6
CONTINUOUS
 62
    30
 10
-661.18515200000002
 20
49.5
 30
0.0
 11
-661.18515200000002
 21
61.5
 31
0.0
  0
CIRCLE
  8
SIZE
  6
CONTINUOUS
 62
    30
 10
-661.18515200000002
 20
49.5
 30
0.0
 40
6.0
  0
LINE
  8
SIZE
  6
CONTINUOUS
 62
    30
 10
-661.18515200000002
 20
154.5
 30
0.0
 11
-661.18515200000002
 21
142.5
 31
0.0
  0
CIRCLE
  8
SIZE
  6
CONTINUOUS
 62
    30
 10
-661.18515200000002
 20
154.5
 30
0.0
 40
6.0
  0
LINE
  8
SIZE
  6
CONTINUOUS
 62
    30
 10
-536.65930700000001
 20
65.0
 30
0.0
 11
-536.65930700000001
 21
139.0
 31
0.0
  0
LINE
  8
SIZE
  6
CONTINUOUS
 62
    30
 10
-536.65930700000001
 20
53.0
 30
0.0
 11
-536.65930700000001
 21
65.0
 31
0.0
  0
LINE
  8
SIZE
  6
CONTINUOUS
 62
    30
 10
-536.65930700000001
 20
151.0
 30
0.0
 11
-536.65930700000001
 21
139.0
 31
0.0
  0
LINE
  8
SIZE
  6
CONTINUOUS
 62
    30
 10
0.0
 20
260.382338
 30
0.0
 11
0.0
 21
481.69801499999988
 31
0.0
  0
LINE
  8
SIZE
  6
CONTINUOUS
 62
    30
 10
-77.0
 20
195.0
 30
0.0
 11
-77.0
 21
481.69801499999988
 31
0.0
  0
LINE
  8
SIZE
  6
CONTINUOUS
 62
    30
 10
0.0
 20
260.382338
 30
0.0
 11
0.0
 21
354.47882900000002
 31
0.0
  0
LINE
  8
SIZE
  6
CONTINUOUS
 62
    30
 10
-184.5
 20
174.5
 30
0.0
 11
-184.5
 21
482.49912100000012
 31
0.0
  0
LINE
  8
SIZE
  6
CONTINUOUS
 62
    30
 10
-211.5
 20
171.0
 30
0.0
 11
-211.5
 21
482.49912100000012
 31
0.0
  0
LINE
  8
SIZE
  6
CONTINUOUS
 62
    30
 10
-159.5
 20
174.5
 30
0.0
 11
-159.5
 21
600.11860500000012
 31
0.0
  0
LINE
  8
SIZE
  6
CONTINUOUS
 62
    30
 10
-211.5
 20
171.0
 30
0.0
 11
-211.5
 21
600.11860500000012
 31
0.0
  0
LINE
  8
SIZE
  6
CONTINUOUS
 62
    30
 10
-22.5
 20
213.0
 30
0.0
 11
-22.5
 21
601.64436799999999
 31
0.0
  0
LINE
  8
BASIS
  6
DASHDOT
 62
     6
 10
-242.63435100000001
 20
102.0
 30
0.0
 11
-73.542907000000014
 21
102.0
 31
0.0
  0
LINE
  8
NOTE
  6
CONTINUOUS
 62
     4
 10
-77.0
 20
155.0
 30
0.0
 11
-260.38998600000002
 21
211.14653300000001
 31
0.0
  0
TEXT
  8
NOTE
  6
CONTINUOUS
 62
     4
 10
-382.12492500000002
 20
60.448583999999983
 30
0.0
 40
64.0
  1
EA
 41
0.9
  0
POINT
  8
DEFPOINTS
  6
CONTINUOUS
 62
    30
 10
-242.63435100000001
 20
102.0
 30
0.0
  0
LINE
  8
NOTE
  6
CONTINUOUS
 62
     4
 10
-371.58224000000001
 20
211.14653300000001
 30
0.0
 11
-260.38998600000002
 21
211.14653300000001
 31
0.0
  0
TEXT
  8
NOTE
  6
CONTINUOUS
 62
     4
 10
-352.68301000000002
 20
236.88806199999999
 30
0.0
 40
64.0
  1
EL
 41
0.9
  0
LINE
  8
DETAIL
  6
CONTINUOUS
 62
     5
 10
-104.04520100000001
 20
171.0
 30
0.0
 11
-104.04520100000001
 21
158.0
 31
0.0
  0
LINE
  8
NOTE
  6
CONTINUOUS
 62
     4
 10
-77.0
 20
155.0
 30
0.0
 11
-110.681978
 21
176.57601299999999
 31
0.0
  0
LINE
  8
NOTE
  6
CONTINUOUS
 62
     4
 10
-77.0
 20
135.0
 30
0.0
 11
-77.0
 21
175.0
 31
0.0
  0
LINE
  8
DETAIL
  6
CONTINUOUS
 62
     5
 10
-22.5
 20
162.0
 30
0.0
 11
-22.5
 21
193.0
 31
0.0
  0
LINE
  8
DETAIL
  6
CONTINUOUS
 62
     5
 10
-159.5
 20
158.0
 30
0.0
 11
-100.54520100000001
 21
158.0
 31
0.0
  0
LINE
  8
DETAIL
  6
CONTINUOUS
 62
     5
 10
-159.5
 20
46.0
 30
0.0
 11
-100.54520100000001
 21
46.0
 31
0.0
  0
LINE
  8
NOTE
  6
CONTINUOUS
 62
     4
 10
-116.957455
 20
156.84438599999999
 30
0.0
 11
-77.0
 21
155.0
 31
0.0
  0
LINE
  8
DETAIL
  6
CONTINUOUS
 62
     5
 10
-211.5
 20
53.0
 30
0.0
 11
-211.5
 21
151.0
 31
0.0
  0
LINE
  8
DETAIL
  6
CONTINUOUS
 62
     5
 10
-184.5
 20
52.0
 30
0.0
 11
-184.5
 21
152.0
 31
0.0
  0
LINE
  8
DETAIL
  6
CONTINUOUS
 62
     5
 10
-159.5
 20
46.0
 30
0.0
 11
-159.5
 21
158.0
 31
0.0
  0
LINE
  8
DETAIL
  6
CONTINUOUS
 62
     5
 10
-184.5
 20
49.5
 30
0.0
 11
-159.5
 21
49.5
 31
0.0
  0
LINE
  8
DETAIL
  6
CONTINUOUS
 62
     5
 10
-211.5
 20
53.0
 30
0.0
 11
-184.5
 21
53.0
 31
0.0
  0
LINE
  8
DETAIL
  6
CONTINUOUS
 62
     5
 10
-184.5
 20
49.5
 30
0.0
 11
-184.5
 21
52.0
 31
0.0
  0
LINE
  8
DETAIL
  6
CONTINUOUS
 62
     5
 10
-184.5
 20
154.5
 30
0.0
 11
-159.5
 21
154.5
 31
0.0
  0
LINE
  8
DETAIL
  6
CONTINUOUS
 62
     5
 10
-184.5
 20
152.0
 30
0.0
 11
-184.5
 21
154.5
 31
0.0
  0
LINE
  8
DETAIL
  6
CONTINUOUS
 62
     5
 10
-211.5
 20
151.0
 30
0.0
 11
-184.5
 21
151.0
 31
0.0
  0
LINE
  8
DETAIL
  6
CONTINUOUS
 62
     5
 10
-85.5
 20
49.0
 30
0.0
 11
-85.5
 21
155.0
 31
0.0
  0
ARC
  8
DETAIL
  6
CONTINUOUS
 62
     5
 10
-88.5
 20
49.0
 30
0.0
 40
3.0
 50
270.0
 51
0.0
  0
LINE
  8
DETAIL
  6
CONTINUOUS
 62
     5
 10
-97.5
 20
46.0
 30
0.0
 11
-88.5
 21
46.0
 31
0.0
  0
LINE
  8
DETAIL
  6
CONTINUOUS
 62
     5
 10
-17.5
 20
147.0
 30
0.0
 11
-85.5
 21
147.0
 31
0.0
  0
LINE
  8
DETAIL
  6
CONTINUOUS
 62
     5
 10
-17.5
 20
155.0
 30
0.0
 11
-85.5
 21
155.0
 31
0.0
  0
LINE
  8
NOTE
  6
CONTINUOUS
 62
     4
 10
-97.0
 20
155.0
 30
0.0
 11
-57.0
 21
155.0
 31
0.0
  0
LINE
  8
DETAIL
  6
CONTINUOUS
 62
     5
 10
-85.5
 20
155.0
 30
0.0
 11
-89.762699999999995
 21
158.0
 31
0.0
  0
LINE
  8
DETAIL
  6
CONTINUOUS
 62
     5
 10
-97.5
 20
158.0
 30
0.0
 11
-89.762699999999995
 21
158.0
 31
0.0
  0
LINE
  8
DETAIL
  6
CONTINUOUS
 62
     5
 10
-37.02828199999999
 20
162.0
 30
0.0
 11
-17.5
 21
162.0
 31
0.0
  0
LINE
  8
DETAIL
  6
CONTINUOUS
 62
     5
 10
-41.0
 20
155.0
 30
0.0
 11
-37.02828199999999
 21
162.0
 31
0.0
  0
LINE
  8
DETAIL
  6
CONTINUOUS
 62
     5
 10
-104.04520100000001
 20
171.0
 30
0.0
 11
-97.5
 21
171.0
 31
0.0
  0
POINT
  8
DEFPOINTS
  6
CONTINUOUS
 62
    30
 10
0.0
 20
240.382338
 30
0.0
  0
POINT
  8
DEFPOINTS
  6
CONTINUOUS
 62
    30
 10
0.0
 20
240.382338
 30
0.0
  0
LINE
  8
NOTE
  6
CONTINUOUS
 62
     4
 10
0.0
 20
166.0
 30
0.0
 11
0.0
 21
205.0
 31
0.0
  0
LINE
  8
SIZE
  6
CONTINUOUS
 62
    30
 10
-214.5
 20
580.11860500000012
 30
0.0
 11
-349.42379399999999
 21
580.11860500000012
 31
0.0
  0
LINE
  8
SIZE
  6
CONTINUOUS
 62
    30
 10
-214.5
 20
462.49912100000012
 30
0.0
 11
-355.65723100000002
 21
462.49912100000012
 31
0.0
  0
LINE
  8
SIZE
  6
CONTINUOUS
 62
    30
 10
-223.5
 20
462.49912100000012
 30
0.0
 11
-235.5
 21
462.49912100000012
 31
0.0
  0
LINE
  8
SIZE
  6
CONTINUOUS
 62
    30
 10
-223.5
 20
580.11860500000012
 30
0.0
 11
-235.5
 21
580.11860500000012
 31
0.0
  0
TEXT
  8
SIZE
  6
CONTINUOUS
 62
    30
 10
-339.63012642857149
 20
487.14838800000012
 30
0.0
 40
64.0
  1
27
 41
0.9
 72
     1
 11
-293.00155500000011
 21
487.14838800000012
 31
0.0
  0
LINE
  8
SIZE
  6
CONTINUOUS
 62
    30
 10
-184.5
 20
462.49912100000012
 30
0.0
 11
-172.5
 21
462.49912100000012
 31
0.0
  0
CIRCLE
  8
SIZE
  6
CONTINUOUS
 62
    30
 10
-184.5
 20
462.49912100000012
 30
0.0
 40
6.0
  0
LINE
  8
SIZE
  6
CONTINUOUS
 62
    30
 10
-211.5
 20
462.49912100000012
 30
0.0
 11
-223.5
 21
462.49912100000012
 31
0.0
  0
CIRCLE
  8
SIZE
  6
CONTINUOUS
 62
    30
 10
-211.5
 20
462.49912100000012
 30
0.0
 40
6.0
  0
LINE
  8
SIZE
  6
CONTINUOUS
 62
    30
 10
-211.5
 20
462.49912100000012
 30
0.0
 11
-184.5
 21
462.49912100000012
 31
0.0
  0
LINE
  8
SIZE
  6
CONTINUOUS
 62
    30
 10
-211.5
 20
462.49912100000012
 30
0.0
 11
-184.5
 21
462.49912100000012
 31
0.0
  0
LINE
  8
SIZE
  6
CONTINUOUS
 62
    30
 10
-172.5
 20
462.49912100000012
 30
0.0
 11
-160.5
 21
462.49912100000012
 31
0.0
  0
LINE
  8
SIZE
  6
CONTINUOUS
 62
    30
 10
-65.0
 20
461.69801499999988
 30
0.0
 11
-12.0
 21
461.69801499999988
 31
0.0
  0
LINE
  8
SIZE
  6
CONTINUOUS
 62
    30
 10
-77.0
 20
461.69801499999988
 30
0.0
 11
-65.0
 21
461.69801499999988
 31
0.0
  0
CIRCLE
  8
SIZE
  6
CONTINUOUS
 62
    30
 10
-77.0
 20
461.69801499999988
 30
0.0
 40
6.0
  0
LINE
  8
SIZE
  6
CONTINUOUS
 62
    30
 10
0.0
 20
461.69801499999988
 30
0.0
 11
-12.0
 21
461.69801499999988
 31
0.0
  0
CIRCLE
  8
SIZE
  6
CONTINUOUS
 62
    30
 10
-159.5
 20
580.11860500000012
 30
0.0
 40
6.0
  0
CIRCLE
  8
SIZE
  6
CONTINUOUS
 62
    30
 10
-211.5
 20
580.11860500000012
 30
0.0
 40
6.0
  0
LINE
  8
SIZE
  6
CONTINUOUS
 62
    30
 10
-211.5
 20
580.11860500000012
 30
0.0
 11
-159.5
 21
580.11860500000012
 31
0.0
  0
LINE
  8
SIZE
  6
CONTINUOUS
 62
    30
 10
-211.5
 20
580.11860500000012
 30
0.0
 11
-159.5
 21
580.11860500000012
 31
0.0
  0
LINE
  8
SIZE
  6
CONTINUOUS
 62
    30
 10
-211.5
 20
580.11860500000012
 30
0.0
 11
-223.5
 21
580.11860500000012
 31
0.0
  0
CIRCLE
  8
SIZE
  6
CONTINUOUS
 62
    30
 10
-22.5
 20
581.64436799999999
 30
0.0
 40
6.0
  0
LINE
  8
SIZE
  6
CONTINUOUS
 62
    30
 10
-216.5
 20
712.57567100000006
 30
0.0
 11
-384.55271099999999
 21
712.57567100000006
 31
0.0
  0
TEXT
  8
SIZE
  6
CONTINUOUS
 62
    30
 10
-371.54164285714279
 20
735.88017799999989
 30
0.0
 40
64.0
  1
114
 41
0.9
 72
     1
 11
-307.08449999999988
 21
735.88017799999989
 31
0.0
  0
LINE
  8
SIZE
  6
CONTINUOUS
 62
    30
 10
-109.5
 20
712.57567100000006
 30
0.0
 11
-199.5
 21
712.57567100000006
 31
0.0
  0
LINE
  8
SIZE
  6
CONTINUOUS
 62
    30
 10
-211.5
 20
712.57567100000006
 30
0.0
 11
-199.5
 21
712.57567100000006
 31
0.0
  0
CIRCLE
  8
SIZE
  6
CONTINUOUS
 62
    30
 10
-211.5
 20
712.57567100000006
 30
0.0
 40
6.0
  0
LINE
  8
SIZE
  6
CONTINUOUS
 62
    30
 10
-97.5
 20
712.57567100000006
 30
0.0
 11
-109.5
 21
712.57567100000006
 31
0.0
  0
CIRCLE
  8
SIZE
  6
CONTINUOUS
 62
    30
 10
-97.5
 20
712.57567100000006
 30
0.0
 40
6.0
  0
LINE
  8
SIZE
  6
CONTINUOUS
 62
    30
 10
-97.5
 20
712.57567100000006
 30
0.0
 11
-85.5
 21
712.57567100000006
 31
0.0
  0
CIRCLE
  8
SIZE
  6
CONTINUOUS
 62
    30
 10
-97.5
 20
712.57567100000006
 30
0.0
 40
6.0
  0
LINE
  8
OUTLINE
  6
CONTINUOUS
 62
     3
 10
97.5
 20
0.0
 30
0.0
 11
97.5
 21
155.0
 31
0.0
  0
LINE
  8
DETAIL
  6
CONTINUOUS
 62
     5
 10
17.5
 20
0.0
 30
0.0
 11
17.5
 21
185.0
 31
0.0
  0
CIRCLE
  8
SIZE
  6
CONTINUOUS
 62
    30
 10
433.37143199999991
 20
0.0
 30
0.0
 40
6.0
  0
CIRCLE
  8
SIZE
  6
CONTINUOUS
 62
    30
 10
433.37143199999991
 20
0.0
 30
0.0
 40
6.0
  0
CIRCLE
  8
FIX
  6
CONTINUOUS
 62
    11
 10
75.0
 20
0.0
 30
0.0
 40
2.5
  0
LINE
  8
NOTE
  6
CONTINUOUS
 62
     4
 10
75.0
 20
-20.0
 30
0.0
 11
75.0
 21
20.0
 31
0.0
  0
CIRCLE
  8
FIX
  6
CONTINUOUS
 62
    11
 10
106.0
 20
0.0
 30
0.0
 40
2.5
  0
LINE
  8
NOTE
  6
CONTINUOUS
 62
     4
 10
106.0
 20
-20.0
 30
0.0
 11
106.0
 21
20.0
 31
0.0
  0
LINE
  8
DETAIL
  6
CONTINUOUS
 62
     5
 10
97.5
 20
0.0
 30
0.0
 11
97.5
 21
155.0
 31
0.0
  0
LINE
  8
SIZE
  6
CONTINUOUS
 62
    30
 10
161.0
 20
0.0
 30
0.0
 11
448.99505099999988
 21
0.0
 31
0.0
  0
LINE
  8
SIZE
  6
CONTINUOUS
 62
    30
 10
161.0
 20
0.0
 30
0.0
 11
453.37143199999991
 21
0.0
 31
0.0
  0
LINE
  8
SIZE
  6
CONTINUOUS
 62
    30
 10
161.0
 20
0.0
 30
0.0
 11
453.37143199999991
 21
0.0
 31
0.0
  0
LINE
  8
SIZE
  6
CONTINUOUS
 62
    30
 10
129.252287
 20
-15.0
 30
0.0
 11
453.37143199999991
 21
-15.0
 31
0.0
  0
LINE
  8
NOTE
  6
CONTINUOUS
 62
     4
 10
239.38346200000001
 20
-347.75770599999998
 30
0.0
 11
620.40074700000014
 21
-347.75770599999998
 31
0.0
  0
TEXT
  8
NOTE
  6
CONTINUOUS
 62
     4
 10
252.60210200000009
 20
-315.13122099999998
 30
0.0
 40
64.0
  1
8-φ5×8
 41
0.9
  0
LINE
  8
NOTE
  6
CONTINUOUS
 62
     4
 10
106.0
 20
0.0
 30
0.0
 11
239.38346200000001
 21
-347.75770599999998
 31
0.0
  0
CIRCLE
  8
SIZE
  6
CONTINUOUS
 62
    30
 10
97.5
 20
-330.97480000000002
 30
0.0
 40
6.0
  0
LINE
  8
SIZE
  6
CONTINUOUS
 62
    30
 10
97.5
 20
-20.0
 30
0.0
 11
97.5
 21
-350.97480000000002
 31
0.0
  0
LINE
  8
SIZE
  6
CONTINUOUS
 62
    30
 10
106.0
 20
-40.0
 30
0.0
 11
106.0
 21
-475.07848200000001
 31
0.0
  0
LINE
  8
SIZE
  6
CONTINUOUS
 62
    30
 10
141.0
 20
-28.561506000000008
 30
0.0
 11
141.0
 21
-615.84389399999998
 31
0.0
  0
LINE
  8
SIZE
  6
CONTINUOUS
 62
    30
 10
141.0
 20
-595.84389399999998
 30
0.0
 11
129.0
 21
-595.84389399999998
 31
0.0
  0
CIRCLE
  8
SIZE
  6
CONTINUOUS
 62
    30
 10
141.0
 20
-595.84389399999998
 30
0.0
 40
6.0
  0
LINE
  8
SIZE
  6
CONTINUOUS
 62
    30
 10
106.0
 20
-455.07848200000001
 30
0.0
 11
94.0
 21
-455.07848200000001
 31
0.0
  0
CIRCLE
  8
SIZE
  6
CONTINUOUS
 62
    30
 10
106.0
 20
-455.07848200000001
 30
0.0
 40
6.0
  0
LINE
  8
SIZE
  6
CONTINUOUS
 62
    30
 10
97.5
 20
-330.97480000000002
 30
0.0
 11
85.5
 21
-330.97480000000002
 31
0.0
  0
LINE
  8
SIZE
  6
CONTINUOUS
 62
    30
 10
75.0
 20
-40.0
 30
0.0
 11
75.0
 21
-245.373829
 31
0.0
  0
LINE
  8
SIZE
  6
CONTINUOUS
 62
    30
 10
75.0
 20
-225.373829
 30
0.0
 11
63.0
 21
-225.373829
 31
0.0
  0
CIRCLE
  8
SIZE
  6
CONTINUOUS
 62
    30
 10
75.0
 20
-225.373829
 30
0.0
 40
6.0
  0
LINE
  8
DETAIL
  6
CONTINUOUS
 62
     5
 10
129.75
 20
0.0
 30
0.0
 11
99.25
 21
0.0
 31
0.0
  0
LINE
  8
DETAIL
  6
CONTINUOUS
 62
     5
 10
129.75
 20
0.0
 30
0.0
 11
99.25
 21
0.0
 31
0.0
  0
LINE
  8
DETAIL
  6
CONTINUOUS
 62
     5
 10
129.75
 20
0.0
 30
0.0
 11
99.25
 21
0.0
 31
0.0
  0
LINE
  8
NOTE
  6
CONTINUOUS
 62
     4
 10
128.65915700000011
 20
-32.963048999999963
 30
0.0
 11
106.0
 21
0.0
 31
0.0
  0
LINE
  8
NOTE
  6
CONTINUOUS
 62
     4
 10
86.0
 20
0.0
 30
0.0
 11
126.0
 21
0.0
 31
0.0
  0
LINE
  8
DETAIL
  6
CONTINUOUS
 62
     5
 10
141.0
 20
-8.5615060000000085
 30
0.0
 11
109.252287
 21
-15.0
 31
0.0
  0
LINE
  8
NOTE
  6
CONTINUOUS
 62
     4
 10
55.0
 20
0.0
 30
0.0
 11
95.0
 21
0.0
 31
0.0
  0
LINE
  8
NOTE
  6
CONTINUOUS
 62
     4
 10
106.0
 20
0.0
 30
0.0
 11
109.14188
 21
-39.876415999999949
 31
0.0
  0
LINE
  8
DETAIL
  6
CONTINUOUS
 62
     5
 10
141.0
 20
-8.5615060000000085
 30
0.0
 11
141.0
 21
0.0
 31
0.0
  0
TEXT
  8
SIZE
  6
CONTINUOUS
 62
    30
 10
409.82944099999992
 20
-119.54139114285719
 30
0.0
 40
64.0
  1
15
 50
90.0
 41
0.9
 72
     1
 11
409.82944099999992
 21
-78.398534000000041
 31
0.0
  0
LINE
  8
SIZE
  6
CONTINUOUS
 62
    30
 10
433.37143199999991
 20
-15.0
 30
0.0
 11
433.37143199999991
 21
-130.49595099999999
 31
0.0
  0
LINE
  8
SIZE
  6
CONTINUOUS
 62
    30
 10
433.37143199999991
 20
-15.0
 30
0.0
 11
433.37143199999991
 21
-27.0
 31
0.0
  0
CIRCLE
  8
SIZE
  6
CONTINUOUS
 62
    30
 10
433.37143199999991
 20
-15.0
 30
0.0
 40
6.0
  0
LINE
  8
SIZE
  6
CONTINUOUS
 62
    30
 10
433.37143199999991
 20
-15.0
 30
0.0
 11
433.37143199999991
 21
0.0
 31
0.0
  0
LINE
  8
SIZE
  6
CONTINUOUS
 62
    30
 10
433.37143199999991
 20
-15.0
 30
0.0
 11
433.37143199999991
 21
0.0
 31
0.0
  0
LINE
  8
SIZE
  6
CONTINUOUS
 62
    30
 10
433.37143199999991
 20
-27.0
 30
0.0
 11
433.37143199999991
 21
-39.0
 31
0.0
  0
LINE
  8
NOTE
  6
CONTINUOUS
 62
     4
 10
364.49232699999988
 20
397.48930100000013
 30
0.0
 11
1048.9831099999999
 21
397.48930100000013
 31
0.0
  0
TEXT
  8
NOTE
  6
CONTINUOUS
 62
     4
 10
378.62081699999999
 20
439.83616399999983
 30
0.0
 40
64.0
  1
AH 2-φ15×22
 41
0.9
  0
LINE
  8
SIZE
  6
CONTINUOUS
 62
    30
 10
94.45479899999998
 20
175.0
 30
0.0
 11
94.45479899999998
 21
732.57567100000006
 31
0.0
  0
LINE
  8
SIZE
  6
CONTINUOUS
 62
    30
 10
40.5
 20
213.0
 30
0.0
 11
40.5
 21
601.64436799999999
 31
0.0
  0
LINE
  8
DETAIL
  6
CONTINUOUS
 62
     5
 10
40.5
 20
162.0
 30
0.0
 11
40.5
 21
193.0
 31
0.0
  0
LINE
  8
DETAIL
  6
CONTINUOUS
 62
     5
 10
97.5
 20
147.0
 30
0.0
 11
17.5
 21
147.0
 31
0.0
  0
LINE
  8
DETAIL
  6
CONTINUOUS
 62
     5
 10
59.0
 20
155.0
 30
0.0
 11
55.02828199999999
 21
162.0
 31
0.0
  0
LINE
  8
DETAIL
  6
CONTINUOUS
 62
     5
 10
97.5
 20
155.0
 30
0.0
 11
17.5
 21
155.0
 31
0.0
  0
LINE
  8
DETAIL
  6
CONTINUOUS
 62
     5
 10
55.02828199999999
 20
162.0
 30
0.0
 11
17.5
 21
162.0
 31
0.0
  0
LINE
  8
DETAIL
  6
CONTINUOUS
 62
     5
 10
59.0
 20
155.0
 30
0.0
 11
97.5
 21
155.0
 31
0.0
  0
TEXT
  8
SIZE
  6
CONTINUOUS
 62
    30
 10
129.9479545714286
 20
486.69801499999988
 30
0.0
 40
64.0
  1
77
 41
0.9
 72
     1
 11
176.57652600000009
 21
486.69801499999988
 31
0.0
  0
CIRCLE
  8
SIZE
  6
CONTINUOUS
 62
    30
 10
40.5
 20
581.64436799999999
 30
0.0
 40
6.0
  0
LINE
  8
SIZE
  6
CONTINUOUS
 62
    30
 10
94.45479899999998
 20
712.57567100000006
 30
0.0
 11
82.45479899999998
 21
712.57567100000006
 31
0.0
  0
CIRCLE
  8
SIZE
  6
CONTINUOUS
 62
    30
 10
94.45479899999998
 20
712.57567100000006
 30
0.0
 40
6.0
  0
TEXT
  8
ETC
  6
CONTINUOUS
 62
    61
 10
401.30070699999987
 20
825.92855099999997
 30
0.0
 40
64.0
  1
VD-13ZY13_4
 41
0.9
  0
TEXT
  8
ETC
  6
CONTINUOUS
 62
    61
 10
397.11471299999988
 20
707.97324100000014
 30
0.0
 40
64.0
  1
換気扇
 41
0.9
  0
TEXT
  8
ETC
  6
CONTINUOUS
 62
    61
 10
447.72221600000012
 20
600.13746100000003
 30
0.0
 40
40.0
  1
VD-13ZY13
 41
0.9
  0
LINE
  8
SIZE
  6
CONTINUOUS
 62
    30
 10
161.0
 20
0.0
 30
0.0
 11
343.09320200000002
 21
0.0
 31
0.0
  0
LINE
  8
SIZE
  6
CONTINUOUS
 62
    30
 10
40.0
 20
185.0
 30
0.0
 11
343.09320200000002
 21
185.0
 31
0.0
  0
LINE
  8
SIZE
  6
CONTINUOUS
 62
    30
 10
323.09320200000002
 20
-12.0
 30
0.0
 11
323.09320200000002
 21
-24.0
 31
0.0
  0
LINE
  8
SIZE
  6
CONTINUOUS
 62
    30
 10
323.09320200000002
 20
197.0
 30
0.0
 11
323.09320200000002
 21
209.0
 31
0.0
  0
LINE
  8
SIZE
  6
CONTINUOUS
 62
    30
 10
323.09320200000002
 20
0.0
 30
0.0
 11
323.09320200000002
 21
185.0
 31
0.0
  0
CIRCLE
  8
SIZE
  6
CONTINUOUS
 62
    30
 10
323.09320200000002
 20
0.0
 30
0.0
 40
6.0
  0
LINE
  8
SIZE
  6
CONTINUOUS
 62
    30
 10
323.09320200000002
 20
0.0
 30
0.0
 11
323.09320200000002
 21
-12.0
 31
0.0
  0
CIRCLE
  8
SIZE
  6
CONTINUOUS
 62
    30
 10
323.09320200000002
 20
185.0
 30
0.0
 40
6.0
  0
LINE
  8
SIZE
  6
CONTINUOUS
 62
    30
 10
323.09320200000002
 20
185.0
 30
0.0
 11
323.09320200000002
 21
197.0
 31
0.0
  0
TEXT
  8
SIZE
  6
CONTINUOUS
 62
    30
 10
298.09320200000002
 20
23.928571428571431
 30
0.0
 40
64.0
  1
185
 50
90.0
 41
0.9
 72
     1
 11
298.09320200000002
 21
92.5
 31
0.0
  0
POINT
  8
DEFPOINTS
  6
CONTINUOUS
 62
    30
 10
141.0
 20
0.0
 30
0.0
  0
POINT
  8
DEFPOINTS
  6
CONTINUOUS
 62
    30
 10
20.0
 20
185.0
 30
0.0
  0
POINT
  8
DEFPOINTS
  6
CONTINUOUS
 62
    30
 10
323.09320200000002
 20
185.0
 30
0.0
  0
LINE
  8
SIZE
  6
CONTINUOUS
 62
    30
 10
161.0
 20
0.0
 30
0.0
 11
453.37143199999991
 21
0.0
 31
0.0
  0
LINE
  8
SIZE
  6
CONTINUOUS
 62
    30
 10
60.5
 20
193.0
 30
0.0
 11
453.37143199999991
 21
193.0
 31
0.0
  0
LINE
  8
SIZE
  6
CONTINUOUS
 62
    30
 10
433.37143199999991
 20
12.0
 30
0.0
 11
433.37143199999991
 21
181.0
 31
0.0
  0
CIRCLE
  8
SIZE
  6
CONTINUOUS
 62
    30
 10
433.37143199999991
 20
0.0
 30
0.0
 40
6.0
  0
LINE
  8
SIZE
  6
CONTINUOUS
 62
    30
 10
433.37143199999991
 20
0.0
 30
0.0
 11
433.37143199999991
 21
12.0
 31
0.0
  0
CIRCLE
  8
SIZE
  6
CONTINUOUS
 62
    30
 10
433.37143199999991
 20
193.0
 30
0.0
 40
6.0
  0
LINE
  8
SIZE
  6
CONTINUOUS
 62
    30
 10
433.37143199999991
 20
193.0
 30
0.0
 11
433.37143199999991
 21
181.0
 31
0.0
  0
TEXT
  8
SIZE
  6
CONTINUOUS
 62
    30
 10
408.37143199999991
 20
27.928571428571441
 30
0.0
 40
64.0
  1
193
 50
90.0
 41
0.9
 72
     1
 11
408.37143199999991
 21
96.5
 31
0.0
  0
POINT
  8
DEFPOINTS
  6
CONTINUOUS
 62
    30
 10
141.0
 20
0.0
 30
0.0
  0
POINT
  8
DEFPOINTS
  6
CONTINUOUS
 62
    30
 10
40.5
 20
193.0
 30
0.0
  0
POINT
  8
DEFPOINTS
  6
CONTINUOUS
 62
    30
 10
433.37143199999991
 20
193.0
 30
0.0
  0
LINE
  8
SIZE
  6
CONTINUOUS
 62
    30
 10
-161.0
 20
0.0
 30
0.0
 11
-440.29584299999999
 21
0.0
 31
0.0
  0
LINE
  8
SIZE
  6
CONTINUOUS
 62
    30
 10
-179.5
 20
46.0
 30
0.0
 11
-440.29584299999999
 21
46.0
 31
0.0
  0
LINE
  8
SIZE
  6
CONTINUOUS
 62
    30
 10
-420.29584299999999
 20
58.0
 30
0.0
 11
-420.29584299999999
 21
70.0
 31
0.0
  0
LINE
  8
SIZE
  6
CONTINUOUS
 62
    30
 10
-420.29584299999999
 20
-12.0
 30
0.0
 11
-420.29584299999999
 21
-164.514286
 31
0.0
  0
LINE
  8
SIZE
  6
CONTINUOUS
 62
    30
 10
-420.29584299999999
 20
46.0
 30
0.0
 11
-420.29584299999999
 21
0.0
 31
0.0
  0
CIRCLE
  8
SIZE
  6
CONTINUOUS
 62
    30
 10
-420.29584299999999
 20
46.0
 30
0.0
 40
6.0
  0
LINE
  8
SIZE
  6
CONTINUOUS
 62
    30
 10
-420.29584299999999
 20
46.0
 30
0.0
 11
-420.29584299999999
 21
58.0
 31
0.0
  0
CIRCLE
  8
SIZE
  6
CONTINUOUS
 62
    30
 10
-420.29584299999999
 20
0.0
 30
0.0
 40
6.0
  0
LINE
  8
SIZE
  6
CONTINUOUS
 62
    30
 10
-420.29584299999999
 20
0.0
 30
0.0
 11
-420.29584299999999
 21
-12.0
 31
0.0
  0
TEXT
  8
SIZE
  6
CONTINUOUS
 62
    30
 10
-445.29584299999999
 20
-139.51428585714291
 30
0.0
 40
64.0
  1
46
 50
90.0
 41
0.9
 72
     1
 11
-445.29584299999999
 21
-94.257143000000042
 31
0.0
  0
POINT
  8
DEFPOINTS
  6
CONTINUOUS
 62
    30
 10
-141.0
 20
0.0
 30
0.0
  0
POINT
  8
DEFPOINTS
  6
CONTINUOUS
 62
    30
 10
-159.5
 20
46.0
 30
0.0
  0
POINT
  8
DEFPOINTS
  6
CONTINUOUS
 62
    30
 10
-420.29584299999999
 20
46.0
 30
0.0
  0
LINE
  8
OUTLINE
  6
CONTINUOUS
 62
     3
 10
-97.5
 20
-0.0000000000000284
 30
0.0
 11
-97.5
 21
171.0
 31
0.0
  0
LINE
  8
OUTLINE
  6
CONTINUOUS
 62
     3
 10
-100.54520100000001
 20
171.0
 30
0.0
 11
-100.54520100000001
 21
-0.0000000000000284
 31
0.0
  0
LINE
  8
OUTLINE
  6
CONTINUOUS
 62
     3
 10
-104.04520100000001
 20
171.0
 30
0.0
 11
-104.04520100000001
 21
158.0
 31
0.0
  0
LINE
  8
OUTLINE
  6
CONTINUOUS
 62
     3
 10
-159.5
 20
158.0
 30
0.0
 11
-100.54520100000001
 21
158.0
 31
0.0
  0
LINE
  8
OUTLINE
  6
CONTINUOUS
 62
     3
 10
-159.5
 20
45.999999999999972
 30
0.0
 11
-100.54520100000001
 21
45.999999999999972
 31
0.0
  0
LINE
  8
OUTLINE
  6
CONTINUOUS
 62
     3
 10
-211.5
 20
52.999999999999972
 30
0.0
 11
-211.5
 21
151.0
 31
0.0
  0
LINE
  8
OUTLINE
  6
CONTINUOUS
 62
     3
 10
-184.5
 20
51.999999999999972
 30
0.0
 11
-184.5
 21
152.0
 31
0.0
  0
LINE
  8
OUTLINE
  6
CONTINUOUS
 62
     3
 10
-159.5
 20
45.999999999999972
 30
0.0
 11
-159.5
 21
158.0
 31
0.0
  0
LINE
  8
OUTLINE
  6
CONTINUOUS
 62
     3
 10
-184.5
 20
49.499999999999972
 30
0.0
 11
-159.5
 21
49.499999999999972
 31
0.0
  0
LINE
  8
OUTLINE
  6
CONTINUOUS
 62
     3
 10
-211.5
 20
52.999999999999972
 30
0.0
 11
-184.5
 21
52.999999999999972
 31
0.0
  0
LINE
  8
OUTLINE
  6
CONTINUOUS
 62
     3
 10
-184.5
 20
49.499999999999972
 30
0.0
 11
-184.5
 21
51.999999999999972
 31
0.0
  0
LINE
  8
OUTLINE
  6
CONTINUOUS
 62
     3
 10
-184.5
 20
154.5
 30
0.0
 11
-159.5
 21
154.5
 31
0.0
  0
LINE
  8
OUTLINE
  6
CONTINUOUS
 62
     3
 10
-184.5
 20
152.0
 30
0.0
 11
-184.5
 21
154.5
 31
0.0
  0
LINE
  8
OUTLINE
  6
CONTINUOUS
 62
     3
 10
-211.5
 20
151.0
 30
0.0
 11
-184.5
 21
151.0
 31
0.0
  0
LINE
  8
OUTLINE
  6
CONTINUOUS
 62
     3
 10
-104.04520100000001
 20
171.0
 30
0.0
 11
-97.5
 21
171.0
 31
0.0
  0
ENDSEC
  0
EOF
