  0
SECTION
  2
HEADER
  9
$ACADVER
  1
AC1009
  9
$DWGCODEPAGE
  3
dos932
  9
$INSBASE
 10
0.0
 20
0.0
 30
0.0
  9
$EXTMIN
 10
-464.96885532393389
 20
-443.48143360517128
 30
-0.0015258207003583
  9
$EXTMAX
 10
1053.20435730182
 20
837.93640967683859
 30
0.0000000349246037
  9
$LIMMIN
 10
-2970.0
 20
-2100.0
  9
$LIMMAX
 10
2970.0
 20
2100.0
  9
$ORTHOMODE
 70
     1
  9
$REGENMODE
 70
     1
  9
$FILLMODE
 70
     1
  9
$QTEXTMODE
 70
     0
  9
$MIRRTEXT
 70
     0
  9
$LTSCALE
 40
20.0
  9
$ATTMODE
 70
     1
  9
$TEXTSIZE
 40
64.0
  9
$TRACEWID
 40
0.05
  9
$TEXTSTYLE
  7
STANDARD
  9
$CLAYER
  8
SIZE
  9
$CELTYPE
  6
CONTINUOUS
  9
$CECOLOR
 62
     7
  9
$DIMSCALE
 40
1.0
  9
$DIMASZ
 40
12.0
  9
$DIMEXO
 40
20.0
  9
$DIMDLI
 40
200.0
  9
$DIMRND
 40
0.0
  9
$DIMDLE
 40
0.0
  9
$DIMEXE
 40
20.0
  9
$DIMTP
 40
0.0
  9
$DIMTM
 40
0.0
  9
$DIMTXT
 40
64.0
  9
$DIMCEN
 40
0.09
  9
$DIMTSZ
 40
0.0
  9
$DIMTOL
 70
     0
  9
$DIMLIM
 70
     0
  9
$DIMTIH
 70
     0
  9
$DIMTOH
 70
     0
  9
$DIMSE1
 70
     0
  9
$DIMSE2
 70
     0
  9
$DIMTAD
 70
     1
  9
$DIMZIN
 70
     8
  9
$DIMBLK
  1

  9
$DIMASO
 70
     1
  9
$DIMSHO
 70
     0
  9
$DIMPOST
  1

  9
$DIMAPOST
  1

  9
$DIMALT
 70
     0
  9
$DIMALTD
 70
     2
  9
$DIMALTF
 40
25.399999999999999
  9
$DIMLFAC
 40
1.0
  9
$DIMTOFL
 70
     1
  9
$DIMTVP
 40
0.0
  9
$DIMTIX
 70
     1
  9
$DIMSOXD
 70
     0
  9
$DIMSAH
 70
     0
  9
$DIMBLK1
  1

  9
$DIMBLK2
  1

  9
$DIMSTYLE
  2
STANDARD
  9
$DIMCLRD
 70
     7
  9
$DIMCLRE
 70
     7
  9
$DIMCLRT
 70
     7
  9
$DIMTFAC
 40
1.0
  9
$DIMGAP
 40
25.0
  9
$LUNITS
 70
     2
  9
$LUPREC
 70
     4
  9
$SKETCHINC
 40
0.1
  9
$FILLETRAD
 40
3.0
  9
$AUNITS
 70
     1
  9
$AUPREC
 70
     3
  9
$MENU
  1
ACAD
  9
$ELEVATION
 40
0.0
  9
$PELEVATION
 40
0.0
  9
$THICKNESS
 40
0.0
  9
$LIMCHECK
 70
     0
  9
$CHAMFERA
 40
0.0
  9
$CHAMFERB
 40
0.0
  9
$SKPOLY
 70
     0
  9
$TDCREATE
 40
2453019.62301037
  9
$TDUPDATE
 40
2459025.49882757
  9
$TDINDWG
 40
1.7130599653
  9
$TDUSRTIMER
 40
1.7130599653
  9
$USRTIMER
 70
     1
  9
$ANGBASE
 50
0.0
  9
$ANGDIR
 70
     0
  9
$PDMODE
 70
     3
  9
$PDSIZE
 40
-2.0
  9
$PLINEWID
 40
0.0
  9
$SPLFRAME
 70
     0
  9
$SPLINETYPE
 70
     6
  9
$SPLINESEGS
 70
     8
  9
$SURFTAB1
 70
     6
  9
$SURFTAB2
 70
     6
  9
$SURFTYPE
 70
     6
  9
$SURFU
 70
     6
  9
$SURFV
 70
     6
  9
$UCSNAME
  2

  9
$UCSORG
 10
0.0
 20
0.0
 30
0.0
  9
$UCSXDIR
 10
1.0
 20
0.0
 30
0.0
  9
$UCSYDIR
 10
0.0
 20
1.0
 30
0.0
  9
$PUCSNAME
  2

  9
$PUCSORG
 10
0.0
 20
0.0
 30
0.0
  9
$PUCSXDIR
 10
1.0
 20
0.0
 30
0.0
  9
$PUCSYDIR
 10
0.0
 20
1.0
 30
0.0
  9
$USERI1
 70
     0
  9
$USERI2
 70
     0
  9
$USERI3
 70
     0
  9
$USERI4
 70
     0
  9
$USERI5
 70
     0
  9
$USERR1
 40
20.0
  9
$USERR2
 40
0.0
  9
$USERR3
 40
0.0
  9
$USERR4
 40
0.0
  9
$USERR5
 40
0.0
  9
$WORLDVIEW
 70
     1
  9
$SHADEDGE
 70
     3
  9
$SHADEDIF
 70
    70
  9
$TILEMODE
 70
     1
  9
$MAXACTVP
 70
    48
  9
$PINSBASE
 10
0.0
 20
0.0
 30
0.0
  9
$PLIMCHECK
 70
     0
  9
$PEXTMIN
 10
-100000000000000000000.0
 20
-100000000000000000000.0
 30
-100000000000000000000.0
  9
$PEXTMAX
 10
100000000000000000000.0
 20
100000000000000000000.0
 30
100000000000000000000.0
  9
$PLIMMIN
 10
0.0
 20
0.0
  9
$PLIMMAX
 10
12.0
 20
9.0
  9
$UNITMODE
 70
     0
  9
$VISRETAIN
 70
     0
  9
$PLINEGEN
 70
     0
  9
$PSLTSCALE
 70
     0
  9
$TREEDEPTH
 70
  3020
  9
$ATTDIA
 70
     0
  9
$ATTREQ
 70
     1
  9
$BLIPMODE
 70
     1
  9
$COORDS
 70
     1
  9
$DRAGMODE
 70
     2
  9
$OSMODE
 70
     0
  9
$HANDLING
 70
     0
  9
$HANDSEED
  5
F076
  0
ENDSEC
  0
SECTION
  2
TABLES
  0
TABLE
  2
LTYPE
 70
     3
  0
LTYPE
  2
CONTINUOUS
 70
     0
  3
実線
 72
    65
 73
     0
 40
0.0
  0
LTYPE
  2
DASHDOT
 70
     0
  3
____ _ ____ _ ____ _ ____ _ ____ _ ____ _ ____
 72
    65
 73
     4
 40
5.5
 49
4.0
 49
-0.6
 49
0.3
 49
-0.6
  0
LTYPE
  2
CENTER
 70
     0
  3
Center ____ _ ____ _ ____ _ ____ _ ____ _ ____
 72
    65
 73
     4
 40
1.0
 49
0.5
 49
-0.25
 49
0.0
 49
-0.25
  0
ENDTAB
  0
TABLE
  2
LAYER
 70
    12
  0
LAYER
  2
0
 70
     0
 62
     7
  6
CONTINUOUS
  0
LAYER
  2
BASIS
 70
     0
 62
     6
  6
DASHDOT
  0
LAYER
  2
OUTLINE
 70
     0
 62
     3
  6
CONTINUOUS
  0
LAYER
  2
DETAIL
 70
     0
 62
     5
  6
CONTINUOUS
  0
LAYER
  2
SIZE
 70
     0
 62
    30
  6
CONTINUOUS
  0
LAYER
  2
ARRANGE
 70
     0
 62
     1
  6
CONTINUOUS
  0
LAYER
  2
DEFPOINTS
 70
     0
 62
     7
  6
CONTINUOUS
  0
LAYER
  2
ETC
 70
     0
 62
    61
  6
CONTINUOUS
  0
LAYER
  2
FIX
 70
     0
 62
    11
  6
CONTINUOUS
  0
LAYER
  2
NOTE
 70
     0
 62
     4
  6
CONTINUOUS
  0
LAYER
  2
SERVICESPACE
 70
    64
 62
     2
  6
DASHDOT
  0
LAYER
  2
SYMBOLLINE
 70
    64
 62
    15
  6
CONTINUOUS
  0
ENDTAB
  0
TABLE
  2
STYLE
 70
     1
  0
STYLE
  2
STANDARD
 70
     0
 40
64.0
 41
0.9
 50
0.0
 71
     0
 42
64.0
  3
SIMPLEX.shx
  4
BIGFONT.shx
  0
ENDTAB
  0
TABLE
  2
APPID
 70
    19
  0
APPID
  2
ACAD
 70
     0
  0
APPID
  2
AUTOCAD_POSTSCRIPT_FIGURE
 70
     0
  0
APPID
  2
ACAD_EXEMPT_FROM_CAD_STANDARDS
 70
     0
  0
APPID
  2
ACAD_PSEXT
 70
     0
  0
APPID
  2
ACAUTHENVIRON
 70
     0
  0
APPID
  2
GENIUS_GENOENT_13
 70
     0
  0
APPID
  2
GENIUS_GENCFG_13
 70
     0
  0
APPID
  2
GENIUS_GENCFG0_13
 70
     0
  0
APPID
  2
GENIUS_GENCFG1_13
 70
     0
  0
APPID
  2
GENIUS_GENCFG2_13
 70
     0
  0
APPID
  2
GENIUS_GENCFG3_13
 70
     0
  0
APPID
  2
GENIUS_GENCFG4_13
 70
     0
  0
APPID
  2
GENIUS_GEVCFG0_13
 70
     0
  0
APPID
  2
CONTENTBLOCKICON
 70
     0
  0
APPID
  2
CONTENTBLOCKDESCRIPTION
 70
     0
  0
APPID
  2
ACAD_NAV_VCDISPLAY
 70
     0
  0
APPID
  2
ACAD_MLEADERVER
 70
     0
  0
APPID
  2
ACDBDYNAMICBLOCKTRUENAME
 70
     0
  0
APPID
  2
ACDBDYNAMICBLOCKGUID
 70
     0
  0
ENDTAB
  0
TABLE
  2
DIMSTYLE
 70
     1
  0
DIMSTYLE
  2
STANDARD
 70
     0
  3

  4

  5
_ORIGIN
  6

  7

 40
1.0
 41
12.0
 42
20.0
 43
200.0
 44
20.0
 45
0.0
 46
0.0
 47
0.0
 48
0.0
140
64.0
141
0.09
142
0.0
143
25.399999999999999
144
1.0
145
0.0
146
1.0
147
25.0
 71
     0
 72
     0
 73
     0
 74
     0
 75
     0
 76
     0
 77
     1
 78
     8
170
     0
171
     2
172
     1
173
     0
174
     1
175
     0
176
     7
177
     7
178
     7
  0
ENDTAB
  0
TABLE
  2
VIEW
 70
     1
  0
VIEW
  2
ALL
 70
     0
 40
4282.6198079999986
 10
0.0
 20
41.309904000000003
 41
5940.0
 11
0.0
 21
0.0
 31
1.0
 12
0.0
 22
0.0
 32
0.0
 42
50.0
 43
0.0
 44
0.0
 50
0.0
 71
     0
  0
ENDTAB
  0
TABLE
  2
UCS
 70
     0
  0
ENDTAB
  0
TABLE
  2
VPORT
 70
     1
  0
VPORT
  2
*ACTIVE
 70
     0
 10
0.0
 20
0.0
 11
1.0
 21
1.0
 12
294.11775098894287
 22
197.2274880358336
 13
0.0
 23
0.0
 14
1.0
 24
1.0
 15
0.0
 25
0.0
 16
0.0
 26
0.0
 36
1.0
 17
0.0
 27
0.0
 37
0.0
 40
1289.9134311932719
 41
1.747787610619469
 42
50.0
 43
0.0
 44
0.0
 50
0.0
 51
0.0
 71
     0
 72
  1000
 73
     1
 74
     3
 75
     0
 76
     0
 77
     0
 78
     0
  0
ENDTAB
  0
ENDSEC
  0
SECTION
  2
BLOCKS
  0
BLOCK
  8
0
  2
_ORIGIN
 70
     0
 10
0.0
 20
0.0
 30
0.0
  3
_ORIGIN
  1
_ORIGIN
  0
CIRCLE
  8
0
  6
CONTINUOUS
 62
     7
 10
0.0
 20
0.0
 30
0.0
 40
0.5
  0
LINE
  8
0
  6
CONTINUOUS
 62
     7
 10
0.0
 20
0.0
 30
0.0
 11
-1.0
 21
0.0
 31
0.0
  0
ENDBLK
  8
0
  0
ENDSEC
  0
SECTION
  2
ENTITIES
  0
CIRCLE
  8
ARRANGE
  6
CONTINUOUS
 62
     1
 10
0.0
 20
0.0
 30
0.0
 40
40.0
  0
POINT
  8
ARRANGE
  6
CONTINUOUS
 62
     1
 10
0.0
 20
0.0
 30
0.0
 50
90.0
  0
LINE
  8
SIZE
  6
CONTINUOUS
 62
    30
 10
-164.97242476737739
 20
-20.52616797812146
 30
0.0
 11
-164.97242476737739
 21
-443.27586753655851
 31
0.0
  0
LINE
  8
SIZE
  6
CONTINUOUS
 62
    30
 10
164.9724249999999
 20
-20.526167999999981
 30
0.0
 11
164.9724249999999
 21
-443.27586753655851
 31
0.0
  0
LINE
  8
SIZE
  6
CONTINUOUS
 62
    30
 10
-152.97242476737739
 20
-423.27586753655851
 30
0.0
 11
152.9724249999999
 21
-423.27586753655851
 31
0.0
  0
CIRCLE
  8
SIZE
  6
CONTINUOUS
 62
    30
 10
-164.97242476737739
 20
-423.27586753655851
 30
0.0
 40
6.0
  0
LINE
  8
SIZE
  6
CONTINUOUS
 62
    30
 10
-164.97242476737739
 20
-423.27586753655851
 30
0.0
 11
-152.97242476737739
 21
-423.27586753655851
 31
0.0
  0
CIRCLE
  8
SIZE
  6
CONTINUOUS
 62
    30
 10
164.9724249999999
 20
-423.27586753655851
 30
0.0
 40
6.0
  0
LINE
  8
SIZE
  6
CONTINUOUS
 62
    30
 10
164.9724249999999
 20
-423.27586753655851
 30
0.0
 11
152.9724249999999
 21
-423.27586753655851
 31
0.0
  0
TEXT
  8
SIZE
  6
CONTINUOUS
 62
    30
 10
-110.5371427408317
 20
-398.27586753655851
 30
0.0
 40
64.0
  1
□330
 41
0.9
 72
     1
 11
0.0000001163111847
 21
-398.27586753655851
 31
0.0
  0
POINT
  8
DEFPOINTS
  6
CONTINUOUS
 62
    30
 10
-164.97242476737739
 20
-0.5261679781214639
 30
0.0
  0
POINT
  8
DEFPOINTS
  6
CONTINUOUS
 62
    30
 10
164.9724249999999
 20
-0.5261679999999842
 30
0.0
  0
POINT
  8
DEFPOINTS
  6
CONTINUOUS
 62
    30
 10
164.9724249999999
 20
-423.27586753655851
 30
0.0
  0
LINE
  8
SIZE
  6
CONTINUOUS
 62
    30
 10
-141.50000000000011
 20
-25.781755999999969
 30
0.0
 11
-141.50000000000011
 21
-305.38466796156717
 31
0.0
  0
LINE
  8
SIZE
  6
CONTINUOUS
 62
    30
 10
141.5
 20
-25.781755999999969
 30
0.0
 11
141.5
 21
-305.38466796156717
 31
0.0
  0
LINE
  8
SIZE
  6
CONTINUOUS
 62
    30
 10
-129.50000000000011
 20
-285.38466796156717
 30
0.0
 11
129.5
 21
-285.38466796156717
 31
0.0
  0
CIRCLE
  8
SIZE
  6
CONTINUOUS
 62
    30
 10
-141.50000000000011
 20
-285.38466796156717
 30
0.0
 40
6.0
  0
LINE
  8
SIZE
  6
CONTINUOUS
 62
    30
 10
-141.50000000000011
 20
-285.38466796156717
 30
0.0
 11
-129.50000000000011
 21
-285.38466796156717
 31
0.0
  0
CIRCLE
  8
SIZE
  6
CONTINUOUS
 62
    30
 10
141.5
 20
-285.38466796156717
 30
0.0
 40
6.0
  0
LINE
  8
SIZE
  6
CONTINUOUS
 62
    30
 10
141.5
 20
-285.38466796156717
 30
0.0
 11
129.5
 21
-285.38466796156717
 31
0.0
  0
TEXT
  8
SIZE
  6
CONTINUOUS
 62
    30
 10
-74.057142857142949
 20
-260.38466796156717
 30
0.0
 40
64.0
  1
283
 41
0.9
 72
     1
 11
-0.0000000000001137
 21
-260.38466796156717
 31
0.0
  0
POINT
  8
DEFPOINTS
  6
CONTINUOUS
 62
    30
 10
-141.50000000000011
 20
-5.781755999999973
 30
0.0
  0
POINT
  8
DEFPOINTS
  6
CONTINUOUS
 62
    30
 10
141.5
 20
-5.781755999999973
 30
0.0
  0
POINT
  8
DEFPOINTS
  6
CONTINUOUS
 62
    30
 10
141.5
 20
-285.38466796156717
 30
0.0
  0
LINE
  8
SIZE
  6
CONTINUOUS
 62
    30
 10
-125.5
 20
177.0500000000001
 30
0.0
 11
-125.4999999999999
 21
413.94183408241412
 31
0.0
  0
LINE
  8
SIZE
  6
CONTINUOUS
 62
    30
 10
125.5
 20
177.0500000000001
 30
0.0
 11
125.5
 21
413.94183408241412
 31
0.0
  0
LINE
  8
SIZE
  6
CONTINUOUS
 62
    30
 10
-113.4999999999999
 20
393.94183408241412
 30
0.0
 11
113.5
 21
393.94183408241412
 31
0.0
  0
CIRCLE
  8
SIZE
  6
CONTINUOUS
 62
    30
 10
-125.4999999999999
 20
393.94183408241412
 30
0.0
 40
6.0
  0
LINE
  8
SIZE
  6
CONTINUOUS
 62
    30
 10
-125.4999999999999
 20
393.94183408241412
 30
0.0
 11
-113.4999999999999
 21
393.94183408241412
 31
0.0
  0
CIRCLE
  8
SIZE
  6
CONTINUOUS
 62
    30
 10
125.5
 20
393.94183408241412
 30
0.0
 40
6.0
  0
LINE
  8
SIZE
  6
CONTINUOUS
 62
    30
 10
125.5
 20
393.94183408241412
 30
0.0
 11
113.5
 21
393.94183408241412
 31
0.0
  0
TEXT
  8
SIZE
  6
CONTINUOUS
 62
    30
 10
-98.194285714285726
 20
418.94183408241412
 30
0.0
 40
64.0
  1
□251
 41
0.9
 72
     1
 11
0.0
 21
418.94183408241412
 31
0.0
  0
POINT
  8
DEFPOINTS
  6
CONTINUOUS
 62
    30
 10
-125.5
 20
157.0500000000001
 30
0.0
  0
POINT
  8
DEFPOINTS
  6
CONTINUOUS
 62
    30
 10
125.5
 20
157.0500000000001
 30
0.0
  0
POINT
  8
DEFPOINTS
  6
CONTINUOUS
 62
    30
 10
125.5
 20
393.94183408241412
 30
0.0
  0
LINE
  8
SIZE
  6
CONTINUOUS
 62
    30
 10
-85.000000000000114
 20
-26.983881999999991
 30
0.0
 11
-85.000000000000114
 21
-187.79921585515331
 31
0.0
  0
LINE
  8
SIZE
  6
CONTINUOUS
 62
    30
 10
85.0
 20
-26.983881999999991
 30
0.0
 11
85.0
 21
-187.79921585515331
 31
0.0
  0
LINE
  8
SIZE
  6
CONTINUOUS
 62
    30
 10
-97.000000000000114
 20
-167.79921585515331
 30
0.0
 11
-109.0000000000001
 21
-167.79921585515331
 31
0.0
  0
LINE
  8
SIZE
  6
CONTINUOUS
 62
    30
 10
97.0
 20
-167.79921585515331
 30
0.0
 11
109.0
 21
-167.79921585515331
 31
0.0
  0
LINE
  8
SIZE
  6
CONTINUOUS
 62
    30
 10
-85.000000000000114
 20
-167.79921585515331
 30
0.0
 11
85.0
 21
-167.79921585515331
 31
0.0
  0
CIRCLE
  8
SIZE
  6
CONTINUOUS
 62
    30
 10
-85.000000000000114
 20
-167.79921585515331
 30
0.0
 40
6.0
  0
LINE
  8
SIZE
  6
CONTINUOUS
 62
    30
 10
-85.000000000000114
 20
-167.79921585515331
 30
0.0
 11
-97.000000000000114
 21
-167.79921585515331
 31
0.0
  0
CIRCLE
  8
SIZE
  6
CONTINUOUS
 62
    30
 10
85.0
 20
-167.79921585515331
 30
0.0
 40
6.0
  0
LINE
  8
SIZE
  6
CONTINUOUS
 62
    30
 10
85.0
 20
-167.79921585515331
 30
0.0
 11
97.0
 21
-167.79921585515331
 31
0.0
  0
TEXT
  8
SIZE
  6
CONTINUOUS
 62
    30
 10
-68.571428571428569
 20
-142.79921585515331
 30
0.0
 40
64.0
  1
170
 41
0.9
 72
     1
 11
0.0
 21
-142.79921585515331
 31
0.0
  0
POINT
  8
DEFPOINTS
  6
CONTINUOUS
 62
    30
 10
-85.000000000000114
 20
-6.9838819999999942
 30
0.0
  0
POINT
  8
DEFPOINTS
  6
CONTINUOUS
 62
    30
 10
85.0
 20
-6.9838819999999942
 30
0.0
  0
POINT
  8
DEFPOINTS
  6
CONTINUOUS
 62
    30
 10
85.0
 20
-167.79921585515331
 30
0.0
  0
LINE
  8
NOTE
  6
CENTER
 62
     4
 10
-141.50000000000011
 20
-5.781755999999973
 30
0.0
 11
-141.50000000000011
 21
7.5418020000000183
 31
0.0
  0
LINE
  8
NOTE
  6
CENTER
 62
     4
 10
-85.000000000000114
 20
-6.9838819999999942
 30
0.0
 11
-85.000000000000114
 21
6.5400300000000016
 31
0.0
  0
LINE
  8
NOTE
  6
CENTER
 62
     4
 10
85.0
 20
-6.9838819999999942
 30
0.0
 11
85.0
 21
6.5400300000000016
 31
0.0
  0
LINE
  8
NOTE
  6
CENTER
 62
     4
 10
141.5
 20
-5.781755999999973
 30
0.0
 11
141.5
 21
7.5418020000000183
 31
0.0
  0
LINE
  8
BASIS
  6
DASHDOT
 62
     6
 10
0.0
 20
-25.688299000000029
 30
0.0
 11
0.0
 21
214.962987
 31
0.0
  0
LINE
  8
SIZE
  6
CONTINUOUS
 62
    30
 10
-31.500076000000149
 20
203.80009200000009
 30
0.0
 11
-239.48843297554041
 21
203.80009200000009
 31
0.0
  0
LINE
  8
SIZE
  6
CONTINUOUS
 62
    30
 10
-184.47310999999999
 20
-0.0004000000000133
 30
0.0
 11
-239.48843297554049
 21
-0.0003999999999564
 31
0.0
  0
LINE
  8
SIZE
  6
CONTINUOUS
 62
    30
 10
-219.48843297554049
 20
191.80009200000009
 30
0.0
 11
-219.48843297554049
 21
11.99960000000004
 31
0.0
  0
CIRCLE
  8
SIZE
  6
CONTINUOUS
 62
    30
 10
-219.48843297554041
 20
203.80009200000009
 30
0.0
 40
6.0
  0
LINE
  8
SIZE
  6
CONTINUOUS
 62
    30
 10
-219.48843297554041
 20
203.80009200000009
 30
0.0
 11
-219.48843297554041
 21
191.80009200000009
 31
0.0
  0
CIRCLE
  8
SIZE
  6
CONTINUOUS
 62
    30
 10
-219.48843297554049
 20
-0.0003999999999564
 30
0.0
 40
6.0
  0
LINE
  8
SIZE
  6
CONTINUOUS
 62
    30
 10
-219.48843297554049
 20
-0.0003999999999564
 30
0.0
 11
-219.48843297554049
 21
11.99960000000004
 31
0.0
  0
TEXT
  8
SIZE
  6
CONTINUOUS
 62
    30
 10
-244.48843297554049
 20
26.471274571428609
 30
0.0
 40
64.0
  1
204
 50
90.0
 41
0.9
 72
     1
 11
-244.48843297554049
 21
101.899846
 31
0.0
  0
POINT
  8
DEFPOINTS
  6
CONTINUOUS
 62
    30
 10
-11.500076000000149
 20
203.80009200000009
 30
0.0
  0
POINT
  8
DEFPOINTS
  6
CONTINUOUS
 62
    30
 10
-164.47310999999999
 20
-0.0004000000000133
 30
0.0
  0
POINT
  8
DEFPOINTS
  6
CONTINUOUS
 62
    30
 10
-219.48843297554049
 20
-0.0003999999999564
 30
0.0
  0
LINE
  8
SIZE
  6
CONTINUOUS
 62
    30
 10
-177.6494670000001
 20
-18.00040000000001
 30
0.0
 11
-239.48843297554049
 21
-18.00040000000001
 31
0.0
  0
LINE
  8
SIZE
  6
CONTINUOUS
 62
    30
 10
-184.47310999999999
 20
-0.0004000000000133
 30
0.0
 11
-239.48843297554049
 21
-0.0004000000000133
 31
0.0
  0
LINE
  8
SIZE
  6
CONTINUOUS
 62
    30
 10
-219.48843297554049
 20
11.99959999999999
 30
0.0
 11
-219.48843297554049
 21
23.99959999999999
 31
0.0
  0
LINE
  8
SIZE
  6
CONTINUOUS
 62
    30
 10
-219.48843297554049
 20
-30.00040000000001
 30
0.0
 11
-219.48843297554049
 21
-184.99520418556699
 31
0.0
  0
LINE
  8
SIZE
  6
CONTINUOUS
 62
    30
 10
-219.48843297554049
 20
-0.0004000000000133
 30
0.0
 11
-219.48843297554049
 21
-18.00040000000001
 31
0.0
  0
CIRCLE
  8
SIZE
  6
CONTINUOUS
 62
    30
 10
-219.48843297554049
 20
-0.0004000000000133
 30
0.0
 40
6.0
  0
LINE
  8
SIZE
  6
CONTINUOUS
 62
    30
 10
-219.48843297554049
 20
-0.0004000000000133
 30
0.0
 11
-219.48843297554049
 21
11.99959999999999
 31
0.0
  0
CIRCLE
  8
SIZE
  6
CONTINUOUS
 62
    30
 10
-219.48843297554049
 20
-18.00040000000001
 30
0.0
 40
6.0
  0
LINE
  8
SIZE
  6
CONTINUOUS
 62
    30
 10
-219.48843297554049
 20
-18.00040000000001
 30
0.0
 11
-219.48843297554049
 21
-30.00040000000001
 31
0.0
  0
TEXT
  8
SIZE
  6
CONTINUOUS
 62
    30
 10
-244.48843297554049
 20
-159.99520418556699
 30
0.0
 40
64.0
  1
18
 50
90.0
 41
0.9
 72
     1
 11
-244.48843297554049
 21
-118.85234704270989
 31
0.0
  0
POINT
  8
DEFPOINTS
  6
CONTINUOUS
 62
    30
 10
-157.6494670000001
 20
-18.00040000000001
 30
0.0
  0
POINT
  8
DEFPOINTS
  6
CONTINUOUS
 62
    30
 10
-164.47310999999999
 20
-0.0004000000000133
 30
0.0
  0
POINT
  8
DEFPOINTS
  6
CONTINUOUS
 62
    30
 10
-219.48843297554049
 20
-0.0004000000000133
 30
0.0
  0
LINE
  8
SIZE
  6
CONTINUOUS
 62
    30
 10
184.47310899999991
 20
-0.0004000000000133
 30
0.0
 11
307.95982790020912
 21
-0.0004000000000701
 31
0.0
  0
LINE
  8
SIZE
  6
CONTINUOUS
 62
    30
 10
67.5
 20
55.399902999999988
 30
0.0
 11
307.95982790020912
 21
55.399902999999938
 31
0.0
  0
LINE
  8
SIZE
  6
CONTINUOUS
 62
    30
 10
287.95982790020912
 20
67.399902999999938
 30
0.0
 11
287.95982790020912
 21
79.399902999999995
 31
0.0
  0
LINE
  8
SIZE
  6
CONTINUOUS
 62
    30
 10
287.95982790020912
 20
-12.00040000000007
 30
0.0
 11
287.95982790020912
 21
-202.18154596639039
 31
0.0
  0
LINE
  8
SIZE
  6
CONTINUOUS
 62
    30
 10
287.95982790020912
 20
55.399902999999938
 30
0.0
 11
287.95982790020912
 21
-0.0004000000000701
 31
0.0
  0
CIRCLE
  8
SIZE
  6
CONTINUOUS
 62
    30
 10
287.95982790020912
 20
55.399902999999938
 30
0.0
 40
6.0
  0
LINE
  8
SIZE
  6
CONTINUOUS
 62
    30
 10
287.95982790020912
 20
55.399902999999938
 30
0.0
 11
287.95982790020912
 21
67.399902999999881
 31
0.0
  0
CIRCLE
  8
SIZE
  6
CONTINUOUS
 62
    30
 10
287.95982790020912
 20
-0.0004000000000701
 30
0.0
 40
6.0
  0
LINE
  8
SIZE
  6
CONTINUOUS
 62
    30
 10
287.95982790020912
 20
-0.0004000000000701
 30
0.0
 11
287.95982790020912
 21
-12.00040000000007
 31
0.0
  0
TEXT
  8
SIZE
  6
CONTINUOUS
 62
    30
 10
262.95982790020929
 20
-177.1815459663903
 30
0.0
 40
64.0
  1
55
 50
90.0
 41
0.9
 72
     1
 11
262.95982790020929
 21
-130.5529745378189
 31
0.0
  0
POINT
  8
DEFPOINTS
  6
CONTINUOUS
 62
    30
 10
164.47310899999991
 20
-0.0004000000000133
 30
0.0
  0
POINT
  8
DEFPOINTS
  6
CONTINUOUS
 62
    30
 10
47.5
 20
55.399902999999988
 30
0.0
  0
POINT
  8
DEFPOINTS
  6
CONTINUOUS
 62
    30
 10
287.95982790020912
 20
55.399902999999938
 30
0.0
  0
LINE
  8
SIZE
  6
CONTINUOUS
 62
    30
 10
88.790848039987395
 20
111.0
 30
0.0
 11
442.49373531148291
 21
110.9999999999999
 31
0.0
  0
LINE
  8
SIZE
  6
CONTINUOUS
 62
    30
 10
184.47310899999991
 20
-0.0004000000000133
 30
0.0
 11
442.49373531148291
 21
-0.0004000000000701
 31
0.0
  0
LINE
  8
SIZE
  6
CONTINUOUS
 62
    30
 10
422.49373531148291
 20
98.999999999999886
 30
0.0
 11
422.49373531148291
 21
11.99959999999993
 31
0.0
  0
LINE
  8
SIZE
  6
CONTINUOUS
 62
    30
 10
422.49373531148291
 20
-0.0004000000000701
 30
0.0
 11
422.49373531148291
 21
-179.94325714285719
 31
0.0
  0
CIRCLE
  8
SIZE
  6
CONTINUOUS
 62
    30
 10
422.49373531148291
 20
110.9999999999999
 30
0.0
 40
6.0
  0
LINE
  8
SIZE
  6
CONTINUOUS
 62
    30
 10
422.49373531148291
 20
110.9999999999999
 30
0.0
 11
422.49373531148291
 21
98.999999999999886
 31
0.0
  0
CIRCLE
  8
SIZE
  6
CONTINUOUS
 62
    30
 10
422.49373531148291
 20
-0.0004000000000701
 30
0.0
 40
6.0
  0
LINE
  8
SIZE
  6
CONTINUOUS
 62
    30
 10
422.49373531148291
 20
-0.0004000000000701
 30
0.0
 11
422.49373531148291
 21
11.99959999999993
 31
0.0
  0
TEXT
  8
SIZE
  6
CONTINUOUS
 62
    30
 10
397.49373531148291
 20
-154.94325714285711
 30
0.0
 40
64.0
  1
111
 50
90.0
 41
0.9
 72
     1
 11
397.49373531148291
 21
-104.2004
 31
0.0
  0
POINT
  8
DEFPOINTS
  6
CONTINUOUS
 62
    30
 10
68.790848039987395
 20
111.0
 30
0.0
  0
POINT
  8
DEFPOINTS
  6
CONTINUOUS
 62
    30
 10
164.47310899999991
 20
-0.0004000000000133
 30
0.0
  0
POINT
  8
DEFPOINTS
  6
CONTINUOUS
 62
    30
 10
422.49373531148291
 20
-0.0004000000000701
 30
0.0
  0
LINE
  8
DETAIL
  6
CONTINUOUS
 62
     5
 10
0.0
 20
154.39990299999999
 30
0.0
 11
-0.0525590000002012
 21
154.3088680000001
 31
0.0
  0
LINE
  8
DETAIL
  6
CONTINUOUS
 62
     5
 10
-44.908052000000232
 20
43.399902999999988
 30
0.0
 11
0.0
 21
43.399902999999988
 31
0.0
  0
LINE
  8
DETAIL
  6
CONTINUOUS
 62
     5
 10
-44.908052000000232
 20
177.39990299999999
 30
0.0
 11
0.0
 21
177.39990299999999
 31
0.0
  0
LINE
  8
DETAIL
  6
CONTINUOUS
 62
     5
 10
-91.500015000000076
 20
179.59989999999991
 30
0.0
 11
0.0
 21
179.59989999999991
 31
0.0
  0
LINE
  8
DETAIL
  6
CONTINUOUS
 62
     5
 10
-75.0
 20
147.30795400000011
 30
0.0
 11
-75.0
 21
73.491850999999997
 31
0.0
  0
ARC
  8
DETAIL
  6
CONTINUOUS
 62
     5
 10
-30.0
 20
132.39990299999999
 30
0.0
 40
48.5
 50
116.42439200000361
 51
153.57560800000229
  0
ARC
  8
DETAIL
  6
CONTINUOUS
 62
     5
 10
-44.908052000000232
 20
162.39990299999999
 30
0.0
 40
15.0
 50
90.0
 51
116.42439200000361
  0
ARC
  8
DETAIL
  6
CONTINUOUS
 62
     5
 10
-60.0
 20
147.30795400000011
 30
0.0
 40
15.0
 50
153.57560800000229
 51
180.0
  0
ARC
  8
DETAIL
  6
CONTINUOUS
 62
     5
 10
-30.0
 20
88.399902999999995
 30
0.0
 40
48.5
 50
206.42439199999771
 51
243.57560799999351
  0
ARC
  8
DETAIL
  6
CONTINUOUS
 62
     5
 10
-60.0
 20
73.491850999999997
 30
0.0
 40
15.0
 50
180.0
 51
206.42439199999771
  0
ARC
  8
DETAIL
  6
CONTINUOUS
 62
     5
 10
-44.908052000000232
 20
58.399902999999988
 30
0.0
 40
15.0
 50
243.57560799999351
 51
270.0
  0
LINE
  8
DETAIL
  6
CONTINUOUS
 62
     5
 10
-63.0
 20
70.899902999999995
 30
0.0
 11
-63.0
 21
149.89990299999999
 31
0.0
  0
ARC
  8
DETAIL
  6
CONTINUOUS
 62
     5
 10
-47.5
 20
70.899902999999995
 30
0.0
 40
15.5
 50
180.0
 51
270.0
  0
ARC
  8
DETAIL
  6
CONTINUOUS
 62
     5
 10
-47.5
 20
149.89990299999999
 30
0.0
 40
15.5
 50
90.0
 51
180.0
  0
LINE
  8
DETAIL
  6
CONTINUOUS
 62
     5
 10
-88.000015000000076
 20
179.59989999999991
 30
0.0
 11
-88.000015000000076
 21
-0.00009399999999
 31
0.0
  0
LINE
  8
DETAIL
  6
CONTINUOUS
 62
     5
 10
-91.500015000000076
 20
179.59989999999991
 30
0.0
 11
-91.500015000000076
 21
-0.00009399999999
 31
0.0
  0
LINE
  8
DETAIL
  6
CONTINUOUS
 62
     5
 10
-47.5
 20
165.39990299999999
 30
0.0
 11
0.0
 21
165.39990299999999
 31
0.0
  0
LINE
  8
DETAIL
  6
CONTINUOUS
 62
     5
 10
-47.5
 20
55.399902999999988
 30
0.0
 11
0.0
 21
55.399902999999988
 31
0.0
  0
LINE
  8
DETAIL
  6
CONTINUOUS
 62
     5
 10
59.499923999999851
 20
203.80009200000009
 30
0.0
 11
-11.500076000000149
 21
203.80009200000009
 31
0.0
  0
ARC
  8
DETAIL
  6
CONTINUOUS
 62
     5
 10
59.499923999999851
 20
198.30009200000009
 30
0.0
 40
5.5
 50
0.0
 51
90.0
  0
LINE
  8
DETAIL
  6
CONTINUOUS
 62
     5
 10
-17.000076000000149
 20
198.30009200000009
 30
0.0
 11
-17.000076000000149
 21
179.59989999999991
 31
0.0
  0
ARC
  8
DETAIL
  6
CONTINUOUS
 62
     5
 10
-11.500076000000149
 20
198.30009200000009
 30
0.0
 40
5.5
 50
90.0
 51
180.0
  0
LINE
  8
DETAIL
  6
CONTINUOUS
 62
     5
 10
-164.28600800000001
 20
-12.0
 30
0.0
 11
0.0
 21
-12.0
 31
0.0
  0
LINE
  8
DETAIL
  6
CONTINUOUS
 62
     5
 10
0.0
 20
0.0
 30
0.0
 11
-164.4731100000001
 21
0.0
 31
0.0
  0
ARC
  8
DETAIL
  6
CONTINUOUS
 62
     5
 10
-157.64946700000019
 20
-17.0
 30
0.0
 40
1.0
 50
226.50000000000489
 51
270.0
  0
LINE
  8
DETAIL
  6
CONTINUOUS
 62
     5
 10
-164.08171200000021
 20
-12.274625000000009
 30
0.0
 11
-158.3378210000001
 21
-17.725373999999992
 31
0.0
  0
LINE
  8
DETAIL
  6
CONTINUOUS
 62
     5
 10
-164.9724249999999
 20
-0.5261679999999842
 30
0.0
 11
-164.3919870000002
 21
-11.60158699999999
 31
0.0
  0
ARC
  8
DETAIL
  6
CONTINUOUS
 62
     5
 10
-163.3933569999999
 20
-11.549250999999909
 30
0.0
 40
1.0
 50
182.99999999999901
 51
226.50000000000489
  0
ARC
  8
DETAIL
  6
CONTINUOUS
 62
     5
 10
-164.4731100000001
 20
-0.5
 30
0.0
 40
0.5
 50
90.0
 51
182.99999999999901
  0
LINE
  8
DETAIL
  6
CONTINUOUS
 62
     5
 10
-91.499937000000045
 20
157.5
 30
0.0
 11
-125.05
 21
157.5
 31
0.0
  0
ARC
  8
DETAIL
  6
CONTINUOUS
 62
     5
 10
-125.05
 20
157.0500000000001
 30
0.0
 40
0.45
 50
90.0
 51
180.0
  0
ARC
  8
DETAIL
  6
CONTINUOUS
 62
     5
 10
-126.5
 20
1.0
 30
0.0
 40
1.0
 50
270.0
 51
0.0
  0
LINE
  8
DETAIL
  6
CONTINUOUS
 62
     5
 10
-125.5
 20
1.0
 30
0.0
 11
-125.5
 21
157.0500000000001
 31
0.0
  0
ARC
  8
DETAIL
  6
CONTINUOUS
 62
     5
 10
-123.949924
 20
158.75009800000001
 30
0.0
 40
1.25
 50
180.0
 51
270.0
  0
ARC
  8
DETAIL
  6
CONTINUOUS
 62
     5
 10
-123.949924
 20
164.200098
 30
0.0
 40
1.25
 50
90.0
 51
180.0
  0
LINE
  8
DETAIL
  6
CONTINUOUS
 62
     5
 10
-125.199924
 20
158.75009800000001
 30
0.0
 11
-125.199924
 21
164.200098
 31
0.0
  0
LINE
  8
DETAIL
  6
CONTINUOUS
 62
     5
 10
-123.949924
 20
165.450098
 30
0.0
 11
-91.499937000000045
 21
165.450098
 31
0.0
  0
LINE
  8
DETAIL
  6
CONTINUOUS
 62
     5
 10
0.0
 20
-18.0
 30
0.0
 11
-157.64946700000019
 21
-18.0
 31
0.0
  0
LINE
  8
DETAIL
  6
CONTINUOUS
 62
     5
 10
44.908051
 20
43.399902999999988
 30
0.0
 11
0.0
 21
43.399902999999988
 31
0.0
  0
LINE
  8
DETAIL
  6
CONTINUOUS
 62
     5
 10
44.908051
 20
177.39990299999999
 30
0.0
 11
0.0
 21
177.39990299999999
 31
0.0
  0
LINE
  8
DETAIL
  6
CONTINUOUS
 62
     5
 10
77.5
 20
179.59989999999991
 30
0.0
 11
0.0
 21
179.59989999999991
 31
0.0
  0
LINE
  8
DETAIL
  6
CONTINUOUS
 62
     5
 10
75.0
 20
147.30795400000011
 30
0.0
 11
75.0
 21
73.491850999999997
 31
0.0
  0
ARC
  8
DETAIL
  6
CONTINUOUS
 62
     5
 10
30.0
 20
132.39990299999999
 30
0.0
 40
48.5
 50
26.424391999997759
 51
63.575607999993522
  0
ARC
  8
DETAIL
  6
CONTINUOUS
 62
     5
 10
44.908051
 20
162.39990299999999
 30
0.0
 40
15.0
 50
63.575607999993522
 51
90.0
  0
ARC
  8
DETAIL
  6
CONTINUOUS
 62
     5
 10
60.0
 20
147.30795400000011
 30
0.0
 40
15.0
 50
0.0
 51
26.424391999997759
  0
ARC
  8
DETAIL
  6
CONTINUOUS
 62
     5
 10
30.0
 20
88.399902999999995
 30
0.0
 40
48.5
 50
296.42439200000348
 51
333.57560800000232
  0
ARC
  8
DETAIL
  6
CONTINUOUS
 62
     5
 10
60.0
 20
73.491850999999997
 30
0.0
 40
15.0
 50
333.57560800000232
 51
0.0
  0
ARC
  8
DETAIL
  6
CONTINUOUS
 62
     5
 10
44.908051
 20
58.399902999999988
 30
0.0
 40
15.0
 50
270.0
 51
296.42439200000348
  0
LINE
  8
DETAIL
  6
CONTINUOUS
 62
     5
 10
63.0
 20
70.899902999999995
 30
0.0
 11
63.0
 21
149.89990299999999
 31
0.0
  0
ARC
  8
DETAIL
  6
CONTINUOUS
 62
     5
 10
47.5
 20
70.899902999999995
 30
0.0
 40
15.5
 50
270.0
 51
0.0
  0
ARC
  8
DETAIL
  6
CONTINUOUS
 62
     5
 10
47.5
 20
149.89990299999999
 30
0.0
 40
15.5
 50
0.0
 51
90.0
  0
LINE
  8
DETAIL
  6
CONTINUOUS
 62
     5
 10
47.5
 20
165.39990299999999
 30
0.0
 11
0.0
 21
165.39990299999999
 31
0.0
  0
LINE
  8
DETAIL
  6
CONTINUOUS
 62
     5
 10
47.5
 20
55.399902999999988
 30
0.0
 11
0.0
 21
55.399902999999988
 31
0.0
  0
LINE
  8
DETAIL
  6
CONTINUOUS
 62
     5
 10
164.2860079999999
 20
-12.0
 30
0.0
 11
0.0
 21
-12.0
 31
0.0
  0
LINE
  8
DETAIL
  6
CONTINUOUS
 62
     5
 10
0.0
 20
0.0
 30
0.0
 11
164.47310999999991
 21
0.0
 31
0.0
  0
ARC
  8
DETAIL
  6
CONTINUOUS
 62
     5
 10
157.64946599999979
 20
-17.0
 30
0.0
 40
1.0
 50
270.0
 51
313.49999999999483
  0
LINE
  8
DETAIL
  6
CONTINUOUS
 62
     5
 10
164.0817109999999
 20
-12.274625000000009
 30
0.0
 11
158.33782099999979
 21
-17.725373999999992
 31
0.0
  0
LINE
  8
DETAIL
  6
CONTINUOUS
 62
     5
 10
164.9724249999999
 20
-0.5261679999999842
 30
0.0
 11
164.391986
 21
-11.60158699999999
 31
0.0
  0
ARC
  8
DETAIL
  6
CONTINUOUS
 62
     5
 10
163.3933569999999
 20
-11.549250999999909
 30
0.0
 40
1.0
 50
313.49999999999483
 51
357.00000000000102
  0
ARC
  8
DETAIL
  6
CONTINUOUS
 62
     5
 10
164.47310999999991
 20
-0.5
 30
0.0
 40
0.5
 50
357.00000000000102
 51
90.0
  0
LINE
  8
DETAIL
  6
CONTINUOUS
 62
     5
 10
89.0
 20
157.5
 30
0.0
 11
125.05
 21
157.5
 31
0.0
  0
ARC
  8
DETAIL
  6
CONTINUOUS
 62
     5
 10
125.05
 20
157.0500000000001
 30
0.0
 40
0.45
 50
0.0
 51
90.0
  0
ARC
  8
DETAIL
  6
CONTINUOUS
 62
     5
 10
126.5
 20
1.0
 30
0.0
 40
1.0
 50
180.0
 51
270.0
  0
LINE
  8
DETAIL
  6
CONTINUOUS
 62
     5
 10
125.5
 20
1.0
 30
0.0
 11
125.5
 21
157.0500000000001
 31
0.0
  0
ARC
  8
DETAIL
  6
CONTINUOUS
 62
     5
 10
123.9499239999998
 20
158.75009800000001
 30
0.0
 40
1.25
 50
270.0
 51
0.0
  0
ARC
  8
DETAIL
  6
CONTINUOUS
 62
     5
 10
123.9499239999998
 20
164.200098
 30
0.0
 40
1.25
 50
0.0
 51
90.0
  0
LINE
  8
DETAIL
  6
CONTINUOUS
 62
     5
 10
125.1999239999998
 20
158.75009800000001
 30
0.0
 11
125.1999239999998
 21
164.200098
 31
0.0
  0
LINE
  8
DETAIL
  6
CONTINUOUS
 62
     5
 10
123.9499239999998
 20
165.450098
 30
0.0
 11
89.0
 21
165.450098
 31
0.0
  0
LINE
  8
DETAIL
  6
CONTINUOUS
 62
     5
 10
0.0
 20
-18.0
 30
0.0
 11
157.64946599999979
 21
-18.0
 31
0.0
  0
LINE
  8
DETAIL
  6
CONTINUOUS
 62
     5
 10
64.999923999999851
 20
198.30009200000009
 30
0.0
 11
64.999923999999851
 21
179.59989999999991
 31
0.0
  0
LINE
  8
OUTLINE
  6
CONTINUOUS
 62
     3
 10
0.0
 20
154.39990299999999
 30
0.0
 11
-0.0525590000002012
 21
154.3088680000001
 31
0.0
  0
LINE
  8
OUTLINE
  6
CONTINUOUS
 62
     3
 10
59.499923999999851
 20
203.80009200000009
 30
0.0
 11
-11.500076000000149
 21
203.80009200000009
 31
0.0
  0
ARC
  8
OUTLINE
  6
CONTINUOUS
 62
     3
 10
59.499923999999851
 20
198.30009200000009
 30
0.0
 40
5.5
 50
0.0
 51
90.0
  0
ARC
  8
OUTLINE
  6
CONTINUOUS
 62
     3
 10
-11.500076000000149
 20
198.30009200000009
 30
0.0
 40
5.5
 50
90.0
 51
180.0
  0
ARC
  8
OUTLINE
  6
CONTINUOUS
 62
     3
 10
-157.64946700000019
 20
-17.0
 30
0.0
 40
1.0
 50
226.50000000000489
 51
270.0
  0
LINE
  8
OUTLINE
  6
CONTINUOUS
 62
     3
 10
-164.08171200000021
 20
-12.274625000000009
 30
0.0
 11
-158.3378210000001
 21
-17.725373999999992
 31
0.0
  0
LINE
  8
OUTLINE
  6
CONTINUOUS
 62
     3
 10
-164.9724249999999
 20
-0.5261679999999842
 30
0.0
 11
-164.3919870000002
 21
-11.60158699999999
 31
0.0
  0
ARC
  8
OUTLINE
  6
CONTINUOUS
 62
     3
 10
-163.3933569999999
 20
-11.549250999999909
 30
0.0
 40
1.0
 50
182.99999999999901
 51
226.50000000000489
  0
ARC
  8
OUTLINE
  6
CONTINUOUS
 62
     3
 10
-164.4731100000001
 20
-0.5
 30
0.0
 40
0.5
 50
90.0
 51
182.99999999999901
  0
ARC
  8
OUTLINE
  6
CONTINUOUS
 62
     3
 10
-125.05
 20
157.0500000000001
 30
0.0
 40
0.45
 50
90.0
 51
180.0
  0
ARC
  8
OUTLINE
  6
CONTINUOUS
 62
     3
 10
-126.5
 20
1.0
 30
0.0
 40
1.0
 50
270.0
 51
0.0
  0
LINE
  8
OUTLINE
  6
CONTINUOUS
 62
     3
 10
-125.5
 20
1.0
 30
0.0
 11
-125.5
 21
157.0500000000001
 31
0.0
  0
ARC
  8
OUTLINE
  6
CONTINUOUS
 62
     3
 10
-123.949924
 20
158.75009800000001
 30
0.0
 40
1.25
 50
180.0
 51
270.0
  0
ARC
  8
OUTLINE
  6
CONTINUOUS
 62
     3
 10
-123.949924
 20
164.200098
 30
0.0
 40
1.25
 50
90.0
 51
180.0
  0
LINE
  8
OUTLINE
  6
CONTINUOUS
 62
     3
 10
-125.199924
 20
158.75009800000001
 30
0.0
 11
-125.199924
 21
164.200098
 31
0.0
  0
LINE
  8
OUTLINE
  6
CONTINUOUS
 62
     3
 10
0.0
 20
-18.0
 30
0.0
 11
-157.64946700000019
 21
-18.0
 31
0.0
  0
ARC
  8
OUTLINE
  6
CONTINUOUS
 62
     3
 10
157.64946599999979
 20
-17.0
 30
0.0
 40
1.0
 50
270.0
 51
313.49999999999483
  0
LINE
  8
OUTLINE
  6
CONTINUOUS
 62
     3
 10
164.0817109999999
 20
-12.274625000000009
 30
0.0
 11
158.33782099999979
 21
-17.725373999999992
 31
0.0
  0
LINE
  8
OUTLINE
  6
CONTINUOUS
 62
     3
 10
164.9724249999999
 20
-0.5261679999999842
 30
0.0
 11
164.391986
 21
-11.60158699999999
 31
0.0
  0
ARC
  8
OUTLINE
  6
CONTINUOUS
 62
     3
 10
163.3933569999999
 20
-11.549250999999909
 30
0.0
 40
1.0
 50
313.49999999999483
 51
357.00000000000102
  0
ARC
  8
OUTLINE
  6
CONTINUOUS
 62
     3
 10
164.47310999999991
 20
-0.5
 30
0.0
 40
0.5
 50
357.00000000000102
 51
90.0
  0
ARC
  8
OUTLINE
  6
CONTINUOUS
 62
     3
 10
125.05
 20
157.0500000000001
 30
0.0
 40
0.45
 50
0.0
 51
90.0
  0
ARC
  8
OUTLINE
  6
CONTINUOUS
 62
     3
 10
126.5
 20
1.0
 30
0.0
 40
1.0
 50
180.0
 51
270.0
  0
LINE
  8
OUTLINE
  6
CONTINUOUS
 62
     3
 10
125.5
 20
1.0
 30
0.0
 11
125.5
 21
157.0500000000001
 31
0.0
  0
ARC
  8
OUTLINE
  6
CONTINUOUS
 62
     3
 10
123.9499239999998
 20
158.75009800000001
 30
0.0
 40
1.25
 50
270.0
 51
0.0
  0
ARC
  8
OUTLINE
  6
CONTINUOUS
 62
     3
 10
123.9499239999998
 20
164.200098
 30
0.0
 40
1.25
 50
0.0
 51
90.0
  0
LINE
  8
OUTLINE
  6
CONTINUOUS
 62
     3
 10
125.1999239999998
 20
158.75009800000001
 30
0.0
 11
125.1999239999998
 21
164.200098
 31
0.0
  0
LINE
  8
OUTLINE
  6
CONTINUOUS
 62
     3
 10
0.0
 20
-18.0
 30
0.0
 11
157.64946599999979
 21
-18.0
 31
0.0
  0
LINE
  8
OUTLINE
  6
CONTINUOUS
 62
     3
 10
64.999923999999851
 20
198.30009200000009
 30
0.0
 11
64.999923999999851
 21
179.59989999999991
 31
0.0
  0
LINE
  8
OUTLINE
  6
CONTINUOUS
 62
     3
 10
126.5
 20
0.0
 30
0.0
 11
164.47310999999991
 21
0.0
 31
0.0
  0
LINE
  8
OUTLINE
  6
CONTINUOUS
 62
     3
 10
-126.5
 20
0.0
 30
0.0
 11
-164.4731100000001
 21
0.0
 31
0.0
  0
LINE
  8
OUTLINE
  6
CONTINUOUS
 62
     3
 10
-123.949924
 20
157.5
 30
0.0
 11
-125.05
 21
157.5
 31
0.0
  0
LINE
  8
OUTLINE
  6
CONTINUOUS
 62
     3
 10
123.9499239999998
 20
157.5
 30
0.0
 11
125.05
 21
157.5
 31
0.0
  0
LINE
  8
OUTLINE
  6
CONTINUOUS
 62
     3
 10
78.249969499999906
 20
179.59989999999991
 30
0.0
 11
64.999923999999851
 21
179.59989999999991
 31
0.0
  0
LINE
  8
OUTLINE
  6
CONTINUOUS
 62
     3
 10
123.9499239999998
 20
165.450098
 30
0.0
 11
89.0
 21
165.450098
 31
0.0
  0
LINE
  8
OUTLINE
  6
CONTINUOUS
 62
     3
 10
-91.500015000000076
 20
179.59989999999991
 30
0.0
 11
-91.500015000000076
 21
165.450098
 31
0.0
  0
LINE
  8
OUTLINE
  6
CONTINUOUS
 62
     3
 10
-123.949924
 20
165.450098
 30
0.0
 11
-91.500015000000076
 21
165.450098
 31
0.0
  0
LINE
  8
OUTLINE
  6
CONTINUOUS
 62
     3
 10
-17.000076000000149
 20
198.30009200000009
 30
0.0
 11
-17.000076000000149
 21
179.59989999999991
 31
0.0
  0
LINE
  8
OUTLINE
  6
CONTINUOUS
 62
     3
 10
-91.500015000000076
 20
179.59989999999991
 30
0.0
 11
-17.000076000000149
 21
179.59989999999991
 31
0.0
  0
LINE
  8
NOTE
  6
CENTER
 62
     4
 10
105.0
 20
150.364857
 30
0.0
 11
105.0
 21
176.286193
 31
0.0
  0
TEXT
  8
NOTE
  6
CONTINUOUS
 62
     4
 10
267.67788632959332
 20
415.91845794879259
 30
0.0
 40
64.0
  1
EL
 41
0.9
  0
LINE
  8
NOTE
  6
CONTINUOUS
 62
     4
 10
390.82094409062029
 20
382.04851360051629
 30
0.0
 11
222.2964525642013
 21
382.04851360055892
 31
0.0
  0
LINE
  8
NOTE
  6
CONTINUOUS
 62
     4
 10
105.0
 20
165.450098
 30
0.0
 11
222.2964525642013
 21
382.04851360055892
 31
0.0
  0
LINE
  8
NOTE
  6
CONTINUOUS
 62
     4
 10
105.0
 20
165.450098
 30
0.0
 11
133.0733740441126
 21
192.09404718745009
 31
0.0
  0
LINE
  8
NOTE
  6
CONTINUOUS
 62
     4
 10
112.3025623945784
 20
204.7081477038455
 30
0.0
 11
105.0
 21
165.450098
 31
0.0
  0
LINE
  8
NOTE
  6
CONTINUOUS
 62
     4
 10
141.5
 20
0.0
 30
0.0
 11
376.78356798458663
 21
264.8116364789787
 31
0.0
  0
LINE
  8
NOTE
  6
CONTINUOUS
 62
     4
 10
160.49527469402349
 20
35.19929633376114
 30
0.0
 11
141.5
 21
0.0
 31
0.0
  0
LINE
  8
NOTE
  6
CONTINUOUS
 62
     4
 10
174.1617943914741
 20
23.05376292055837
 30
0.0
 11
141.4369540524026
 21
0.0560293827589931
 31
0.0
  0
TEXT
  8
NOTE
  6
CONTINUOUS
 62
     4
 10
-43.855721293452461
 20
77.860552920088139
 30
0.0
 40
64.0
  1
EA
 41
0.9
  0
CIRCLE
  8
FIX
  6
CONTINUOUS
 62
    11
 10
-141.50000000000011
 20
0.0
 30
0.0
 40
5.0
  0
CIRCLE
  8
FIX
  6
CONTINUOUS
 62
    11
 10
-85.000000000000114
 20
0.0
 30
0.0
 40
5.0
  0
CIRCLE
  8
FIX
  6
CONTINUOUS
 62
    11
 10
85.0
 20
0.0
 30
0.0
 40
5.0
  0
CIRCLE
  8
FIX
  6
CONTINUOUS
 62
    11
 10
141.5
 20
0.0
 30
0.0
 40
5.0
  0
LINE
  8
BASIS
  6
DASHDOT
 62
     6
 10
-70.02716903435703
 20
111.0
 30
0.0
 11
68.790848039987395
 21
111.0
 31
0.0
  0
CIRCLE
  8
DETAIL
  6
CONTINUOUS
 62
     5
 10
0.0
 20
111.0
 30
0.0
 40
49.0
  0
CIRCLE
  8
DETAIL
  6
CONTINUOUS
 62
     5
 10
0.0
 20
111.0
 30
0.0
 40
52.5
  0
LINE
  8
SIZE
  6
CONTINUOUS
 62
    30
 10
-341.43342565785792
 20
471.24138646728989
 30
0.0
 11
-41.962274691949688
 21
155.27377895185089
 31
0.0
  0
LINE
  8
SIZE
  6
CONTINUOUS
 62
    30
 10
41.962274691949688
 20
66.726221048149114
 30
0.0
 11
50.217148401841428
 21
58.016625188768558
 31
0.0
  0
TEXT
  8
SIZE
  6
CONTINUOUS
 62
    30
 10
-315.90228775991682
 20
480.6460254487186
 30
0.0
 40
64.0
  1
φ98
 50
313.46458959623709
 41
0.9
 72
     1
 11
-256.08983139338687
 21
417.53878230760722
 31
0.0
  0
LINE
  8
SIZE
  6
CONTINUOUS
 62
    30
 10
33.707400982058061
 20
75.435816907529556
 30
0.0
 11
-33.707400982057948
 21
146.5641830924703
 31
0.0
  0
CIRCLE
  8
SIZE
  6
CONTINUOUS
 62
    30
 10
33.707400982058061
 20
75.435816907529556
 30
0.0
 40
6.0
  0
LINE
  8
SIZE
  6
CONTINUOUS
 62
    30
 10
33.707400982058061
 20
75.435816907529556
 30
0.0
 11
41.962274691949688
 21
66.726221048149114
 31
0.0
  0
CIRCLE
  8
SIZE
  6
CONTINUOUS
 62
    30
 10
-33.707400982057948
 20
146.5641830924703
 30
0.0
 40
6.0
  0
LINE
  8
SIZE
  6
CONTINUOUS
 62
    30
 10
-33.707400982057948
 20
146.5641830924703
 30
0.0
 11
-41.962274691949688
 21
155.27377895185089
 31
0.0
  0
POINT
  8
DEFPOINTS
  6
CONTINUOUS
 62
    30
 10
-33.707400982057948
 20
146.5641830924703
 30
0.0
  0
POINT
  8
DEFPOINTS
  6
CONTINUOUS
 62
    30
 10
33.707400982058061
 20
75.435816907529556
 30
0.0
  0
LINE
  8
SIZE
  6
CONTINUOUS
 62
    30
 10
-464.93131891047648
 20
355.39508242639567
 30
0.0
 11
-57.092685073122311
 21
141.01125307515949
 31
0.0
  0
LINE
  8
SIZE
  6
CONTINUOUS
 62
    30
 10
57.092685073122418
 20
80.988746924840598
 30
0.0
 11
67.714579970447517
 21
75.40525798062481
 31
0.0
  0
TEXT
  8
SIZE
  6
CONTINUOUS
 62
    30
 10
-443.79498336618252
 20
372.5281369262126
 30
0.0
 40
64.0
  1
φ105
 50
332.27095978983232
 41
0.9
 72
     1
 11
-347.40887424074111
 21
321.86196296384372
 31
0.0
  0
LINE
  8
SIZE
  6
CONTINUOUS
 62
    30
 10
46.470790175797219
 20
86.572235869056271
 30
0.0
 11
-46.470790175797219
 21
135.4277641309437
 31
0.0
  0
CIRCLE
  8
SIZE
  6
CONTINUOUS
 62
    30
 10
46.470790175797219
 20
86.572235869056271
 30
0.0
 40
6.0
  0
LINE
  8
SIZE
  6
CONTINUOUS
 62
    30
 10
46.470790175797219
 20
86.572235869056271
 30
0.0
 11
57.092685073122418
 21
80.988746924840598
 31
0.0
  0
CIRCLE
  8
SIZE
  6
CONTINUOUS
 62
    30
 10
-46.470790175797219
 20
135.4277641309437
 30
0.0
 40
6.0
  0
LINE
  8
SIZE
  6
CONTINUOUS
 62
    30
 10
-46.470790175797219
 20
135.4277641309437
 30
0.0
 11
-57.092685073122311
 21
141.0112530751594
 31
0.0
  0
POINT
  8
DEFPOINTS
  6
CONTINUOUS
 62
    30
 10
-46.470790175797219
 20
135.4277641309437
 30
0.0
  0
POINT
  8
DEFPOINTS
  6
CONTINUOUS
 62
    30
 10
46.470790175797219
 20
86.572235869056271
 30
0.0
  0
LINE
  8
DETAIL
  6
CONTINUOUS
 62
     5
 10
89.0
 20
124.5
 30
0.0
 11
89.0
 21
168.09990000000019
 31
0.0
  0
LINE
  8
DETAIL
  6
CONTINUOUS
 62
     5
 10
99.0
 20
114.5
 30
0.0
 11
125.5
 21
114.5
 31
0.0
  0
ARC
  8
DETAIL
  6
CONTINUOUS
 62
     5
 10
99.0
 20
124.5
 30
0.0
 40
10.0
 50
180.0
 51
270.0
  0
ARC
  8
DETAIL
  6
CONTINUOUS
 62
     5
 10
77.5
 20
168.09990000000019
 30
0.0
 40
11.5
 50
0.0
 51
90.0
  0
ARC
  8
OUTLINE
  6
CONTINUOUS
 62
     3
 10
77.5
 20
168.09990000000019
 30
0.0
 40
11.5
 50
0.0
 51
90.0
  0
LINE
  8
OUTLINE
  6
CONTINUOUS
 62
     3
 10
89.0
 20
165.450098
 30
0.0
 11
89.0
 21
168.09990000000019
 31
0.0
  0
TEXT
  8
ETC
  6
CONTINUOUS
 62
    61
 10
512.6899944592642
 20
773.80507005994014
 30
0.0
 40
64.0
  1
VD-15Z13_2
 41
0.9
  0
TEXT
  8
ETC
  6
CONTINUOUS
 62
    61
 10
508.50400045926381
 20
655.84976004510918
 30
0.0
 40
64.0
  1
換気扇
 41
0.9
  0
TEXT
  8
ETC
  6
CONTINUOUS
 62
    61
 10
559.20539870781977
 20
547.70098715888366
 30
0.0
 40
40.0
  1
VD-15Z13
 41
0.9
  0
TEXT
  8
ETC
  6
CONTINUOUS
 62
    61
 10
559.20539870781977
 20
481.70098715888372
 30
0.0
 40
40.0
  1
VD-15ZP13
 41
0.9
  0
TEXT
  8
ETC
  6
CONTINUOUS
 62
    61
 10
559.20539870781977
 20
415.70098715888372
 30
0.0
 40
40.0
  1
VD-15Z13-BL
 41
0.9
  0
TEXT
  8
NOTE
  6
CONTINUOUS
 62
     4
 10
405.20928168035198
 20
300.51732941084668
 30
0.0
 40
63.999999999999993
  1
8-φ5×8
 41
0.9
  0
LINE
  8
NOTE
  6
CONTINUOUS
 62
     4
 10
772.45553559155815
 20
264.81163628398622
 30
0.0
 11
376.78356866204291
 21
264.81166576296499
 31
0.0
  0
ENDSEC
  0
EOF
