  0
SECTION
  2
HEADER
  9
$ACADVER
  1
AC1009
  9
$INSBASE
 10
0.0
 20
0.0
 30
0.0
  9
$EXTMIN
 10
-962.11116766965426
 20
-715.13707099999999
 30
0.0
  9
$EXTMAX
 10
1462.5680284545999
 20
1087.7441572981841
 30
0.0
  9
$LIMMIN
 10
-2970.0
 20
-2100.0
  9
$LIMMAX
 10
2970.0
 20
2100.0
  9
$ORTHOMODE
 70
     1
  9
$REGENMODE
 70
     0
  9
$FILLMODE
 70
     1
  9
$QTEXTMODE
 70
     0
  9
$MIRRTEXT
 70
     0
  9
$DRAGMODE
 70
     2
  9
$LTSCALE
 40
20.0
  9
$OSMODE
 70
    37
  9
$ATTMODE
 70
     1
  9
$TEXTSIZE
 40
64.0
  9
$TRACEWID
 40
0.05
  9
$TEXTSTYLE
  7
STANDARD
  9
$CLAYER
  8
SIZE
  9
$CELTYPE
  6
CONTINUOUS
  9
$CECOLOR
 62
    30
  9
$DIMSCALE
 40
1.0
  9
$DIMASZ
 40
12.0
  9
$DIMEXO
 40
20.0
  9
$DIMDLI
 40
200.0
  9
$DIMRND
 40
0.0
  9
$DIMDLE
 40
0.0
  9
$DIMEXE
 40
30.0
  9
$DIMTP
 40
0.0
  9
$DIMTM
 40
0.0
  9
$DIMTXT
 40
64.0
  9
$DIMCEN
 40
0.09
  9
$DIMTSZ
 40
0.0
  9
$DIMTOL
 70
     0
  9
$DIMLIM
 70
     0
  9
$DIMTIH
 70
     0
  9
$DIMTOH
 70
     0
  9
$DIMSE1
 70
     0
  9
$DIMSE2
 70
     0
  9
$DIMTAD
 70
     1
  9
$DIMZIN
 70
     8
  9
$DIMBLK
  1
ORIGIN
  9
$DIMASO
 70
     1
  9
$DIMSHO
 70
     0
  9
$DIMPOST
  1

  9
$DIMAPOST
  1

  9
$DIMALT
 70
     0
  9
$DIMALTD
 70
     2
  9
$DIMALTF
 40
25.399999999999999
  9
$DIMLFAC
 40
1.0
  9
$DIMTOFL
 70
     1
  9
$DIMTVP
 40
0.0
  9
$DIMTIX
 70
     0
  9
$DIMSOXD
 70
     0
  9
$DIMSAH
 70
     0
  9
$DIMBLK1
  1

  9
$DIMBLK2
  1

  9
$DIMSTYLE
  2
STANDARD
  9
$DIMCLRD
 70
     0
  9
$DIMCLRE
 70
     0
  9
$DIMCLRT
 70
     0
  9
$DIMTFAC
 40
1.0
  9
$DIMGAP
 40
20.0
  9
$LUNITS
 70
     2
  9
$LUPREC
 70
     4
  9
$SKETCHINC
 40
0.1
  9
$FILLETRAD
 40
18.0
  9
$AUNITS
 70
     1
  9
$AUPREC
 70
     3
  9
$MENU
  1
ACAD
  9
$ELEVATION
 40
0.0
  9
$PELEVATION
 40
0.0
  9
$THICKNESS
 40
0.0
  9
$LIMCHECK
 70
     0
  9
$BLIPMODE
 70
     0
  9
$CHAMFERA
 40
0.0
  9
$CHAMFERB
 40
0.0
  9
$SKPOLY
 70
     0
  9
$TDCREATE
 40
2451396.6949768509
  9
$TDUPDATE
 40
2454155.5315708099
  9
$TDINDWG
 40
0.0430506713
  9
$TDUSRTIMER
 40
0.0430501157
  9
$USRTIMER
 70
     1
  9
$ANGBASE
 50
0.0
  9
$ANGDIR
 70
     0
  9
$PDMODE
 70
     3
  9
$PDSIZE
 40
-2.0
  9
$PLINEWID
 40
0.0
  9
$COORDS
 70
     0
  9
$SPLFRAME
 70
     0
  9
$SPLINETYPE
 70
     6
  9
$SPLINESEGS
 70
     8
  9
$ATTDIA
 70
     0
  9
$ATTREQ
 70
     1
  9
$HANDLING
 70
 22529
  9
$HANDSEED
  5
14A4
  9
$SURFTAB1
 70
     6
  9
$SURFTAB2
 70
     6
  9
$SURFTYPE
 70
     6
  9
$SURFU
 70
     6
  9
$SURFV
 70
     6
  9
$UCSNAME
  2

  9
$UCSORG
 10
0.0
 20
0.0
 30
0.0
  9
$UCSXDIR
 10
1.0
 20
0.0
 30
0.0
  9
$UCSYDIR
 10
0.0
 20
1.0
 30
0.0
  9
$PUCSNAME
  2

  9
$PUCSORG
 10
0.0
 20
0.0
 30
0.0
  9
$PUCSXDIR
 10
1.0
 20
0.0
 30
0.0
  9
$PUCSYDIR
 10
0.0
 20
1.0
 30
0.0
  9
$USERI1
 70
     0
  9
$USERI2
 70
     0
  9
$USERI3
 70
     0
  9
$USERI4
 70
     0
  9
$USERI5
 70
     0
  9
$USERR1
 40
20.0
  9
$USERR2
 40
0.0
  9
$USERR3
 40
0.0
  9
$USERR4
 40
0.0
  9
$USERR5
 40
0.0
  9
$WORLDVIEW
 70
     1
  9
$SHADEDGE
 70
     3
  9
$SHADEDIF
 70
    70
  9
$TILEMODE
 70
     1
  9
$MAXACTVP
 70
    48
  9
$PLIMCHECK
 70
     0
  9
$PEXTMIN
 10
1.0000000000000000E+020
 20
1.0000000000000000E+020
 30
1.0000000000000000E+020
  9
$PEXTMAX
 10
-1.0000000000000000E+020
 20
-1.0000000000000000E+020
 30
-1.0000000000000000E+020
  9
$PLIMMIN
 10
0.0
 20
0.0
  9
$PLIMMAX
 10
12.0
 20
9.0
  9
$UNITMODE
 70
     0
  9
$VISRETAIN
 70
     1
  9
$PLINEGEN
 70
     0
  9
$PSLTSCALE
 70
     1
  0
ENDSEC
  0
SECTION
  2
TABLES
  0
TABLE
  2
VPORT
 70
     3
  0
VPORT
  2
*ACTIVE
 70
     0
 10
0.0
 20
0.0
 11
1.0
 21
1.0
 12
241.54405815267251
 22
186.3087261517573
 13
0.0
 23
0.0
 14
50.0
 24
50.0
 15
400.0
 25
400.0
 16
0.0
 26
0.0
 36
1.0
 17
0.0
 27
0.0
 37
0.0
 40
1960.7780872137721
 41
1.710526315789473
 42
50.0
 43
0.0
 44
0.0
 50
0.0
 51
0.0
 71
     0
 72
   500
 73
     1
 74
     0
 75
     0
 76
     0
 77
     0
 78
     1
  0
ENDTAB
  0
TABLE
  2
LTYPE
 70
     8
  0
LTYPE
  2
CONTINUOUS
 70
     0
  3
Ä└É³
 72
    65
 73
     0
 40
0.0
  0
LTYPE
  2
DASHDOT
 70
     0
  3
____ _ ____ _ ____ _ ____ _ ____ _ ____ _ ____
 72
    65
 73
     4
 40
5.5
 49
4.0
 49
-0.6
 49
0.3
 49
-0.6
  0
LTYPE
  2
DASHED
 70
     0
  3
_ _ _ _ _ _ _ _ _ _ _ _ _ _ _ _ _ _ _ _ _ _ _
 72
    65
 73
     2
 40
2.0
 49
1.1999999999999991
 49
-0.8
  0
LTYPE
  2
DOT
 70
     0
  3
...............................................
 72
    65
 73
     2
 40
0.8
 49
0.5
 49
-0.3
  0
LTYPE
  2
DASHDOT1
 70
     0
  3
____ _ ____ _ ____ _ ____ _ ____ _ ____ _ ____
 72
    65
 73
     4
 40
2.0
 49
1.5
 49
-0.2
 49
0.1
 49
-0.2
  0
LTYPE
  2
DIVIDE
 70
     0
  3
_____ _ _ _____ _ _ _____ _ _ _____ _ _ ____
 72
    65
 73
     6
 40
6.4000000000000004
 49
4.0
 49
-0.6
 49
0.3
 49
-0.6
 49
0.3
 49
-0.6
  0
LTYPE
  2
DIVIDE1
 70
     0
  3
_____ _ _ _____ _ _ _____ _ _ _____ _ _ ____
 72
    65
 73
     6
 40
3.2000000000000002
 49
2.0
 49
-0.3
 49
0.15
 49
-0.3
 49
0.15
 49
-0.3
  0
LTYPE
  2
DASHED2
 70
     0
  3
Dashed (.5x) _ _ _ _ _ _ _ _ _ _ _ _ _ _ _ _ _
 72
    65
 73
     2
 40
0.375
 49
0.25
 49
-0.125
  0
ENDTAB
  0
TABLE
  2
LAYER
 70
    12
  0
LAYER
  2
0
 70
     0
 62
     7
  6
CONTINUOUS
  0
LAYER
  2
SIZE
 70
     0
 62
    30
  6
CONTINUOUS
  0
LAYER
  2
OUTLINE
 70
     0
 62
     3
  6
CONTINUOUS
  0
LAYER
  2
DETAIL
 70
     0
 62
     5
  6
CONTINUOUS
  0
LAYER
  2
BASIS
 70
     0
 62
     6
  6
DASHDOT
  0
LAYER
  2
NOTE
 70
     0
 62
     4
  6
CONTINUOUS
  0
LAYER
  2
DEFPOINTS
 70
     0
 62
     7
  6
CONTINUOUS
  0
LAYER
  2
FIX
 70
     0
 62
    11
  6
CONTINUOUS
  0
LAYER
  2
ARRANGE
 70
     0
 62
     1
  6
CONTINUOUS
  0
LAYER
  2
ETC
 70
     0
 62
    61
  6
CONTINUOUS
  0
LAYER
  2
SERVICESPACE
 70
     0
 62
     2
  6
DASHDOT
  0
LAYER
  2
SYMBOLLINE
 70
     0
 62
    15
  6
CONTINUOUS
  0
ENDTAB
  0
TABLE
  2
STYLE
 70
     1
  0
STYLE
  2
STANDARD
 70
     0
 40
0.0
 41
0.9
 50
0.0
 71
     0
 42
64.0
  3
SIMPLEX
  4
BIGFONT
  0
ENDTAB
  0
TABLE
  2
VIEW
 70
     1
  0
VIEW
  2
ALL
 70
     0
 40
4282.6198079999967
 10
0.0
 20
41.309903999999989
 41
5940.0
 11
0.0
 21
0.0
 31
1.0
 12
0.0
 22
0.0
 32
0.0
 42
50.0
 43
0.0
 44
0.0
 50
0.0
 71
     0
  0
ENDTAB
  0
TABLE
  2
UCS
 70
     0
  0
ENDTAB
  0
TABLE
  2
APPID
 70
     1
  0
APPID
  2
ACAD
 70
     0
  0
ENDTAB
  0
TABLE
  2
DIMSTYLE
 70
     2
  0
DIMSTYLE
  2
STANDARD
 70
     0
  3

  4

  5

  6

  7

 40
1.0
 41
0.18
 42
0.0625
 43
0.38
 44
0.18
 45
0.0
 46
0.0
 47
0.0
 48
0.0
140
0.18
141
0.09
142
0.0
143
25.399999999999999
144
1.0
145
0.0
146
1.0
147
0.09
 71
     0
 72
     0
 73
     1
 74
     1
 75
     0
 76
     0
 77
     0
 78
     0
170
     0
171
     2
172
     0
173
     0
174
     0
175
     0
176
     0
177
     0
178
     0
  0
DIMSTYLE
  2
ISO-25
 70
     0
  3

  4

  5

  6

  7

 40
1.0
 41
2.5
 42
0.625
 43
3.75
 44
1.25
 45
0.0
 46
0.0
 47
0.0
 48
0.0
140
2.5
141
2.5
142
0.0
143
0.03937007874016
144
1.0
145
0.0
146
1.0
147
0.625
 71
     0
 72
     0
 73
     0
 74
     0
 75
     0
 76
     0
 77
     1
 78
     8
170
     0
171
     3
172
     1
173
     0
174
     0
175
     0
176
     0
177
     0
178
     0
  0
ENDTAB
  0
ENDSEC
  0
SECTION
  2
BLOCKS
  0
BLOCK
  8
0
  2
$MODEL_SPACE
 70
     0
 10
0.0
 20
0.0
 30
0.0
  3
$MODEL_SPACE
  1

  0
ENDBLK
  5
1160
  8
0
  0
BLOCK
 67
     1
  8
0
  2
$PAPER_SPACE
 70
     0
 10
0.0
 20
0.0
 30
0.0
  3
$PAPER_SPACE
  1

  0
ENDBLK
  5
115C
 67
     1
  8
0
  0
BLOCK
  8
0
 62
     8
  2
_SMALL
 70
     0
 10
0.0
 20
0.0
 30
0.0
  3
_SMALL
  1

  0
CIRCLE
  5
1180
  8
0
  6
BYBLOCK
 62
     0
 10
0.0
 20
0.0
 30
0.0
 40
0.25
  0
ENDBLK
  5
1181
  8
0
 62
     8
  0
BLOCK
  8
0
 62
    30
  2
_OPEN30
 70
     0
 10
0.0
 20
0.0
 30
0.0
  3
_OPEN30
  1

  0
LINE
  5
1184
  8
0
  6
BYBLOCK
 62
     0
 10
-1.0
 20
0.26794919
 30
0.0
 11
0.0
 21
0.0
 31
0.0
  0
LINE
  5
1185
  8
0
  6
BYBLOCK
 62
     0
 10
0.0
 20
0.0
 30
0.0
 11
-1.0
 21
-0.26794919
 31
0.0
  0
LINE
  5
1186
  8
0
  6
BYBLOCK
 62
     0
 10
0.0
 20
0.0
 30
0.0
 11
-1.0
 21
0.0
 31
0.0
  0
ENDBLK
  5
1187
  8
0
 62
    30
  0
BLOCK
  8
0
 62
    30
  2
*D4
 70
     1
 10
0.0
 20
0.0
 30
0.0
  3
*D4
  1

  0
LINE
  5
118A
  8
SIZE
  6
CONTINUOUS
 62
     0
 10
-239.5
 20
180.054428
 30
0.0
 11
-239.49999999999989
 21
1025.6328582110491
 31
0.0
  0
LINE
  5
118B
  8
SIZE
  6
CONTINUOUS
 62
     0
 10
165.0
 20
1000.062
 30
0.0
 11
165.0
 21
965.6328582110491
 31
0.0
  0
LINE
  5
118C
  8
SIZE
  6
CONTINUOUS
 62
     0
 10
-239.49999999999989
 20
995.63285821104898
 30
0.0
 11
165.0
 21
995.63285821104898
 31
0.0
  0
TEXT
  5
118D
  8
SIZE
  6
CONTINUOUS
 62
     0
 10
-138.89956227258079
 20
1031.097302870942
 30
0.0
 40
64.0
  1
404.5
 41
0.9
  0
INSERT
  5
118E
  8
SIZE
  6
CONTINUOUS
 62
     0
  2
_SMALL
 10
-239.49999999999989
 20
995.63285821104898
 30
0.0
 41
40.0
 42
40.0
 43
40.0
 50
180.0
  0
INSERT
  5
118F
  8
SIZE
  6
CONTINUOUS
 62
     0
  2
_SMALL
 10
165.0
 20
995.63285821104898
 30
0.0
 41
40.0
 42
40.0
 43
40.0
  0
POINT
  5
1190
  8
DEFPOINTS
  6
CONTINUOUS
 62
     0
 10
-239.5
 20
160.054428
 30
0.0
  0
POINT
  5
1191
  8
DEFPOINTS
  6
CONTINUOUS
 62
     0
 10
165.0
 20
1020.062
 30
0.0
  0
POINT
  5
1192
  8
DEFPOINTS
  6
CONTINUOUS
 62
     0
 10
165.0
 20
995.63285821104898
 30
0.0
  0
ENDBLK
  5
1193
  8
0
 62
    30
  0
BLOCK
  8
0
 62
    30
  2
*D5
 70
     1
 10
0.0
 20
0.0
 30
0.0
  3
*D5
  1

  0
LINE
  5
1196
  8
SIZE
  6
CONTINUOUS
 62
     0
 10
-148.5
 20
180.054428
 30
0.0
 11
-905.86356499999988
 21
180.0544280000002
 31
0.0
  0
LINE
  5
1197
  8
SIZE
  6
CONTINUOUS
 62
     0
 10
-895.86356499999988
 20
0.0544280000000057
 30
0.0
 11
-905.86356499999988
 21
0.0544280000000085
 31
0.0
  0
LINE
  5
1198
  8
SIZE
  6
CONTINUOUS
 62
     0
 10
-875.86356499999999
 20
180.0544280000002
 30
0.0
 11
-875.86356499999999
 21
0.054428
 31
0.0
  0
TEXT
  5
1199
  8
SIZE
  6
CONTINUOUS
 62
     0
 10
-898.11116766965438
 20
23.21596359845157
 30
0.0
 40
64.0
  1
180
 50
90.0
 41
0.9
  0
INSERT
  5
119A
  8
SIZE
  6
CONTINUOUS
 62
     0
  2
_SMALL
 10
-875.86356499999999
 20
180.0544280000002
 30
0.0
 41
40.0
 42
40.0
 43
40.0
 50
90.0
  0
INSERT
  5
119B
  8
SIZE
  6
CONTINUOUS
 62
     0
  2
_SMALL
 10
-875.86356499999999
 20
0.054428
 30
0.0
 41
40.0
 42
40.0
 43
40.0
 50
270.0
  0
POINT
  5
119C
  8
DEFPOINTS
  6
CONTINUOUS
 62
     0
 10
-128.4999999999998
 20
180.054428
 30
0.0
  0
POINT
  5
119D
  8
DEFPOINTS
  6
CONTINUOUS
 62
     0
 10
-875.86356499999999
 20
0.054428
 30
0.0
  0
POINT
  5
119E
  8
DEFPOINTS
  6
CONTINUOUS
 62
     0
 10
-875.86356499999999
 20
0.054428
 30
0.0
  0
ENDBLK
  5
119F
  8
0
 62
    30
  0
BLOCK
  8
0
 62
    30
  2
*D6
 70
     1
 10
0.0
 20
0.0
 30
0.0
  3
*D6
  1

  0
LINE
  5
11A2
  8
SIZE
  6
CONTINUOUS
 62
     0
 10
-239.49999999999989
 20
1005.632858211049
 30
0.0
 11
-239.49999999999989
 21
826.60380120073376
 31
0.0
  0
LINE
  5
11A3
  8
SIZE
  6
CONTINUOUS
 62
     0
 10
-125.5
 20
867.12272999999982
 30
0.0
 11
-125.5
 21
826.60380120073376
 31
0.0
  0
LINE
  5
11A4
  8
SIZE
  6
CONTINUOUS
 62
     0
 10
-239.49999999999989
 20
856.60380120073376
 30
0.0
 11
-125.5
 21
856.60380120073376
 31
0.0
  0
LINE
  5
11A5
  8
SIZE
  6
CONTINUOUS
 62
     0
 10
-468.92586230656099
 20
856.60380120073376
 30
0.0
 11
-239.49999999999989
 21
856.60380120073376
 31
0.0
  0
TEXT
  5
11A6
  8
SIZE
  6
CONTINUOUS
 62
     0
 10
-448.92586230656099
 20
876.60380120073376
 30
0.0
 40
64.0
  1
114
 41
0.9
  0
INSERT
  5
11A7
  8
SIZE
  6
CONTINUOUS
 62
     0
  2
_SMALL
 10
-239.49999999999989
 20
856.60380120073376
 30
0.0
 41
40.0
 42
40.0
 43
40.0
 50
180.0
  0
INSERT
  5
11A8
  8
SIZE
  6
CONTINUOUS
 62
     0
  2
_SMALL
 10
-125.5
 20
856.60380120073376
 30
0.0
 41
40.0
 42
40.0
 43
40.0
  0
POINT
  5
11A9
  8
DEFPOINTS
  6
CONTINUOUS
 62
     0
 10
-239.49999999999989
 20
1025.6328582110491
 30
0.0
  0
POINT
  5
11AA
  8
DEFPOINTS
  6
CONTINUOUS
 62
     0
 10
-125.5
 20
887.12273000000005
 30
0.0
  0
POINT
  5
11AB
  8
DEFPOINTS
  6
CONTINUOUS
 62
     0
 10
-125.5
 20
856.60380120073376
 30
0.0
  0
ENDBLK
  5
11AC
  8
0
 62
    30
  0
BLOCK
  8
0
 62
    30
  2
*D7
 70
     1
 10
0.0
 20
0.0
 30
0.0
  3
*D7
  1

  0
LINE
  5
11AF
  8
SIZE
  6
CONTINUOUS
 62
     0
 10
-239.49999999999989
 20
1005.632858211049
 30
0.0
 11
-239.49999999999989
 21
690.66428619830913
 31
0.0
  0
LINE
  5
11B0
  8
SIZE
  6
CONTINUOUS
 62
     0
 10
-187.5
 20
731.47247699999969
 30
0.0
 11
-187.5
 21
690.66428619830913
 31
0.0
  0
LINE
  5
11B1
  8
SIZE
  6
CONTINUOUS
 62
     0
 10
-239.49999999999989
 20
720.66428619830913
 30
0.0
 11
-187.5
 21
720.66428619830913
 31
0.0
  0
LINE
  5
11B2
  8
SIZE
  6
CONTINUOUS
 62
     0
 10
-440.03543770367202
 20
720.66428619830913
 30
0.0
 11
-239.49999999999989
 21
720.66428619830913
 31
0.0
  0
TEXT
  5
11B3
  8
SIZE
  6
CONTINUOUS
 62
     0
 10
-420.0354377036719
 20
740.66428619830913
 30
0.0
 40
64.0
  1
52
 41
0.9
  0
INSERT
  5
11B4
  8
SIZE
  6
CONTINUOUS
 62
     0
  2
_SMALL
 10
-239.49999999999989
 20
720.66428619830913
 30
0.0
 41
40.0
 42
40.0
 43
40.0
 50
180.0
  0
INSERT
  5
11B5
  8
SIZE
  6
CONTINUOUS
 62
     0
  2
_SMALL
 10
-187.5
 20
720.66428619830913
 30
0.0
 41
40.0
 42
40.0
 43
40.0
  0
POINT
  5
11B6
  8
DEFPOINTS
  6
CONTINUOUS
 62
     0
 10
-239.49999999999989
 20
1025.6328582110491
 30
0.0
  0
POINT
  5
11B7
  8
DEFPOINTS
  6
CONTINUOUS
 62
     0
 10
-187.5
 20
751.47247699999969
 30
0.0
  0
POINT
  5
11B8
  8
DEFPOINTS
  6
CONTINUOUS
 62
     0
 10
-187.5
 20
720.66428619830913
 30
0.0
  0
ENDBLK
  5
11B9
  8
0
 62
    30
  0
BLOCK
  8
0
 62
    30
  2
*D8
 70
     1
 10
0.0
 20
0.0
 30
0.0
  3
*D8
  1

  0
LINE
  5
11BC
  8
SIZE
  6
CONTINUOUS
 62
     0
 10
-239.49999999999989
 20
1005.632858211049
 30
0.0
 11
-239.49999999999989
 21
562.44860637366025
 31
0.0
  0
LINE
  5
11BD
  8
SIZE
  6
CONTINUOUS
 62
     0
 10
-212.5
 20
603.902421
 30
0.0
 11
-212.5
 21
562.44860637366025
 31
0.0
  0
LINE
  5
11BE
  8
SIZE
  6
CONTINUOUS
 62
     0
 10
-239.49999999999989
 20
592.44860637366025
 30
0.0
 11
-279.49999999999989
 21
592.44860637366025
 31
0.0
  0
LINE
  5
11BF
  8
SIZE
  6
CONTINUOUS
 62
     0
 10
-212.5
 20
592.44860637366025
 30
0.0
 11
-172.5
 21
592.44860637366025
 31
0.0
  0
LINE
  5
11C0
  8
SIZE
  6
CONTINUOUS
 62
     0
 10
-456.62821746514891
 20
592.44860637366025
 30
0.0
 11
-239.49999999999989
 21
592.44860637366025
 31
0.0
  0
TEXT
  5
11C1
  8
SIZE
  6
CONTINUOUS
 62
     0
 10
-436.62821746514868
 20
612.44860637366025
 30
0.0
 40
64.0
  1
27
 41
0.9
  0
LINE
  5
11C2
  8
SIZE
  6
CONTINUOUS
 62
     0
 10
-239.49999999999989
 20
592.44860637366025
 30
0.0
 11
-212.5
 21
592.44860637366025
 31
0.0
  0
LINE
  5
11C3
  8
SIZE
  6
CONTINUOUS
 62
     0
 10
-239.49999999999989
 20
592.44860637366025
 30
0.0
 11
-212.5
 21
592.44860637366025
 31
0.0
  0
INSERT
  5
11C4
  8
SIZE
  6
CONTINUOUS
 62
     0
  2
_SMALL
 10
-239.49999999999989
 20
592.44860637366025
 30
0.0
 41
40.0
 42
40.0
 43
40.0
  0
INSERT
  5
11C5
  8
SIZE
  6
CONTINUOUS
 62
     0
  2
_SMALL
 10
-212.5
 20
592.44860637366025
 30
0.0
 41
40.0
 42
40.0
 43
40.0
 50
180.0
  0
POINT
  5
11C6
  8
DEFPOINTS
  6
CONTINUOUS
 62
     0
 10
-239.49999999999989
 20
1025.6328582110491
 30
0.0
  0
POINT
  5
11C7
  8
DEFPOINTS
  6
CONTINUOUS
 62
     0
 10
-212.5
 20
623.902421
 30
0.0
  0
POINT
  5
11C8
  8
DEFPOINTS
  6
CONTINUOUS
 62
     0
 10
-212.5
 20
592.44860637366025
 30
0.0
  0
ENDBLK
  5
11C9
  8
0
 62
    30
  0
BLOCK
  8
0
 62
    30
  2
*D9
 70
     1
 10
0.0
 20
0.0
 30
0.0
  3
*D9
  1

  0
LINE
  5
11CC
  8
SIZE
  6
CONTINUOUS
 62
     0
 10
-239.49999999999989
 20
1005.632858211049
 30
0.0
 11
-239.49999999999989
 21
356.99456683446601
 31
0.0
  0
LINE
  5
11CD
  8
SIZE
  6
CONTINUOUS
 62
     0
 10
0.0000000000000012
 20
406.543948
 30
0.0
 11
0.0000000000000019
 21
416.99456683446567
 31
0.0
  0
LINE
  5
11CE
  8
SIZE
  6
CONTINUOUS
 62
     0
 10
-239.49999999999989
 20
386.99456683446601
 30
0.0
 11
0.0
 21
386.99456683446601
 31
0.0
  0
LINE
  5
11CF
  8
SIZE
  6
CONTINUOUS
 62
     0
 10
-554.15445698510212
 20
386.99456683446601
 30
0.0
 11
-239.49999999999989
 21
386.99456683446601
 31
0.0
  0
TEXT
  5
11D0
  8
SIZE
  6
CONTINUOUS
 62
     0
 10
-534.15445698510223
 20
406.99456683446613
 30
0.0
 40
64.0
  1
239.5
 41
0.9
  0
INSERT
  5
11D1
  8
SIZE
  6
CONTINUOUS
 62
     0
  2
_SMALL
 10
-239.49999999999989
 20
386.99456683446601
 30
0.0
 41
40.0
 42
40.0
 43
40.0
 50
180.0
  0
INSERT
  5
11D2
  8
SIZE
  6
CONTINUOUS
 62
     0
  2
_SMALL
 10
0.0
 20
386.99456683446601
 30
0.0
 41
40.0
 42
40.0
 43
40.0
  0
POINT
  5
11D3
  8
DEFPOINTS
  6
CONTINUOUS
 62
     0
 10
-239.49999999999989
 20
1025.6328582110491
 30
0.0
  0
POINT
  5
11D4
  8
DEFPOINTS
  6
CONTINUOUS
 62
     0
 10
0.0
 20
386.543948
 30
0.0
  0
POINT
  5
11D5
  8
DEFPOINTS
  6
CONTINUOUS
 62
     0
 10
0.0
 20
386.99456683446601
 30
0.0
  0
ENDBLK
  5
11D6
  8
0
 62
    30
  0
BLOCK
  8
0
 62
    30
  2
_ORIGIN
 70
     0
 10
0.0
 20
0.0
 30
0.0
  3
_ORIGIN
  1

  0
CIRCLE
  5
11D9
  8
0
  6
BYBLOCK
 62
     0
 10
0.0
 20
0.0
 30
0.0
 40
0.5
  0
LINE
  5
11DA
  8
0
  6
BYBLOCK
 62
     0
 10
0.0
 20
0.0
 30
0.0
 11
-1.0
 21
0.0
 31
0.0
  0
ENDBLK
  5
11DB
  8
0
 62
    30
  0
BLOCK
  8
0
 62
    30
  2
_NONE
 70
     0
 10
0.0
 20
0.0
 30
0.0
  3
_NONE
  1

  0
ENDBLK
  5
11DE
  8
0
 62
    30
  0
BLOCK
  8
0
 62
    30
  2
*D12
 70
     1
 10
0.0
 20
0.0
 30
0.0
  3
*D12
  1

  0
LINE
  5
11E1
  8
SIZE
  6
CONTINUOUS
 62
     0
 10
165.0
 20
20.054428000000001
 30
0.0
 11
165.0
 21
1027.42721827075
 31
0.0
  0
LINE
  5
11E2
  8
SIZE
  6
CONTINUOUS
 62
     0
 10
-239.5
 20
180.054428
 30
0.0
 11
-239.49999999999989
 21
1027.42721827075
 31
0.0
  0
LINE
  5
11E3
  8
SIZE
  6
CONTINUOUS
 62
     0
 10
153.0
 20
997.42721827075047
 30
0.0
 11
-227.49999999999989
 21
997.42721827075047
 31
0.0
  0
INSERT
  5
11E4
  8
SIZE
  6
CONTINUOUS
 62
     0
  2
_ORIGIN
 10
165.0
 20
997.42721827075047
 30
0.0
 41
12.0
 42
12.0
 43
12.0
  0
INSERT
  5
11E5
  8
SIZE
  6
CONTINUOUS
 62
     0
  2
_ORIGIN
 10
-239.49999999999989
 20
997.42721827075047
 30
0.0
 41
12.0
 42
12.0
 43
12.0
 50
180.0
  0
TEXT
  5
11E6
  8
SIZE
  6
CONTINUOUS
 62
     0
 10
-152.4499999999999
 20
1017.427218270751
 30
0.0
 40
64.0
  1
404.5
 41
0.9
  0
POINT
  5
11E7
  8
DEFPOINTS
  6
CONTINUOUS
 62
     0
 10
165.0
 20
0.054428
 30
0.0
  0
POINT
  5
11E8
  8
DEFPOINTS
  6
CONTINUOUS
 62
     0
 10
-239.5
 20
160.054428
 30
0.0
  0
POINT
  5
11E9
  8
DEFPOINTS
  6
CONTINUOUS
 62
     0
 10
-239.49999999999989
 20
997.42721827075047
 30
0.0
  0
ENDBLK
  5
11EA
  8
0
 62
    30
  0
BLOCK
  8
0
 62
    30
  2
*D13
 70
     1
 10
0.0
 20
0.0
 30
0.0
  3
*D13
  1

  0
LINE
  5
11ED
  8
SIZE
  6
CONTINUOUS
 62
     0
 10
-137.4999999999998
 20
857.42397912022432
 30
0.0
 11
-227.49999999999989
 21
857.42397912022432
 31
0.0
  0
LINE
  5
11EE
  8
SIZE
  6
CONTINUOUS
 62
     0
 10
-239.49999999999989
 20
857.42397912022432
 30
0.0
 11
-420.4142857142856
 21
857.42397912022432
 31
0.0
  0
INSERT
  5
11EF
  8
SIZE
  6
CONTINUOUS
 62
     0
  2
_ORIGIN
 10
-125.4999999999999
 20
857.42397912022432
 30
0.0
 41
12.0
 42
12.0
 43
12.0
  0
INSERT
  5
11F0
  8
SIZE
  6
CONTINUOUS
 62
     0
  2
_ORIGIN
 10
-239.49999999999989
 20
857.42397912022432
 30
0.0
 41
12.0
 42
12.0
 43
12.0
 50
180.0
  0
TEXT
  5
11F1
  8
SIZE
  6
CONTINUOUS
 62
     0
 10
-400.41428571428571
 20
877.4239791202242
 30
0.0
 40
64.0
  1
114
 41
0.9
  0
POINT
  5
11F2
  8
DEFPOINTS
  6
CONTINUOUS
 62
     0
 10
-125.5
 20
198.054428
 30
0.0
  0
POINT
  5
11F3
  8
DEFPOINTS
  6
CONTINUOUS
 62
     0
 10
-239.5
 20
180.054428
 30
0.0
  0
POINT
  5
11F4
  8
DEFPOINTS
  6
CONTINUOUS
 62
     0
 10
-239.49999999999989
 20
857.42397912022432
 30
0.0
  0
ENDBLK
  5
11F5
  8
0
 62
    30
  0
BLOCK
  8
0
 62
    30
  2
*D14
 70
     1
 10
0.0
 20
0.0
 30
0.0
  3
*D14
  1

  0
LINE
  5
11F8
  8
SIZE
  6
CONTINUOUS
 62
     0
 10
-187.5
 20
183.5544279999998
 30
0.0
 11
-187.4999999999998
 21
751.96828418280063
 31
0.0
  0
LINE
  5
11F9
  8
SIZE
  6
CONTINUOUS
 62
     0
 10
-175.49999999999989
 20
721.96828418280063
 30
0.0
 11
-163.4999999999998
 21
721.96828418280063
 31
0.0
  0
LINE
  5
11FA
  8
SIZE
  6
CONTINUOUS
 62
     0
 10
-251.49999999999969
 20
721.96828418280063
 30
0.0
 11
-396.7571428571427
 21
721.96828418280063
 31
0.0
  0
LINE
  5
11FB
  8
SIZE
  6
CONTINUOUS
 62
     0
 10
-187.4999999999998
 20
721.96828418280063
 30
0.0
 11
-239.49999999999989
 21
721.96828418280063
 31
0.0
  0
INSERT
  5
11FC
  8
SIZE
  6
CONTINUOUS
 62
     0
  2
_ORIGIN
 10
-187.4999999999998
 20
721.96828418280063
 30
0.0
 41
12.0
 42
12.0
 43
12.0
 50
180.0
  0
INSERT
  5
11FD
  8
SIZE
  6
CONTINUOUS
 62
     0
  2
_ORIGIN
 10
-239.49999999999989
 20
721.96828418280063
 30
0.0
 41
12.0
 42
12.0
 43
12.0
  0
TEXT
  5
11FE
  8
SIZE
  6
CONTINUOUS
 62
     0
 10
-376.75714285714281
 20
741.96828418280063
 30
0.0
 40
64.0
  1
52
 41
0.9
  0
POINT
  5
11FF
  8
DEFPOINTS
  6
CONTINUOUS
 62
     0
 10
-187.5
 20
163.5544279999994
 30
0.0
  0
POINT
  5
1200
  8
DEFPOINTS
  6
CONTINUOUS
 62
     0
 10
-239.5
 20
160.054428
 30
0.0
  0
POINT
  5
1201
  8
DEFPOINTS
  6
CONTINUOUS
 62
     0
 10
-239.49999999999989
 20
721.96828418280063
 30
0.0
  0
ENDBLK
  5
1202
  8
0
 62
    30
  0
BLOCK
  8
0
 62
    30
  2
*D15
 70
     1
 10
0.0
 20
0.0
 30
0.0
  3
*D15
  1

  0
LINE
  5
1205
  8
SIZE
  6
CONTINUOUS
 62
     0
 10
-212.5
 20
180.054428
 30
0.0
 11
-212.49999999999989
 21
623.42358847417358
 31
0.0
  0
LINE
  5
1206
  8
SIZE
  6
CONTINUOUS
 62
     0
 10
-200.49999999999989
 20
593.42358847417358
 30
0.0
 11
-188.4999999999998
 21
593.42358847417358
 31
0.0
  0
LINE
  5
1207
  8
SIZE
  6
CONTINUOUS
 62
     0
 10
-251.49999999999969
 20
593.42358847417358
 30
0.0
 11
-396.7571428571427
 21
593.42358847417358
 31
0.0
  0
LINE
  5
1208
  8
SIZE
  6
CONTINUOUS
 62
     0
 10
-212.49999999999989
 20
593.42358847417358
 30
0.0
 11
-239.49999999999989
 21
593.42358847417358
 31
0.0
  0
INSERT
  5
1209
  8
SIZE
  6
CONTINUOUS
 62
     0
  2
_ORIGIN
 10
-212.49999999999989
 20
593.42358847417358
 30
0.0
 41
12.0
 42
12.0
 43
12.0
 50
180.0
  0
INSERT
  5
120A
  8
SIZE
  6
CONTINUOUS
 62
     0
  2
_ORIGIN
 10
-239.49999999999989
 20
593.42358847417358
 30
0.0
 41
12.0
 42
12.0
 43
12.0
  0
TEXT
  5
120B
  8
SIZE
  6
CONTINUOUS
 62
     0
 10
-376.75714285714281
 20
613.4235884741737
 30
0.0
 40
64.0
  1
27
 41
0.9
  0
POINT
  5
120C
  8
DEFPOINTS
  6
CONTINUOUS
 62
     0
 10
-212.5
 20
160.054428
 30
0.0
  0
POINT
  5
120D
  8
DEFPOINTS
  6
CONTINUOUS
 62
     0
 10
-239.5
 20
160.054428
 30
0.0
  0
POINT
  5
120E
  8
DEFPOINTS
  6
CONTINUOUS
 62
     0
 10
-239.49999999999989
 20
593.42358847417358
 30
0.0
  0
ENDBLK
  5
120F
  8
0
 62
    30
  0
BLOCK
  8
0
 62
    30
  2
*D16
 70
     1
 10
0.0
 20
0.0
 30
0.0
  3
*D16
  1

  0
LINE
  5
1212
  8
SIZE
  6
CONTINUOUS
 62
     0
 10
0.0000000000000012
 20
241.77614199999991
 30
0.0
 11
0.0000000000000142
 21
453.41286653678247
 31
0.0
  0
LINE
  5
1213
  8
SIZE
  6
CONTINUOUS
 62
     0
 10
-11.99999999999998
 20
423.41286653678242
 30
0.0
 11
-227.49999999999989
 21
423.41286653678242
 31
0.0
  0
LINE
  5
1214
  8
SIZE
  6
CONTINUOUS
 62
     0
 10
-239.49999999999989
 20
423.41286653678242
 30
0.0
 11
-521.89999999999975
 21
423.41286653678242
 31
0.0
  0
INSERT
  5
1215
  8
SIZE
  6
CONTINUOUS
 62
     0
  2
_ORIGIN
 10
0.0000000000000123
 20
423.41286653678242
 30
0.0
 41
12.0
 42
12.0
 43
12.0
  0
INSERT
  5
1216
  8
SIZE
  6
CONTINUOUS
 62
     0
  2
_ORIGIN
 10
-239.49999999999989
 20
423.41286653678242
 30
0.0
 41
12.0
 42
12.0
 43
12.0
 50
180.0
  0
TEXT
  5
1217
  8
SIZE
  6
CONTINUOUS
 62
     0
 10
-501.89999999999992
 20
443.41286653678247
 30
0.0
 40
64.0
  1
239.5
 41
0.9
  0
POINT
  5
1218
  8
DEFPOINTS
  6
CONTINUOUS
 62
     0
 10
0.0
 20
221.77614199999991
 30
0.0
  0
POINT
  5
1219
  8
DEFPOINTS
  6
CONTINUOUS
 62
     0
 10
-239.5
 20
160.054428
 30
0.0
  0
POINT
  5
121A
  8
DEFPOINTS
  6
CONTINUOUS
 62
     0
 10
-239.49999999999989
 20
423.41286653678242
 30
0.0
  0
ENDBLK
  5
121B
  8
0
 62
    30
  0
BLOCK
  8
0
  2
DOT1
 70
     0
 10
0.0
 20
0.0
 30
0.0
  3
DOT1
  1

  0
CIRCLE
  5
121E
  8
SIZE
  6
CONTINUOUS
 62
     7
 10
0.0
 20
0.0
 30
0.0
 40
3.0
  0
ENDBLK
  5
121F
  8
0
  0
ENDSEC
  0
SECTION
  2
ENTITIES
  0
LINE
  5
1220
  8
BASIS
  6
DASHDOT
 62
     6
 10
12.0
 20
213.7921979999999
 30
0.0
 11
12.0
 21
149.9034879999999
 31
0.0
  0
LINE
  5
1221
  8
DETAIL
  6
CONTINUOUS
 62
     5
 10
42.63747
 20
199.4544139999999
 30
0.0
 11
41.468961999999991
 21
201.47831599999989
 31
0.0
  0
LINE
  5
1222
  8
DETAIL
  6
CONTINUOUS
 62
     5
 10
47.939999999999991
 20
199.4544139999999
 30
0.0
 11
12.0
 21
199.4544139999999
 31
0.0
  0
LINE
  5
1223
  8
DETAIL
  6
CONTINUOUS
 62
     5
 10
12.0
 20
201.47832999999989
 30
0.0
 11
41.468952999999992
 21
201.47832999999989
 31
0.0
  0
LINE
  5
1224
  8
DETAIL
  6
CONTINUOUS
 62
     5
 10
18.672234
 20
202.48349999999991
 30
0.0
 11
18.820820999999992
 21
201.47832999999989
 31
0.0
  0
LINE
  5
1225
  8
DETAIL
  6
CONTINUOUS
 62
     5
 10
16.852011999999991
 20
204.054428
 30
0.0
 11
12.0
 21
204.054428
 31
0.0
  0
ARC
  5
1226
  8
DETAIL
  6
CONTINUOUS
 62
     5
 10
16.852011999999991
 20
202.21441399999989
 30
0.0
 40
1.8400009999999991
 50
8.4091109999999976
 51
90.0
  0
ARC
  5
1227
  8
DETAIL
  6
CONTINUOUS
 62
     5
 10
7.147987999999998
 20
202.21441399999989
 30
0.0
 40
1.8400009999999991
 50
90.0
 51
171.59088899999981
  0
LINE
  5
1228
  8
DETAIL
  6
CONTINUOUS
 62
     5
 10
7.147987999999998
 20
204.054428
 30
0.0
 11
12.0
 21
204.054428
 31
0.0
  0
LINE
  5
1229
  8
DETAIL
  6
CONTINUOUS
 62
     5
 10
5.3277659999999987
 20
202.48349999999991
 30
0.0
 11
5.1791790000000004
 21
201.47832999999989
 31
0.0
  0
LINE
  5
122A
  8
DETAIL
  6
CONTINUOUS
 62
     5
 10
12.0
 20
201.47832999999989
 30
0.0
 11
-10.08
 21
201.47832999999989
 31
0.0
  0
LINE
  5
122B
  8
DETAIL
  6
CONTINUOUS
 62
     5
 10
-10.08
 20
199.4544139999999
 30
0.0
 11
12.0
 21
199.4544139999999
 31
0.0
  0
ARC
  5
122C
  8
DETAIL
  6
CONTINUOUS
 62
     5
 10
-23.939997999999999
 20
194.394428
 30
0.0
 40
5.060001999999999
 50
90.0
 51
179.999999
  0
LINE
  5
122D
  8
DETAIL
  6
CONTINUOUS
 62
     5
 10
-23.939997999999999
 20
199.4544139999999
 30
0.0
 11
12.0
 21
199.4544139999999
 31
0.0
  0
LINE
  5
122E
  8
DETAIL
  6
CONTINUOUS
 62
     5
 10
12.0
 20
201.47832999999989
 30
0.0
 11
-17.468952999999999
 21
201.47832999999989
 31
0.0
  0
LINE
  5
122F
  8
DETAIL
  6
CONTINUOUS
 62
     5
 10
-18.63747
 20
199.4544139999999
 30
0.0
 11
-17.468962000000001
 21
201.47831599999989
 31
0.0
  0
CIRCLE
  5
1230
  8
FIX
  6
CONTINUOUS
 62
    11
 10
141.5
 20
0.054428
 30
0.0
 40
2.5
  0
CIRCLE
  5
1231
  8
FIX
  6
CONTINUOUS
 62
    11
 10
-85.0
 20
0.0
 30
0.0
 40
2.5
  0
CIRCLE
  5
1232
  8
FIX
  6
CONTINUOUS
 62
    11
 10
-85.0
 20
0.054428
 30
0.0
 40
2.5
  0
CIRCLE
  5
1233
  8
FIX
  6
CONTINUOUS
 62
    11
 10
-141.5
 20
0.054428
 30
0.0
 40
2.5
  0
LINE
  5
1234
  8
DETAIL
  6
CONTINUOUS
 62
     5
 10
-159.4999999999996
 20
174.0544279999998
 30
0.0
 11
-159.4999999999996
 21
170.5544279999998
 31
0.0
  0
LINE
  5
1235
  8
DETAIL
  6
CONTINUOUS
 62
     5
 10
87.5
 20
170.5544279999998
 30
0.0
 11
122.5
 21
170.5544279999998
 31
0.0
  0
LINE
  5
1236
  8
DETAIL
  6
CONTINUOUS
 62
     5
 10
87.5
 20
174.0544279999998
 30
0.0
 11
122.5
 21
174.0544279999998
 31
0.0
  0
LINE
  5
1237
  8
DETAIL
  6
CONTINUOUS
 62
     5
 10
-128.4999999999998
 20
170.5544279999998
 30
0.0
 11
-159.4999999999996
 21
170.5544279999998
 31
0.0
  0
CIRCLE
  5
1238
  8
FIX
  6
CONTINUOUS
 62
    11
 10
-142.5
 20
174.0544279999998
 30
0.0
 40
7.5
  0
TEXT
  5
1239
  8
NOTE
  6
CONTINUOUS
 62
     4
 10
-426.35560699999991
 20
-107.522277
 30
0.0
 40
64.0
  1
EL
 41
0.9
  0
LINE
  5
123A
  8
NOTE
  6
CONTINUOUS
 62
     4
 10
-317.69737400000002
 20
-131.7740399999999
 30
0.0
 11
-436.50278600000001
 21
-131.7740399999999
 31
0.0
  0
LINE
  5
123B
  8
SIZE
  6
CONTINUOUS
 62
    30
 10
-24.807884575885229
 20
356.543948
 30
0.0
 11
289.45821897437781
 21
356.543948
 31
0.0
  0
LINE
  5
123C
  8
SIZE
  6
CONTINUOUS
 62
    30
 10
53.5
 20
492.73677099999992
 30
0.0
 11
362.59172100000001
 21
492.73677099999992
 31
0.0
  0
LINE
  5
123D
  8
SIZE
  6
CONTINUOUS
 62
    30
 10
-102.0
 20
-258.53873599999991
 30
0.0
 11
-358.893441
 21
-258.53873599999991
 31
0.0
  0
LINE
  5
123E
  8
NOTE
  6
CONTINUOUS
 62
     4
 10
143.257589
 20
173.9386439999999
 30
0.0
 11
400.32159200000001
 21
355.10926999999992
 31
0.0
  0
LINE
  5
123F
  8
NOTE
  6
CONTINUOUS
 62
     4
 10
141.5
 20
0.054428
 30
0.0
 11
280.69977299999982
 21
-325.68324200000001
 31
0.0
  0
POINT
  5
1240
  8
ARRANGE
  6
CONTINUOUS
 62
     1
 10
0.0
 20
0.0
 30
0.0
  0
CIRCLE
  5
1241
  8
ARRANGE
  6
CONTINUOUS
 62
     1
 10
0.0
 20
0.0
 30
0.0
 40
40.0
  0
LINE
  5
1242
  8
SIZE
  6
CONTINUOUS
 62
    30
 10
705.78780800000004
 20
-19.945571999999999
 30
0.0
 11
705.78780800000004
 21
-155.417025
 31
0.0
  0
CIRCLE
  5
1243
  8
FIX
  6
CONTINUOUS
 62
    11
 10
142.5
 20
174.0544279999998
 30
0.0
 40
7.5
  0
LINE
  5
1244
  8
DETAIL
  6
CONTINUOUS
 62
     5
 10
128.4999999999998
 20
170.5544279999998
 30
0.0
 11
159.4999999999996
 21
170.5544279999998
 31
0.0
  0
LINE
  5
1245
  8
DETAIL
  6
CONTINUOUS
 62
     5
 10
159.4999999999996
 20
174.0544279999998
 30
0.0
 11
159.4999999999996
 21
170.5544279999998
 31
0.0
  0
LINE
  5
1246
  8
DETAIL
  6
CONTINUOUS
 62
     5
 10
135.1349129999997
 20
-19.945571999999999
 30
0.0
 11
-135.1349129999997
 21
-19.945571999999999
 31
0.0
  0
LINE
  5
1247
  8
DETAIL
  6
CONTINUOUS
 62
     5
 10
-165.0
 20
-8.4994510000000005
 30
0.0
 11
-165.0
 21
0.054428
 31
0.0
  0
LINE
  5
1248
  8
DETAIL
  6
CONTINUOUS
 62
     5
 10
165.0
 20
-8.4994510000000005
 30
0.0
 11
165.0
 21
0.054428
 31
0.0
  0
LINE
  5
1249
  8
DETAIL
  6
CONTINUOUS
 62
     5
 10
165.0
 20
-5.9455720000000003
 30
0.0
 11
126.5
 21
-5.9455720000000003
 31
0.0
  0
LINE
  5
124A
  8
DETAIL
  6
CONTINUOUS
 62
     5
 10
-126.5
 20
-19.945571999999999
 30
0.0
 11
-126.5
 21
0.054428
 31
0.0
  0
LINE
  5
124B
  8
DETAIL
  6
CONTINUOUS
 62
     5
 10
126.5
 20
-19.945571999999999
 30
0.0
 11
126.5
 21
0.054428
 31
0.0
  0
LINE
  5
124C
  8
DETAIL
  6
CONTINUOUS
 62
     5
 10
-121.5
 20
-19.945571999999999
 30
0.0
 11
-121.5
 21
0.054428
 31
0.0
  0
LINE
  5
124D
  8
DETAIL
  6
CONTINUOUS
 62
     5
 10
-126.5
 20
-5.9455720000000003
 30
0.0
 11
-165.0
 21
-5.9455720000000003
 31
0.0
  0
LINE
  5
124E
  8
DETAIL
  6
CONTINUOUS
 62
     5
 10
121.5
 20
-5.9455720000000003
 30
0.0
 11
-121.5
 21
-5.9455720000000003
 31
0.0
  0
LINE
  5
124F
  8
DETAIL
  6
CONTINUOUS
 62
     5
 10
-159.4999999999996
 20
174.0544279999998
 30
0.0
 11
-125.5
 21
174.0544279999998
 31
0.0
  0
CIRCLE
  5
1250
  8
FIX
  6
CONTINUOUS
 62
    11
 10
85.0
 20
0.054428
 30
0.0
 40
2.5
  0
LINE
  5
1251
  8
DETAIL
  6
CONTINUOUS
 62
     5
 10
87.5
 20
174.0544279999998
 30
0.0
 11
87.5
 21
22.554428000000001
 31
0.0
  0
LINE
  5
1252
  8
DETAIL
  6
CONTINUOUS
 62
     5
 10
122.5
 20
174.0544279999998
 30
0.0
 11
122.5
 21
166.054428
 31
0.0
  0
LINE
  5
1253
  8
DETAIL
  6
CONTINUOUS
 62
     5
 10
125.5
 20
174.0544279999998
 30
0.0
 11
125.5
 21
0.054428
 31
0.0
  0
LINE
  5
1254
  8
DETAIL
  6
CONTINUOUS
 62
     5
 10
121.5
 20
-19.945571999999999
 30
0.0
 11
121.5
 21
0.054428
 31
0.0
  0
ARC
  5
1255
  8
DETAIL
  6
CONTINUOUS
 62
     5
 10
47.939999999999991
 20
194.394428
 30
0.0
 40
5.060001999999999
 50
0.000001
 51
90.0
  0
LINE
  5
1256
  8
DETAIL
  6
CONTINUOUS
 62
     5
 10
-125.5
 20
166.054428
 30
0.0
 11
-125.5
 21
174.0544279999998
 31
0.0
  0
CIRCLE
  5
1257
  8
FIX
  6
CONTINUOUS
 62
    11
 10
-105.0
 20
174.0544279999998
 30
0.0
 40
7.5
  0
LINE
  5
1258
  8
DETAIL
  6
CONTINUOUS
 62
     5
 10
125.5
 20
174.0544279999998
 30
0.0
 11
159.4999999999996
 21
174.0544279999998
 31
0.0
  0
LINE
  5
1259
  8
DETAIL
  6
CONTINUOUS
 62
     5
 10
125.5
 20
166.054428
 30
0.0
 11
122.5
 21
166.054428
 31
0.0
  0
LINE
  5
125A
  8
NOTE
  6
CONTINUOUS
 62
     4
 10
280.69977299999982
 20
-325.68324200000001
 30
0.0
 11
714.722488
 21
-325.68324200000001
 31
0.0
  0
LINE
  5
125B
  8
NOTE
  6
CONTINUOUS
 62
     4
 10
1346.1010000000001
 20
355.10926999999992
 30
0.0
 11
400.32159200000001
 21
355.10926999999992
 31
0.0
  0
LINE
  5
125C
  8
DETAIL
  6
CONTINUOUS
 62
     5
 10
122.5
 20
119.554428
 30
0.0
 11
128.4999999999998
 21
119.554428
 31
0.0
  0
LINE
  5
125D
  8
DETAIL
  6
CONTINUOUS
 62
     5
 10
-125.5
 20
166.054428
 30
0.0
 11
87.5
 21
166.054428
 31
0.0
  0
LINE
  5
125E
  8
DETAIL
  6
CONTINUOUS
 62
     5
 10
-125.5
 20
159.054428
 30
0.0
 11
87.5
 21
159.054428
 31
0.0
  0
LINE
  5
125F
  8
DETAIL
  6
CONTINUOUS
 62
     5
 10
-29.0
 20
176.05442799999929
 30
0.0
 11
53.0
 21
176.05442799999929
 31
0.0
  0
TEXT
  5
1260
  8
NOTE
  6
CONTINUOUS
 62
     4
 10
404.69552199999998
 20
392.16542799999979
 30
0.0
 40
64.0
  1
AH 4-âË15ü~22
 41
0.9
  0
LINE
  5
1261
  8
DETAIL
  6
CONTINUOUS
 62
     5
 10
165.0
 20
0.054428
 30
0.0
 11
-165.0
 21
0.054428
 31
0.0
  0
LINE
  5
1262
  8
BASIS
  6
DASHDOT
 62
     6
 10
0.0
 20
221.77614199999991
 30
0.0
 11
0.0
 21
-58.376257999999993
 31
0.0
  0
LINE
  5
1263
  8
DETAIL
  6
CONTINUOUS
 62
     5
 10
-125.5
 20
180.05442799999929
 30
0.0
 11
-125.5
 21
174.0544279999998
 31
0.0
  0
LINE
  5
1264
  8
DETAIL
  6
CONTINUOUS
 62
     5
 10
-212.5
 20
58.554428000000001
 30
0.0
 11
-212.5
 21
163.5544279999994
 31
0.0
  0
LINE
  5
1265
  8
DETAIL
  6
CONTINUOUS
 62
     5
 10
-187.5
 20
56.054428000000001
 30
0.0
 11
-187.5
 21
166.054428
 31
0.0
  0
LINE
  5
1266
  8
DETAIL
  6
CONTINUOUS
 62
     5
 10
-212.5
 20
163.5544279999994
 30
0.0
 11
-187.5
 21
163.5544279999994
 31
0.0
  0
LINE
  5
1267
  8
DETAIL
  6
CONTINUOUS
 62
     5
 10
-212.5
 20
58.554428000000001
 30
0.0
 11
-187.5
 21
58.554428000000001
 31
0.0
  0
LINE
  5
1268
  8
DETAIL
  6
CONTINUOUS
 62
     5
 10
-239.5
 20
160.054428
 30
0.0
 11
-212.5
 21
160.054428
 31
0.0
  0
LINE
  5
1269
  8
DETAIL
  6
CONTINUOUS
 62
     5
 10
-239.5
 20
62.054428000000001
 30
0.0
 11
-212.5
 21
62.054428000000001
 31
0.0
  0
LINE
  5
126A
  8
DETAIL
  6
CONTINUOUS
 62
     5
 10
-187.5
 20
166.054428
 30
0.0
 11
-128.4999999999998
 21
166.054428
 31
0.0
  0
LINE
  5
126B
  8
DETAIL
  6
CONTINUOUS
 62
     5
 10
-187.5
 20
56.054428000000001
 30
0.0
 11
-128.4999999999998
 21
56.054428000000001
 31
0.0
  0
TEXT
  5
126C
  8
NOTE
  6
CONTINUOUS
 62
     4
 10
-397.24838899999992
 20
73.648282999999978
 30
0.0
 40
64.0
  1
EA
 41
0.9
  0
LINE
  5
126D
  8
SIZE
  6
CONTINUOUS
 62
    30
 10
-663.51045099999965
 20
167.5544279999996
 30
0.0
 11
-663.51045099999965
 21
396.338257
 31
0.0
  0
LINE
  5
126E
  8
DETAIL
  6
CONTINUOUS
 62
     5
 10
-128.4999999999998
 20
1.054427999999999
 30
0.0
 11
-128.4999999999998
 21
170.5544279999998
 31
0.0
  0
LINE
  5
126F
  8
BASIS
  6
DASHDOT
 62
     6
 10
-283.68260699999962
 20
111.054428
 30
0.0
 11
-103.86499599999991
 21
111.054428
 31
0.0
  0
LINE
  5
1270
  8
SIZE
  6
CONTINUOUS
 62
    30
 10
-466.06604599999991
 20
-3.9455719999999981
 30
0.0
 11
-466.06604599999991
 21
-141.7053929999999
 31
0.0
  0
LINE
  5
1271
  8
DETAIL
  6
CONTINUOUS
 62
     5
 10
-48.0
 20
170.054428
 30
0.0
 11
72.0
 21
170.054428
 31
0.0
  0
LINE
  5
1272
  8
DETAIL
  6
CONTINUOUS
 62
     5
 10
72.0
 20
170.054428
 30
0.0
 11
72.0
 21
166.054428
 31
0.0
  0
LINE
  5
1273
  8
DETAIL
  6
CONTINUOUS
 62
     5
 10
-48.0
 20
170.054428
 30
0.0
 11
-48.0
 21
166.054428
 31
0.0
  0
LINE
  5
1274
  8
DETAIL
  6
CONTINUOUS
 62
     5
 10
87.5
 20
22.554428000000001
 30
0.0
 11
122.5
 21
22.554428000000001
 31
0.0
  0
LINE
  5
1275
  8
DETAIL
  6
CONTINUOUS
 62
     5
 10
-128.4999999999998
 20
174.0544279999998
 30
0.0
 11
-128.4999999999998
 21
180.054428
 31
0.0
  0
LINE
  5
1276
  8
DETAIL
  6
CONTINUOUS
 62
     5
 10
-125.5
 20
170.5544279999998
 30
0.0
 11
-125.5
 21
0.054428
 31
0.0
  0
LINE
  5
1277
  8
DETAIL
  6
CONTINUOUS
 62
     5
 10
-87.5
 20
174.0544279999998
 30
0.0
 11
-87.5
 21
166.054428
 31
0.0
  0
LINE
  5
1278
  8
DETAIL
  6
CONTINUOUS
 62
     5
 10
-122.5
 20
174.0544279999998
 30
0.0
 11
-122.5
 21
166.054428
 31
0.0
  0
CIRCLE
  5
1279
  8
FIX
  6
CONTINUOUS
 62
    11
 10
105.0
 20
174.0544279999998
 30
0.0
 40
7.5
  0
LINE
  5
127A
  8
DETAIL
  6
CONTINUOUS
 62
     5
 10
-87.5
 20
174.0544279999998
 30
0.0
 11
-122.5
 21
174.0544279999998
 31
0.0
  0
LINE
  5
127B
  8
DETAIL
  6
CONTINUOUS
 62
     5
 10
122.5
 20
119.554428
 30
0.0
 11
122.5
 21
22.554428000000001
 31
0.0
  0
LINE
  5
127C
  8
SIZE
  6
CONTINUOUS
 62
    30
 10
557.384503
 20
170.054428
 30
0.0
 11
557.384503
 21
321.337784
 31
0.0
  0
LINE
  5
127D
  8
SIZE
  6
CONTINUOUS
 62
    30
 10
421.45282900000001
 20
174.0544279999998
 30
0.0
 11
421.45282900000001
 21
324.65579799999989
 31
0.0
  0
LINE
  5
127E
  8
DETAIL
  6
CONTINUOUS
 62
     5
 10
122.5
 20
166.054428
 30
0.0
 11
125.5
 21
166.054428
 31
0.0
  0
LINE
  5
127F
  8
DETAIL
  6
CONTINUOUS
 62
     5
 10
128.4999999999998
 20
170.5544279999998
 30
0.0
 11
128.4999999999998
 21
119.554428
 31
0.0
  0
LINE
  5
1280
  8
SIZE
  6
CONTINUOUS
 62
    30
 10
-551.58336799999995
 20
160.054428
 30
0.0
 11
-551.58336799999995
 21
356.51154700000001
 31
0.0
  0
TEXT
  5
1281
  8
NOTE
  6
CONTINUOUS
 62
     4
 10
317.04850800000008
 20
-292.23145199999999
 30
0.0
 40
64.0
  1
8-âË5ü~8
 41
0.9
  0
LINE
  5
1282
  8
DETAIL
  6
CONTINUOUS
 62
     5
 10
-128.4999999999998
 20
22.554428000000001
 30
0.0
 11
-125.5
 21
22.554428000000001
 31
0.0
  0
LINE
  5
1283
  8
DETAIL
  6
CONTINUOUS
 62
     5
 10
-153.5
 20
0.054428
 30
0.0
 11
-153.5
 21
1.054427999999999
 31
0.0
  0
LINE
  5
1284
  8
DETAIL
  6
CONTINUOUS
 62
     5
 10
-128.4999999999998
 20
1.054427999999999
 30
0.0
 11
-153.5
 21
1.054427999999999
 31
0.0
  0
LINE
  5
1285
  8
NOTE
  6
CONTINUOUS
 62
     4
 10
-105.0
 20
166.5544279999996
 30
0.0
 11
-317.69737400000002
 21
-131.7740399999999
 31
0.0
  0
LINE
  5
1286
  8
DETAIL
  6
CONTINUOUS
 62
     5
 10
125.5
 20
22.554428000000001
 30
0.0
 11
128.4999999999998
 21
22.554428000000001
 31
0.0
  0
LINE
  5
1287
  8
DETAIL
  6
CONTINUOUS
 62
     5
 10
128.4999999999998
 20
119.554428
 30
0.0
 11
128.4999999999998
 21
22.554428000000001
 31
0.0
  0
LINE
  5
1288
  8
DETAIL
  6
CONTINUOUS
 62
     5
 10
53.0
 20
170.054428
 30
0.0
 11
53.0
 21
194.394428
 31
0.0
  0
LINE
  5
1289
  8
DETAIL
  6
CONTINUOUS
 62
     5
 10
-29.0
 20
170.054428
 30
0.0
 11
-29.0
 21
194.394428
 31
0.0
  0
TEXT
  5
128A
  8
NOTE
  6
CONTINUOUS
 62
     4
 10
1016.028
 20
392.95814000000001
 30
0.0
 40
64.0
  1
(2ô_Æ¦éÞ)
 41
0.9
  0
LINE
  5
128B
  8
SIZE
  6
BYBLOCK
 62
    30
 10
53.0
 20
214.39442799999989
 30
0.0
 11
53.0
 21
522.73677099999998
 31
0.0
  0
LINE
  5
128C
  8
SIZE
  6
BYBLOCK
 62
    30
 10
-29.0
 20
214.39442799999989
 30
0.0
 11
-29.0
 21
522.73677099999998
 31
0.0
  0
LINE
  5
128D
  8
SIZE
  6
CONTINUOUS
 62
    30
 10
-31.0
 20
492.73677099999992
 30
0.0
 11
-33.0
 21
492.73677099999992
 31
0.0
  0
LINE
  5
128E
  8
SIZE
  6
CONTINUOUS
 62
    30
 10
55.0
 20
492.73677099999992
 30
0.0
 11
57.0
 21
492.73677099999992
 31
0.0
  0
LINE
  5
128F
  8
SIZE
  6
CONTINUOUS
 62
    30
 10
-29.0
 20
492.73677099999992
 30
0.0
 11
53.0
 21
492.73677099999992
 31
0.0
  0
TEXT
  5
1290
  8
SIZE
  6
BYBLOCK
 62
    30
 10
181.2044809999999
 20
524.73677099999986
 30
0.0
 40
64.0
  1
âË82
 41
0.9
  0
LINE
  5
1291
  8
SIZE
  6
BYBLOCK
 62
    30
 10
0.0
 20
-78.376257999999964
 30
0.0
 11
0.0
 21
-288.53873599999991
 31
0.0
  0
LINE
  5
1292
  8
SIZE
  6
BYBLOCK
 62
    30
 10
-105.0
 20
126.0544279999999
 30
0.0
 11
-105.0
 21
-288.53873599999991
 31
0.0
  0
LINE
  5
1293
  8
SIZE
  6
BYBLOCK
 62
    30
 10
-107.0
 20
-258.53873599999991
 30
0.0
 11
-109.0
 21
-258.53873599999991
 31
0.0
  0
LINE
  5
1294
  8
SIZE
  6
BYBLOCK
 62
    30
 10
2.0
 20
-258.53873599999991
 30
0.0
 11
4.0
 21
-258.53873599999991
 31
0.0
  0
LINE
  5
1295
  8
SIZE
  6
BYBLOCK
 62
    30
 10
-105.0
 20
-258.53873599999991
 30
0.0
 11
0.0
 21
-258.53873599999991
 31
0.0
  0
TEXT
  5
1296
  8
SIZE
  6
BYBLOCK
 62
    30
 10
-337.27530899999982
 20
-226.538736
 30
0.0
 40
64.0
  1
105
 41
0.9
  0
LINE
  5
1297
  8
SIZE
  6
BYBLOCK
 62
    30
 10
-173.5
 20
1.054427999999999
 30
0.0
 11
-496.0660459999998
 21
1.054427999999999
 31
0.0
  0
LINE
  5
1298
  8
SIZE
  6
BYBLOCK
 62
    30
 10
-148.5
 20
56.054428000000001
 30
0.0
 11
-496.0660459999998
 21
56.054428000000001
 31
0.0
  0
LINE
  5
1299
  8
SIZE
  6
BYBLOCK
 62
    30
 10
-466.06604599999991
 20
58.054428000000001
 30
0.0
 11
-466.06604599999991
 21
60.054428000000001
 31
0.0
  0
LINE
  5
129A
  8
SIZE
  6
BYBLOCK
 62
    30
 10
-466.06604599999991
 20
-0.9455719999999999
 30
0.0
 11
-466.06604599999991
 21
-2.9455719999999981
 31
0.0
  0
LINE
  5
129B
  8
SIZE
  6
BYBLOCK
 62
    30
 10
-466.06604599999991
 20
56.054428000000001
 30
0.0
 11
-466.06604599999991
 21
1.054427999999999
 31
0.0
  0
TEXT
  5
129C
  8
SIZE
  6
BYBLOCK
 62
    30
 10
-498.06604599999997
 20
-128.3670799999999
 30
0.0
 40
64.0
  1
55
 50
90.0
 41
0.9
  0
LINE
  5
129D
  8
SIZE
  6
BYBLOCK
 62
    30
 10
-262.5
 20
62.054428000000001
 30
0.0
 11
-581.58336799999995
 21
62.054428000000001
 31
0.0
  0
LINE
  5
129E
  8
SIZE
  6
BYBLOCK
 62
    30
 10
-262.5
 20
160.054428
 30
0.0
 11
-581.58336799999995
 21
160.054428
 31
0.0
  0
LINE
  5
129F
  8
SIZE
  6
BYBLOCK
 62
    30
 10
-551.58336799999995
 20
162.054428
 30
0.0
 11
-551.58336799999995
 21
164.054428
 31
0.0
  0
LINE
  5
12A0
  8
SIZE
  6
BYBLOCK
 62
    30
 10
-551.58336799999995
 20
60.054428000000001
 30
0.0
 11
-551.58336799999995
 21
58.054428000000001
 31
0.0
  0
LINE
  5
12A1
  8
SIZE
  6
BYBLOCK
 62
    30
 10
-551.58336799999995
 20
160.054428
 30
0.0
 11
-551.58336799999995
 21
62.054428000000001
 31
0.0
  0
TEXT
  5
12A2
  8
SIZE
  6
BYBLOCK
 62
    30
 10
-583.58336799999995
 20
190.30085600000001
 30
0.0
 40
64.0
  1
âË98
 50
90.0
 41
0.9
  0
LINE
  5
12A3
  8
SIZE
  6
BYBLOCK
 62
    30
 10
-232.5
 20
58.554428000000001
 30
0.0
 11
-693.51045099999999
 21
58.554428000000001
 31
0.0
  0
LINE
  5
12A4
  8
SIZE
  6
BYBLOCK
 62
    30
 10
-232.5
 20
163.5544279999994
 30
0.0
 11
-693.51045099999999
 21
163.5544279999994
 31
0.0
  0
LINE
  5
12A5
  8
SIZE
  6
BYBLOCK
 62
    30
 10
-663.51045099999965
 20
165.5544279999998
 30
0.0
 11
-663.51045099999965
 21
167.5544279999996
 31
0.0
  0
LINE
  5
12A6
  8
SIZE
  6
BYBLOCK
 62
    30
 10
-663.51045099999965
 20
56.554428000000001
 30
0.0
 11
-663.51045099999965
 21
54.554428000000001
 31
0.0
  0
LINE
  5
12A7
  8
SIZE
  6
BYBLOCK
 62
    30
 10
-663.51045099999965
 20
163.5544279999994
 30
0.0
 11
-663.51045099999965
 21
58.554428000000001
 31
0.0
  0
TEXT
  5
12A8
  8
SIZE
  6
BYBLOCK
 62
    30
 10
-695.51045099999988
 20
190.99336400000001
 30
0.0
 40
64.0
  1
âË105
 50
90.0
 41
0.9
  0
LINE
  5
12A9
  8
SIZE
  6
BYBLOCK
 62
    30
 10
-185.0
 20
0.054428
 30
0.0
 11
-765.19408899999985
 21
0.054428
 31
0.0
  0
LINE
  5
12AA
  8
SIZE
  6
BYBLOCK
 62
    30
 10
-303.6826069999999
 20
111.054428
 30
0.0
 11
-765.19408899999985
 21
111.054428
 31
0.0
  0
LINE
  5
12AB
  8
SIZE
  6
BYBLOCK
 62
    30
 10
-735.19408899999985
 20
2.0544279999999961
 30
0.0
 11
-735.19408899999985
 21
55.554428000000001
 31
0.0
  0
LINE
  5
12AC
  8
SIZE
  6
BYBLOCK
 62
    30
 10
-735.19408899999985
 20
109.054428
 30
0.0
 11
-735.19408899999985
 21
55.554428000000001
 31
0.0
  0
TEXT
  5
12AD
  8
SIZE
  6
BYBLOCK
 62
    30
 10
-767.19408899999985
 20
4.811570999999998
 30
0.0
 40
64.0
  1
111
 50
90.0
 41
0.9
  0
LINE
  5
12AE
  8
SIZE
  6
BYBLOCK
 62
    30
 10
-185.0
 20
0.054428
 30
0.0
 11
-875.86356499999999
 21
0.054428
 31
0.0
  0
LINE
  5
12AF
  8
SIZE
  6
BYBLOCK
 62
    30
 10
107.4999999999999
 20
166.054428
 30
0.0
 11
451.45282900000001
 21
166.054428
 31
0.0
  0
LINE
  5
12B0
  8
SIZE
  6
BYBLOCK
 62
    30
 10
182.5
 20
174.0544279999998
 30
0.0
 11
451.45282900000001
 21
174.0544279999998
 31
0.0
  0
LINE
  5
12B1
  8
SIZE
  6
BYBLOCK
 62
    30
 10
421.45282900000001
 20
176.05442799999929
 30
0.0
 11
421.45282900000001
 21
178.0544279999998
 31
0.0
  0
LINE
  5
12B2
  8
SIZE
  6
BYBLOCK
 62
    30
 10
421.45282900000001
 20
164.054428
 30
0.0
 11
421.45282900000001
 21
162.054428
 31
0.0
  0
LINE
  5
12B3
  8
SIZE
  6
BYBLOCK
 62
    30
 10
421.45282900000001
 20
174.0544279999998
 30
0.0
 11
421.45282900000001
 21
166.054428
 31
0.0
  0
TEXT
  5
12B4
  8
SIZE
  6
BYBLOCK
 62
    30
 10
389.45282900000001
 20
250.94212399999989
 30
0.0
 40
64.0
  1
8
 50
90.0
 41
0.9
  0
LINE
  5
12B5
  8
SIZE
  6
BYBLOCK
 62
    30
 10
107.4999999999999
 20
166.054428
 30
0.0
 11
587.384503
 21
166.054428
 31
0.0
  0
LINE
  5
12B6
  8
SIZE
  6
BYBLOCK
 62
    30
 10
92.0
 20
170.054428
 30
0.0
 11
587.384503
 21
170.054428
 31
0.0
  0
LINE
  5
12B7
  8
SIZE
  6
BYBLOCK
 62
    30
 10
557.384503
 20
172.054428
 30
0.0
 11
557.384503
 21
174.0544279999998
 31
0.0
  0
LINE
  5
12B8
  8
SIZE
  6
BYBLOCK
 62
    30
 10
557.384503
 20
164.054428
 30
0.0
 11
557.384503
 21
162.054428
 31
0.0
  0
LINE
  5
12B9
  8
SIZE
  6
BYBLOCK
 62
    30
 10
557.384503
 20
170.054428
 30
0.0
 11
557.384503
 21
166.054428
 31
0.0
  0
TEXT
  5
12BA
  8
SIZE
  6
BYBLOCK
 62
    30
 10
525.38450299999988
 20
247.570696
 30
0.0
 40
64.0
  1
4
 50
90.0
 41
0.9
  0
LINE
  5
12BB
  8
SIZE
  6
BYBLOCK
 62
    30
 10
185.0
 20
0.054428
 30
0.0
 11
587.384503
 21
0.054428
 31
0.0
  0
LINE
  5
12BC
  8
SIZE
  6
BYBLOCK
 62
    30
 10
107.4999999999999
 20
166.054428
 30
0.0
 11
587.384503
 21
166.054428
 31
0.0
  0
LINE
  5
12BD
  8
SIZE
  6
BYBLOCK
 62
    30
 10
557.384503
 20
2.0544279999999961
 30
0.0
 11
557.384503
 21
83.054427999999987
 31
0.0
  0
LINE
  5
12BE
  8
SIZE
  6
BYBLOCK
 62
    30
 10
557.384503
 20
164.054428
 30
0.0
 11
557.384503
 21
83.054427999999987
 31
0.0
  0
TEXT
  5
12BF
  8
SIZE
  6
BYBLOCK
 62
    30
 10
525.38450299999988
 20
15.854428
 30
0.0
 40
64.0
  1
166
 50
90.0
 41
0.9
  0
LINE
  5
12C0
  8
SIZE
  6
BYBLOCK
 62
    30
 10
185.0
 20
0.054428
 30
0.0
 11
735.78780800000004
 21
0.054428
 31
0.0
  0
LINE
  5
12C1
  8
SIZE
  6
BYBLOCK
 62
    30
 10
36.852012000000002
 20
204.05441499999969
 30
0.0
 11
735.78780800000004
 21
204.05441499999969
 31
0.0
  0
LINE
  5
12C2
  8
SIZE
  6
BYBLOCK
 62
    30
 10
705.78780800000004
 20
2.0544279999999961
 30
0.0
 11
705.78780800000004
 21
102.054422
 31
0.0
  0
LINE
  5
12C3
  8
SIZE
  6
BYBLOCK
 62
    30
 10
705.78780800000004
 20
202.05441499999981
 30
0.0
 11
705.78780800000004
 21
102.054422
 31
0.0
  0
TEXT
  5
12C4
  8
SIZE
  6
BYBLOCK
 62
    30
 10
673.78780800000004
 20
26.625849999999989
 30
0.0
 40
64.0
  1
204
 50
90.0
 41
0.9
  0
LINE
  5
12C5
  8
SIZE
  6
BYBLOCK
 62
    30
 10
155.13491300000001
 20
-19.945571999999999
 30
0.0
 11
735.78780800000004
 21
-19.945571999999999
 31
0.0
  0
LINE
  5
12C6
  8
SIZE
  6
BYBLOCK
 62
    30
 10
185.0
 20
0.054428
 30
0.0
 11
735.78780800000004
 21
0.054428
 31
0.0
  0
LINE
  5
12C7
  8
SIZE
  6
BYBLOCK
 62
    30
 10
705.78780800000004
 20
2.0544279999999961
 30
0.0
 11
705.78780800000004
 21
4.054427999999997
 31
0.0
  0
LINE
  5
12C8
  8
SIZE
  6
BYBLOCK
 62
    30
 10
705.78780800000004
 20
-21.945571999999991
 30
0.0
 11
705.78780800000004
 21
-23.945571999999991
 31
0.0
  0
LINE
  5
12C9
  8
SIZE
  6
BYBLOCK
 62
    30
 10
705.78780800000004
 20
0.054428
 30
0.0
 11
705.78780800000004
 21
-19.945571999999999
 31
0.0
  0
TEXT
  5
12CA
  8
SIZE
  6
BYBLOCK
 62
    30
 10
673.78780800000004
 20
-147.17984699999991
 30
0.0
 40
64.0
  1
20
 50
90.0
 41
0.9
  0
LINE
  5
12CB
  8
SIZE
  6
BYBLOCK
 62
    30
 10
-125.5
 20
198.054428
 30
0.0
 11
-125.5
 21
887.12273000000005
 31
0.0
  0
LINE
  5
12CC
  8
SIZE
  6
BYBLOCK
 62
    30
 10
125.5
 20
194.054428
 30
0.0
 11
125.5
 21
887.12273000000005
 31
0.0
  0
LINE
  5
12CD
  8
SIZE
  6
CONTINUOUS
 62
    30
 10
-123.5
 20
857.12273000000005
 30
0.0
 11
0.0
 21
857.12273000000005
 31
0.0
  0
LINE
  5
12CE
  8
SIZE
  6
CONTINUOUS
 62
    30
 10
123.5
 20
857.12273000000005
 30
0.0
 11
0.0
 21
857.12273000000005
 31
0.0
  0
TEXT
  5
12CF
  8
SIZE
  6
CONTINUOUS
 62
    30
 10
-86.391818000000015
 20
889.12273000000005
 30
0.0
 40
64.0
  1
üá251
 41
0.9
  0
LINE
  5
12D0
  8
SIZE
  6
BYBLOCK
 62
    30
 10
-125.5
 20
192.82711399999991
 30
0.0
 11
-125.5
 21
887.12273000000005
 31
0.0
  0
LINE
  5
12D1
  8
SIZE
  6
CONTINUOUS
 62
    30
 10
-123.5
 20
857.12273000000005
 30
0.0
 11
-121.5
 21
857.12273000000005
 31
0.0
  0
LINE
  5
12D2
  8
SIZE
  6
BYBLOCK
 62
    30
 10
12.0
 20
233.7921979999999
 30
0.0
 11
12.0
 21
386.543948
 31
0.0
  0
LINE
  5
12D3
  8
SIZE
  6
BYBLOCK
 62
    30
 10
14.0
 20
356.543948
 30
0.0
 11
16.0
 21
356.543948
 31
0.0
  0
TEXT
  5
12D4
  8
SIZE
  6
BYBLOCK
 62
    30
 10
196.437083
 20
388.543948
 30
0.0
 40
64.0
  1
12
 41
0.9
  0
LINE
  5
12D5
  8
SIZE
  6
BYBLOCK
 62
    30
 10
105.0
 20
214.0544279999998
 30
0.0
 11
105.0
 21
624.18775900000003
 31
0.0
  0
LINE
  5
12D6
  8
SIZE
  6
BYBLOCK
 62
    30
 10
-105.0
 20
214.0544279999998
 30
0.0
 11
-105.0
 21
624.18775900000003
 31
0.0
  0
LINE
  5
12D7
  8
SIZE
  6
CONTINUOUS
 62
    30
 10
103.0
 20
594.18775900000003
 30
0.0
 11
0.0
 21
594.18775900000003
 31
0.0
  0
LINE
  5
12D8
  8
SIZE
  6
CONTINUOUS
 62
    30
 10
-103.0
 20
594.18775900000003
 30
0.0
 11
0.0
 21
594.18775900000003
 31
0.0
  0
TEXT
  5
12D9
  8
SIZE
  6
CONTINUOUS
 62
    30
 10
-68.571429000000009
 20
626.18775900000003
 30
0.0
 40
64.0
  1
210
 41
0.9
  0
LINE
  5
12DA
  8
SIZE
  6
BYBLOCK
 62
    30
 10
142.5
 20
214.75058199999981
 30
0.0
 11
142.5
 21
751.52869999999984
 31
0.0
  0
LINE
  5
12DB
  8
SIZE
  6
BYBLOCK
 62
    30
 10
-142.5
 20
214.75058199999981
 30
0.0
 11
-142.5
 21
751.52869999999984
 31
0.0
  0
LINE
  5
12DC
  8
SIZE
  6
CONTINUOUS
 62
    30
 10
140.5
 20
721.52869999999984
 30
0.0
 11
0.0
 21
721.52869999999984
 31
0.0
  0
LINE
  5
12DD
  8
SIZE
  6
CONTINUOUS
 62
    30
 10
-140.5
 20
721.52869999999984
 30
0.0
 11
0.0
 21
721.52869999999984
 31
0.0
  0
TEXT
  5
12DE
  8
SIZE
  6
CONTINUOUS
 62
    30
 10
-74.057143000000025
 20
753.52869999999984
 30
0.0
 40
64.0
  1
285
 41
0.9
  0
LINE
  5
12DF
  8
SIZE
  6
BYBLOCK
 62
    30
 10
165.00000700000001
 20
-26.210712999999998
 30
0.0
 11
165.00000700000001
 21
-715.13707099999999
 31
0.0
  0
LINE
  5
12E0
  8
SIZE
  6
BYBLOCK
 62
    30
 10
-165.00000700000001
 20
-26.210712999999998
 30
0.0
 11
-165.00000700000001
 21
-715.13707099999999
 31
0.0
  0
LINE
  5
12E1
  8
SIZE
  6
BYBLOCK
 62
    30
 10
163.00000700000001
 20
-685.13707099999999
 30
0.0
 11
0.0
 21
-685.13707099999999
 31
0.0
  0
LINE
  5
12E2
  8
SIZE
  6
BYBLOCK
 62
    30
 10
-163.00000700000001
 20
-685.13707099999999
 30
0.0
 11
0.0
 21
-685.13707099999999
 31
0.0
  0
TEXT
  5
12E3
  8
SIZE
  6
BYBLOCK
 62
    30
 10
-106.6971429999999
 20
-653.13707099999999
 30
0.0
 40
64.0
  1
üá330
 41
0.9
  0
LINE
  5
12E4
  8
SIZE
  6
BYBLOCK
 62
    30
 10
-141.5
 20
-40.0
 30
0.0
 11
-141.5
 21
-586.16231600000003
 31
0.0
  0
LINE
  5
12E5
  8
SIZE
  6
BYBLOCK
 62
    30
 10
141.5
 20
-40.0
 30
0.0
 11
141.5
 21
-586.16231600000003
 31
0.0
  0
LINE
  5
12E6
  8
SIZE
  6
BYBLOCK
 62
    30
 10
-139.5
 20
-556.16231600000003
 30
0.0
 11
0.0
 21
-556.16231600000003
 31
0.0
  0
LINE
  5
12E7
  8
SIZE
  6
BYBLOCK
 62
    30
 10
139.5
 20
-556.16231600000003
 30
0.0
 11
0.0
 21
-556.16231600000003
 31
0.0
  0
TEXT
  5
12E8
  8
SIZE
  6
BYBLOCK
 62
    30
 10
-79.803834999999978
 20
-524.16231600000003
 30
0.0
 40
64.0
  1
283
 41
0.9
  0
LINE
  5
12E9
  8
SIZE
  6
BYBLOCK
 62
    30
 10
-85.0
 20
-40.0
 30
0.0
 11
-85.0
 21
-445.16050899999999
 31
0.0
  0
LINE
  5
12EA
  8
SIZE
  6
BYBLOCK
 62
    30
 10
85.0
 20
-40.0
 30
0.0
 11
85.0
 21
-445.16050899999999
 31
0.0
  0
LINE
  5
12EB
  8
SIZE
  6
BYBLOCK
 62
    30
 10
-83.0
 20
-415.16050899999999
 30
0.0
 11
0.0
 21
-415.16050899999999
 31
0.0
  0
LINE
  5
12EC
  8
SIZE
  6
BYBLOCK
 62
    30
 10
83.0
 20
-415.16050899999999
 30
0.0
 11
0.0
 21
-415.16050899999999
 31
0.0
  0
TEXT
  5
12ED
  8
SIZE
  6
BYBLOCK
 62
    30
 10
-68.571429000000009
 20
-383.16050899999999
 30
0.0
 40
64.0
  1
170
 41
0.9
  0
CIRCLE
  5
12EE
  8
SIZE
  6
CONTINUOUS
 62
    30
 10
85.0
 20
-415.16050899999999
 30
0.0
 40
6.0
  0
CIRCLE
  5
12EF
  8
SIZE
  6
CONTINUOUS
 62
    30
 10
-85.0
 20
-415.16050899999999
 30
0.0
 40
6.0
  0
CIRCLE
  5
12F0
  8
SIZE
  6
CONTINUOUS
 62
    30
 10
141.5
 20
-556.16231600000003
 30
0.0
 40
6.0
  0
CIRCLE
  5
12F1
  8
SIZE
  6
CONTINUOUS
 62
    30
 10
-141.5
 20
-556.16231600000003
 30
0.0
 40
6.0
  0
CIRCLE
  5
12F2
  8
SIZE
  6
CONTINUOUS
 62
    30
 10
-165.00000700000001
 20
-685.13707099999999
 30
0.0
 40
6.0
  0
CIRCLE
  5
12F3
  8
SIZE
  6
CONTINUOUS
 62
    30
 10
165.00000700000001
 20
-685.13707099999999
 30
0.0
 40
6.0
  0
CIRCLE
  5
12F4
  8
SIZE
  6
CONTINUOUS
 62
    30
 10
-142.5
 20
721.52869999999984
 30
0.0
 40
6.0
  0
CIRCLE
  5
12F5
  8
SIZE
  6
CONTINUOUS
 62
    30
 10
142.5
 20
721.52869999999984
 30
0.0
 40
6.0
  0
CIRCLE
  5
12F6
  8
SIZE
  6
CONTINUOUS
 62
    30
 10
-105.0
 20
594.18775900000003
 30
0.0
 40
6.0
  0
CIRCLE
  5
12F7
  8
SIZE
  6
CONTINUOUS
 62
    30
 10
105.0
 20
594.18775900000003
 30
0.0
 40
6.0
  0
CIRCLE
  5
12F8
  8
SIZE
  6
CONTINUOUS
 62
    30
 10
12.0
 20
356.543948
 30
0.0
 40
6.0
  0
CIRCLE
  5
12F9
  8
SIZE
  6
CONTINUOUS
 62
    30
 10
125.5
 20
857.12273000000005
 30
0.0
 40
6.0
  0
CIRCLE
  5
12FA
  8
SIZE
  6
CONTINUOUS
 62
    30
 10
705.78780800000004
 20
-19.945571999999999
 30
0.0
 40
6.0
  0
CIRCLE
  5
12FB
  8
SIZE
  6
CONTINUOUS
 62
    30
 10
705.78780800000004
 20
0.054428
 30
0.0
 40
6.0
  0
CIRCLE
  5
12FC
  8
SIZE
  6
CONTINUOUS
 62
    30
 10
705.78780800000004
 20
204.05441499999969
 30
0.0
 40
6.0
  0
CIRCLE
  5
12FD
  8
SIZE
  6
CONTINUOUS
 62
    30
 10
705.78780800000004
 20
0.054428
 30
0.0
 40
6.0
  0
CIRCLE
  5
12FE
  8
SIZE
  6
CONTINUOUS
 62
    30
 10
557.384503
 20
166.054428
 30
0.0
 40
6.0
  0
CIRCLE
  5
12FF
  8
SIZE
  6
CONTINUOUS
 62
    30
 10
557.384503
 20
0.054428
 30
0.0
 40
6.0
  0
CIRCLE
  5
1300
  8
SIZE
  6
CONTINUOUS
 62
    30
 10
557.384503
 20
166.054428
 30
0.0
 40
6.0
  0
CIRCLE
  5
1301
  8
SIZE
  6
CONTINUOUS
 62
    30
 10
557.384503
 20
170.054428
 30
0.0
 40
6.0
  0
CIRCLE
  5
1302
  8
SIZE
  6
CONTINUOUS
 62
    30
 10
421.45282900000001
 20
166.054428
 30
0.0
 40
6.0
  0
CIRCLE
  5
1303
  8
SIZE
  6
CONTINUOUS
 62
    30
 10
421.45282900000001
 20
174.0544279999998
 30
0.0
 40
6.0
  0
CIRCLE
  5
1304
  8
SIZE
  6
CONTINUOUS
 62
    30
 10
-735.19408899999985
 20
111.054428
 30
0.0
 40
6.0
  0
CIRCLE
  5
1305
  8
SIZE
  6
CONTINUOUS
 62
    30
 10
-735.19408899999985
 20
0.054428
 30
0.0
 40
6.0
  0
CIRCLE
  5
1306
  8
SIZE
  6
CONTINUOUS
 62
    30
 10
-663.51045099999965
 20
58.554428000000001
 30
0.0
 40
6.0
  0
CIRCLE
  5
1307
  8
SIZE
  6
CONTINUOUS
 62
    30
 10
-663.51045099999965
 20
163.5544279999994
 30
0.0
 40
6.0
  0
CIRCLE
  5
1308
  8
SIZE
  6
CONTINUOUS
 62
    30
 10
-551.58336799999995
 20
62.054428000000001
 30
0.0
 40
6.0
  0
CIRCLE
  5
1309
  8
SIZE
  6
CONTINUOUS
 62
    30
 10
-551.58336799999995
 20
160.054428
 30
0.0
 40
6.0
  0
CIRCLE
  5
130A
  8
SIZE
  6
CONTINUOUS
 62
    30
 10
-466.06604599999991
 20
1.054427999999999
 30
0.0
 40
6.0
  0
CIRCLE
  5
130B
  8
SIZE
  6
CONTINUOUS
 62
    30
 10
-466.06604599999991
 20
56.054428000000001
 30
0.0
 40
6.0
  0
CIRCLE
  5
130C
  8
SIZE
  6
CONTINUOUS
 62
    30
 10
0.0
 20
-258.53873599999991
 30
0.0
 40
6.0
  0
CIRCLE
  5
130D
  8
SIZE
  6
CONTINUOUS
 62
    30
 10
-105.0
 20
-258.53873599999991
 30
0.0
 40
6.0
  0
CIRCLE
  5
130E
  8
SIZE
  6
CONTINUOUS
 62
    30
 10
53.0
 20
492.73677099999992
 30
0.0
 40
6.0
  0
CIRCLE
  5
130F
  8
SIZE
  6
CONTINUOUS
 62
    30
 10
-29.0
 20
492.73677099999992
 30
0.0
 40
6.0
  0
LINE
  5
1310
  8
NOTE
  6
CONTINUOUS
 62
     4
 10
105.0
 20
154.0544279999996
 30
0.0
 11
105.0
 21
194.054428
 31
0.0
  0
LINE
  5
1311
  8
NOTE
  6
CONTINUOUS
 62
     4
 10
85.0
 20
174.0544279999998
 30
0.0
 11
125.0
 21
174.0544279999998
 31
0.0
  0
LINE
  5
1312
  8
NOTE
  6
CONTINUOUS
 62
     4
 10
-105.0
 20
154.0544279999996
 30
0.0
 11
-105.0
 21
194.054428
 31
0.0
  0
LINE
  5
1313
  8
NOTE
  6
CONTINUOUS
 62
     4
 10
-85.0
 20
174.0544279999998
 30
0.0
 11
-125.0
 21
174.0544279999998
 31
0.0
  0
LINE
  5
1314
  8
NOTE
  6
CONTINUOUS
 62
     4
 10
142.5
 20
154.0544279999996
 30
0.0
 11
142.5
 21
194.054428
 31
0.0
  0
LINE
  5
1315
  8
NOTE
  6
CONTINUOUS
 62
     4
 10
122.5
 20
174.0544279999998
 30
0.0
 11
162.5
 21
174.0544279999998
 31
0.0
  0
LINE
  5
1316
  8
NOTE
  6
CONTINUOUS
 62
     4
 10
-142.5
 20
154.0544279999996
 30
0.0
 11
-142.5
 21
194.054428
 31
0.0
  0
LINE
  5
1317
  8
NOTE
  6
CONTINUOUS
 62
     4
 10
-122.5
 20
174.0544279999998
 30
0.0
 11
-162.5
 21
174.0544279999998
 31
0.0
  0
LINE
  5
1318
  8
NOTE
  6
CONTINUOUS
 62
     4
 10
-105.0
 20
146.054428
 30
0.0
 11
-105.0
 21
186.054428
 31
0.0
  0
LINE
  5
1319
  8
NOTE
  6
CONTINUOUS
 62
     4
 10
-85.0
 20
166.054428
 30
0.0
 11
-125.0
 21
166.054428
 31
0.0
  0
LINE
  5
131A
  8
NOTE
  6
CONTINUOUS
 62
     4
 10
-141.5
 20
-19.945571999999999
 30
0.0
 11
-141.5
 21
20.054428000000001
 31
0.0
  0
LINE
  5
131B
  8
NOTE
  6
CONTINUOUS
 62
     4
 10
-161.5
 20
0.054428
 30
0.0
 11
-121.5
 21
0.054428
 31
0.0
  0
LINE
  5
131C
  8
NOTE
  6
CONTINUOUS
 62
     4
 10
-85.0
 20
-19.945571999999999
 30
0.0
 11
-85.0
 21
20.054428000000001
 31
0.0
  0
LINE
  5
131D
  8
NOTE
  6
CONTINUOUS
 62
     4
 10
-105.0
 20
0.054428
 30
0.0
 11
-65.0
 21
0.054428
 31
0.0
  0
LINE
  5
131E
  8
NOTE
  6
CONTINUOUS
 62
     4
 10
85.0
 20
-19.945571999999999
 30
0.0
 11
85.0
 21
20.054428000000001
 31
0.0
  0
LINE
  5
131F
  8
NOTE
  6
CONTINUOUS
 62
     4
 10
65.0
 20
0.054428
 30
0.0
 11
105.0
 21
0.054428
 31
0.0
  0
LINE
  5
1320
  8
NOTE
  6
CONTINUOUS
 62
     4
 10
141.5
 20
-19.945571999999999
 30
0.0
 11
141.5
 21
20.054428000000001
 31
0.0
  0
LINE
  5
1321
  8
NOTE
  6
CONTINUOUS
 62
     4
 10
121.5
 20
0.054428
 30
0.0
 11
161.5
 21
0.054428
 31
0.0
  0
LINE
  5
1322
  8
DETAIL
  6
CONTINUOUS
 62
     5
 10
-125.5
 20
180.054428
 30
0.0
 11
-128.4999999999998
 21
180.054428
 31
0.0
  0
LINE
  5
1323
  8
DETAIL
  6
CONTINUOUS
 62
     5
 10
-239.5
 20
62.054428000000001
 30
0.0
 11
-239.5
 21
160.054428
 31
0.0
  0
CIRCLE
  5
1324
  8
SIZE
  6
CONTINUOUS
 62
    30
 10
0.0
 20
356.543948
 30
0.0
 40
6.0
  0
LINE
  5
1325
  8
SIZE
  6
BYBLOCK
 62
    30
 10
2.0
 20
356.543948
 30
0.0
 11
4.0
 21
356.543948
 31
0.0
  0
LINE
  5
1326
  8
SIZE
  6
CONTINUOUS
 62
    30
 10
0.0000000000000012
 20
241.77614199999991
 30
0.0
 11
0.0000000000000142
 21
453.41286653678247
 31
0.0
  0
LINE
  5
1327
  8
SIZE
  6
CONTINUOUS
 62
    30
 10
-11.99999999999998
 20
423.41286653678242
 30
0.0
 11
-227.49999999999989
 21
423.41286653678242
 31
0.0
  0
LINE
  5
1328
  8
SIZE
  6
CONTINUOUS
 62
    30
 10
-239.49999999999989
 20
423.41286653678242
 30
0.0
 11
-521.89999999999975
 21
423.41286653678242
 31
0.0
  0
TEXT
  5
1329
  8
SIZE
  6
CONTINUOUS
 62
    30
 10
-501.89999999999992
 20
443.41286653678247
 30
0.0
 40
64.0
  1
239.5
 41
0.9
  0
LINE
  5
132A
  8
SIZE
  6
CONTINUOUS
 62
    30
 10
165.0
 20
20.054428000000001
 30
0.0
 11
165.0
 21
1027.42721827075
 31
0.0
  0
LINE
  5
132B
  8
SIZE
  6
CONTINUOUS
 62
    30
 10
-239.5
 20
180.054428
 30
0.0
 11
-239.49999999999989
 21
1027.42721827075
 31
0.0
  0
LINE
  5
132C
  8
SIZE
  6
CONTINUOUS
 62
    30
 10
153.0
 20
997.42721827075047
 30
0.0
 11
-227.49999999999989
 21
997.42721827075047
 31
0.0
  0
TEXT
  5
132D
  8
SIZE
  6
CONTINUOUS
 62
    30
 10
-152.4499999999999
 20
1017.427218270751
 30
0.0
 40
64.0
  1
404.5
 41
0.9
  0
LINE
  5
132E
  8
SIZE
  6
CONTINUOUS
 62
    30
 10
-148.5
 20
180.054428
 30
0.0
 11
-905.86356499999988
 21
180.0544280000002
 31
0.0
  0
LINE
  5
132F
  8
SIZE
  6
CONTINUOUS
 62
    30
 10
-895.86356499999988
 20
0.0544280000000057
 30
0.0
 11
-905.86356499999988
 21
0.0544280000000085
 31
0.0
  0
LINE
  5
1330
  8
SIZE
  6
CONTINUOUS
 62
    30
 10
-875.86356499999999
 20
180.0544280000002
 30
0.0
 11
-875.86356499999999
 21
0.054428
 31
0.0
  0
TEXT
  5
1331
  8
SIZE
  6
CONTINUOUS
 62
    30
 10
-898.11116766965438
 20
23.21596359845157
 30
0.0
 40
64.0
  1
180
 50
90.0
 41
0.9
  0
ARC
  5
1332
  8
DETAIL
  6
CONTINUOUS
 62
     5
 10
-160.65313142131211
 20
-8.4994533355303297
 30
0.0
 40
4.3468685786884
 50
179.9999692155329
 51
234.48040473296439
  0
ARC
  5
1333
  8
DETAIL
  6
CONTINUOUS
 62
     5
 10
-143.85271285375001
 20
15.036754348281431
 30
0.0
 40
33.26411492374222
 50
234.4803248995994
 51
253.5286705122075
  0
ARC
  5
1334
  8
DETAIL
  6
CONTINUOUS
 62
     5
 10
-132.52209515784139
 20
53.358355301539127
 30
0.0
 40
73.225696436334616
 50
253.5285971813862
 51
263.0177691889362
  0
ARC
  5
1335
  8
DETAIL
  6
CONTINUOUS
 62
     5
 10
-125.0001446984809
 20
114.7761173357022
 30
0.0
 40
135.1023578846459
 50
263.01771384064739
 51
265.69788821887312
  0
LINE
  5
1336
  8
SIZE
  6
CONTINUOUS
 62
    30
 10
-212.5
 20
180.054428
 30
0.0
 11
-212.49999999999989
 21
623.42358847417358
 31
0.0
  0
LINE
  5
1337
  8
SIZE
  6
CONTINUOUS
 62
    30
 10
-200.49999999999989
 20
593.42358847417358
 30
0.0
 11
-188.4999999999998
 21
593.42358847417358
 31
0.0
  0
LINE
  5
1338
  8
SIZE
  6
CONTINUOUS
 62
    30
 10
-251.49999999999969
 20
593.42358847417358
 30
0.0
 11
-396.7571428571427
 21
593.42358847417358
 31
0.0
  0
LINE
  5
1339
  8
SIZE
  6
CONTINUOUS
 62
    30
 10
-212.49999999999989
 20
593.42358847417358
 30
0.0
 11
-239.49999999999989
 21
593.42358847417358
 31
0.0
  0
TEXT
  5
133A
  8
SIZE
  6
CONTINUOUS
 62
    30
 10
-376.75714285714281
 20
613.4235884741737
 30
0.0
 40
64.0
  1
27
 41
0.9
  0
LINE
  5
133B
  8
SIZE
  6
CONTINUOUS
 62
    30
 10
-187.5
 20
183.5544279999998
 30
0.0
 11
-187.4999999999998
 21
751.96828418280063
 31
0.0
  0
LINE
  5
133C
  8
SIZE
  6
CONTINUOUS
 62
    30
 10
-175.49999999999989
 20
721.96828418280063
 30
0.0
 11
-163.4999999999998
 21
721.96828418280063
 31
0.0
  0
LINE
  5
133D
  8
SIZE
  6
CONTINUOUS
 62
    30
 10
-251.49999999999969
 20
721.96828418280063
 30
0.0
 11
-396.7571428571427
 21
721.96828418280063
 31
0.0
  0
LINE
  5
133E
  8
SIZE
  6
CONTINUOUS
 62
    30
 10
-187.4999999999998
 20
721.96828418280063
 30
0.0
 11
-239.49999999999989
 21
721.96828418280063
 31
0.0
  0
TEXT
  5
133F
  8
SIZE
  6
CONTINUOUS
 62
    30
 10
-376.75714285714281
 20
741.96828418280063
 30
0.0
 40
64.0
  1
52
 41
0.9
  0
LINE
  5
1340
  8
SIZE
  6
CONTINUOUS
 62
    30
 10
-137.4999999999998
 20
857.42397912022432
 30
0.0
 11
-227.49999999999989
 21
857.42397912022432
 31
0.0
  0
LINE
  5
1341
  8
SIZE
  6
CONTINUOUS
 62
    30
 10
-239.49999999999989
 20
857.42397912022432
 30
0.0
 11
-420.4142857142856
 21
857.42397912022432
 31
0.0
  0
TEXT
  5
1342
  8
SIZE
  6
CONTINUOUS
 62
    30
 10
-400.41428571428571
 20
877.4239791202242
 30
0.0
 40
64.0
  1
114
 41
0.9
  0
LINE
  5
1343
  8
NOTE
  6
CONTINUOUS
 62
     4
 10
-119.46740699999999
 20
128.62607299999991
 30
0.0
 11
-105.356482
 21
166.054428
 31
0.0
  0
LINE
  5
1344
  8
NOTE
  6
CONTINUOUS
 62
     4
 10
-105.356482
 20
166.054428
 30
0.0
 11
-136.29107999999991
 21
140.69598400000001
 31
0.0
  0
LINE
  5
1345
  8
NOTE
  6
CONTINUOUS
 62
     4
 10
147.617694
 20
-39.474975999999998
 30
0.0
 11
141.5
 21
0.054428
 31
0.0
  0
LINE
  5
1346
  8
NOTE
  6
CONTINUOUS
 62
     4
 10
141.5
 20
0.054428
 30
0.0
 11
166.56278
 21
-31.120194000000001
 31
0.0
  0
ARC
  5
1347
  8
DETAIL
  6
CONTINUOUS
 62
     5
 10
160.65313142131211
 20
-8.4994533355303297
 30
0.0
 40
4.3468685786884
 50
305.51959526703553
 51
0.0000307844666481
  0
ARC
  5
1348
  8
DETAIL
  6
CONTINUOUS
 62
     5
 10
143.85271285375001
 20
15.036754348281431
 30
0.0
 40
33.26411492374222
 50
286.47132948779222
 51
305.5196751004006
  0
ARC
  5
1349
  8
DETAIL
  6
CONTINUOUS
 62
     5
 10
132.52209515784139
 20
53.358355301539127
 30
0.0
 40
73.225696436334616
 50
276.98223081106369
 51
286.47140281861363
  0
ARC
  5
134A
  8
DETAIL
  6
CONTINUOUS
 62
     5
 10
125.0001446984809
 20
114.7761173357022
 30
0.0
 40
135.1023578846459
 50
274.3021117811266
 51
276.98228615935238
  0
LINE
  5
134B
  8
NOTE
  6
CONTINUOUS
 62
     4
 10
181.21563399999991
 20
186.5555699999999
 30
0.0
 11
143.257589
 21
173.9386439999999
 31
0.0
  0
LINE
  5
134C
  8
NOTE
  6
CONTINUOUS
 62
     4
 10
143.257589
 20
173.9386439999999
 30
0.0
 11
169.82175799999979
 21
203.844245
 31
0.0
  0
LINE
  5
134D
  8
OUTLINE
  6
CONTINUOUS
 62
     3
 10
165.0
 20
0.054428
 30
0.0
 11
-165.0
 21
0.054428
 31
0.0
  0
LINE
  5
134E
  8
OUTLINE
  6
CONTINUOUS
 62
     3
 10
-125.5
 20
166.054428
 30
0.0
 11
125.5
 21
166.054428
 31
0.0
  0
LINE
  5
134F
  8
OUTLINE
  6
CONTINUOUS
 62
     3
 10
-125.5
 20
166.054428
 30
0.0
 11
-125.5
 21
0.054428
 31
0.0
  0
LINE
  5
1350
  8
OUTLINE
  6
CONTINUOUS
 62
     3
 10
125.5
 20
166.054428
 30
0.0
 11
125.5
 21
0.054428
 31
0.0
  0
TEXT
  5
1351
  8
ETC
  6
CONTINUOUS
 62
    61
 10
1033.9285152125251
 20
675.03980915014085
 30
0.0
 40
50.0
  1
VD-15ZP7
 41
0.9
  0
TEXT
  5
1352
  8
ETC
  6
CONTINUOUS
 62
    61
 10
1029.710885597457
 20
750.89793073945634
 30
0.0
 40
50.0
  1
VD-15Z7-BL
 41
0.9
  0
TEXT
  5
1353
  8
ETC
  6
CONTINUOUS
 62
    61
 10
875.7123309240668
 20
1023.7441572981839
 30
0.0
 40
64.0
  1
VD-15Z7_4
 41
0.9
  0
TEXT
  5
1354
  8
ETC
  6
CONTINUOUS
 62
    61
 10
1020.757881649208
 20
835.18473250536181
 30
0.0
 40
50.0
  1
VD-15Z7
 41
0.9
  0
TEXT
  5
1355
  8
ETC
  6
CONTINUOUS
 62
    61
 10
876.26471592406733
 20
911.18279929818402
 30
0.0
 40
64.0
  1
èÀïCÉ¯
 41
0.9
  0
CIRCLE
  5
1356
  8
SIZE
  6
CONTINUOUS
 62
    30
 10
0.0000000000000123
 20
423.41286653678242
 30
0.0
 40
6.0
  0
LINE
  5
1357
  8
SIZE
  6
CONTINUOUS
 62
    30
 10
0.0000000000000123
 20
423.41286653678242
 30
0.0
 11
-11.99999999999998
 21
423.41286653678242
 31
0.0
  0
CIRCLE
  5
1358
  8
SIZE
  6
CONTINUOUS
 62
    30
 10
-875.86356499999999
 20
0.054428
 30
0.0
 40
10.0
  0
CIRCLE
  5
1359
  8
SIZE
  6
CONTINUOUS
 62
    30
 10
-875.86356499999999
 20
180.0544280000002
 30
0.0
 40
10.0
  0
CIRCLE
  5
135A
  8
SIZE
  6
CONTINUOUS
 62
    30
 10
-239.49999999999989
 20
423.41286653678242
 30
0.0
 40
6.0
  0
LINE
  5
135B
  8
SIZE
  6
CONTINUOUS
 62
    30
 10
-239.49999999999989
 20
423.41286653678242
 30
0.0
 11
-227.49999999999989
 21
423.41286653678242
 31
0.0
  0
CIRCLE
  5
135C
  8
SIZE
  6
CONTINUOUS
 62
    30
 10
-239.49999999999989
 20
593.42358847417358
 30
0.0
 40
6.0
  0
LINE
  5
135D
  8
SIZE
  6
CONTINUOUS
 62
    30
 10
-239.49999999999989
 20
593.42358847417358
 30
0.0
 11
-251.49999999999969
 21
593.42358847417358
 31
0.0
  0
CIRCLE
  5
135E
  8
SIZE
  6
CONTINUOUS
 62
    30
 10
-212.49999999999989
 20
593.42358847417358
 30
0.0
 40
6.0
  0
LINE
  5
135F
  8
SIZE
  6
CONTINUOUS
 62
    30
 10
-212.49999999999989
 20
593.42358847417358
 30
0.0
 11
-200.49999999999989
 21
593.42358847417358
 31
0.0
  0
CIRCLE
  5
1360
  8
SIZE
  6
CONTINUOUS
 62
    30
 10
-239.49999999999989
 20
857.42397912022432
 30
0.0
 40
6.0
  0
LINE
  5
1361
  8
SIZE
  6
CONTINUOUS
 62
    30
 10
-239.49999999999989
 20
857.42397912022432
 30
0.0
 11
-227.49999999999989
 21
857.42397912022432
 31
0.0
  0
CIRCLE
  5
1362
  8
SIZE
  6
CONTINUOUS
 62
    30
 10
-239.49999999999989
 20
721.96828418280063
 30
0.0
 40
6.0
  0
LINE
  5
1363
  8
SIZE
  6
CONTINUOUS
 62
    30
 10
-239.49999999999989
 20
721.96828418280063
 30
0.0
 11
-251.49999999999969
 21
721.96828418280063
 31
0.0
  0
CIRCLE
  5
1364
  8
SIZE
  6
CONTINUOUS
 62
    30
 10
-187.4999999999998
 20
721.96828418280063
 30
0.0
 40
6.0
  0
LINE
  5
1365
  8
SIZE
  6
CONTINUOUS
 62
    30
 10
-187.4999999999998
 20
721.96828418280063
 30
0.0
 11
-175.4999999999998
 21
721.96828418280063
 31
0.0
  0
CIRCLE
  5
1366
  8
SIZE
  6
CONTINUOUS
 62
    30
 10
-125.4999999999999
 20
857.42397912022432
 30
0.0
 40
6.0
  0
LINE
  5
1367
  8
SIZE
  6
CONTINUOUS
 62
    30
 10
-125.4999999999999
 20
857.42397912022432
 30
0.0
 11
-137.4999999999998
 21
857.42397912022432
 31
0.0
  0
CIRCLE
  5
1368
  8
SIZE
  6
CONTINUOUS
 62
    30
 10
-239.49999999999989
 20
997.42721827075047
 30
0.0
 40
6.0
  0
LINE
  5
1369
  8
SIZE
  6
CONTINUOUS
 62
    30
 10
-239.49999999999989
 20
997.42721827075047
 30
0.0
 11
-227.49999999999989
 21
997.42721827075047
 31
0.0
  0
CIRCLE
  5
136A
  8
SIZE
  6
CONTINUOUS
 62
    30
 10
165.0
 20
997.42721827075047
 30
0.0
 40
6.0
  0
LINE
  5
136B
  8
SIZE
  6
CONTINUOUS
 62
    30
 10
165.0
 20
997.42721827075047
 30
0.0
 11
153.0
 21
997.42721827075047
 31
0.0
  0
LINE
  5
136C
  8
SIZE
  6
CONTINUOUS
 62
    30
 10
-250.49999999999989
 20
140.32425127606339
 30
0.0
 11
-250.49999999999989
 21
384.22118621566489
 31
0.0
  0
LINE
  5
1376
  8
SIZE
  6
CONTINUOUS
 62
    30
 10
-221.51868247633951
 20
311.70078022557919
 30
0.0
 11
-401.87784679945071
 21
311.70078022557919
 31
0.0
  0
CIRCLE
  5
1377
  8
SIZE
  6
CONTINUOUS
 62
    30
 10
-239.49999999999989
 20
311.70078022557919
 30
0.0
 40
6.0
  0
CIRCLE
  5
1378
  8
SIZE
  6
CONTINUOUS
 62
    30
 10
-250.49999999999989
 20
311.70078022557919
 30
0.0
 40
6.0
  0
TEXT
  5
1379
  8
SIZE
  6
CONTINUOUS
 62
    30
 10
-376.75714285714281
 20
330.22292528578311
 30
0.0
 40
64.0
  1
11
 41
0.9
  0
LINE
  5
1446
  8
DETAIL
  6
DASHDOT1
 62
     5
 10
-173.5909473395761
 20
149.0543404179908
 30
0.0
 11
-173.5909473395761
 21
61.054336417990882
 31
0.0
  0
ARC
  5
1447
  8
DETAIL
  6
DASHDOT1
 62
     5
 10
-173.5909473395761
 20
139.05433641799081
 30
0.0
 40
78.0
 50
189.5940000000009
 51
270.0
  0
LINE
  5
1448
  8
DETAIL
  6
DASHED2
 62
     5
 10
-250.49999933957619
 20
126.05442841799081
 30
0.0
 11
-203.17135233957629
 21
134.05437141799089
 31
0.0
  0
LINE
  5
1449
  8
DETAIL
  6
DASHED2
 62
     5
 10
-250.71134133957619
 20
127.337145417991
 30
0.0
 11
-203.3631933395761
 21
135.3403854179908
 31
0.0
  0
LINE
  5
144A
  8
DETAIL
  6
DASHED2
 62
     5
 10
-250.49999933957619
 20
126.05442841799081
 30
0.0
 11
-250.71134133957619
 21
127.337145417991
 31
0.0
  0
LINE
  5
144B
  8
DETAIL
  6
DASHED2
 62
     5
 10
-154.5411763395762
 20
134.0543134179909
 30
0.0
 11
-203.17135233957629
 21
134.05437141799089
 31
0.0
  0
LINE
  5
144C
  8
DETAIL
  6
DASHED2
 62
     5
 10
-180.30498533957629
 20
135.35434441799089
 30
0.0
 11
-203.44019533957621
 21
135.3543714179909
 31
0.0
  0
LINE
  5
144D
  8
DETAIL
  6
DASHED2
 62
     5
 10
-168.0098670489426
 20
138.1928432856466
 30
0.0
 11
-168.2936498471114
 21
139.0205463262736
 31
0.0
  0
LINE
  5
144E
  8
DETAIL
  6
DASHED2
 62
     5
 10
-167.72608425077351
 20
137.36514024501969
 30
0.0
 11
-168.0098670489426
 21
138.1928432856466
 31
0.0
  0
LINE
  5
144F
  8
DETAIL
  6
DASHED2
 62
     5
 10
-167.15851865443571
 20
135.7097341637654
 30
0.0
 11
-167.44230145260451
 21
136.53743720439249
 31
0.0
  0
LINE
  5
1450
  8
DETAIL
  6
DASHED2
 62
     5
 10
-167.44230145260451
 20
136.53743720439249
 30
0.0
 11
-167.72608425077351
 21
137.36514024501969
 31
0.0
  0
LINE
  5
1451
  8
DETAIL
  6
DASHED2
 62
     5
 10
-154.70092433957629
 20
134.0543134179909
 30
0.0
 11
-154.70092333957629
 21
135.35431341799091
 31
0.0
  0
LINE
  5
1452
  8
DETAIL
  6
DASHED2
 62
     5
 10
-166.59095305809791
 20
134.0543280825114
 30
0.0
 11
-166.8747358562666
 21
134.8820311231384
 31
0.0
  0
LINE
  5
1453
  8
DETAIL
  6
DASHED2
 62
     5
 10
-154.5411743395762
 20
135.35431341799091
 30
0.0
 11
-167.0366653395763
 21
135.3543284179909
 31
0.0
  0
LINE
  5
1454
  8
DETAIL
  6
DASHED2
 62
     5
 10
-166.8747358562666
 20
134.8820311231384
 30
0.0
 11
-167.15851865443571
 21
135.7097341637654
 31
0.0
  0
LINE
  5
1455
  8
DETAIL
  6
DASHED2
 62
     5
 10
-168.5774326452802
 20
139.84824936690089
 30
0.0
 11
-168.8612154434492
 21
140.6759524075278
 31
0.0
  0
CIRCLE
  5
1456
  8
DETAIL
  6
DASHED2
 62
     5
 10
-173.5909473395761
 20
139.05433641799081
 30
0.0
 40
2.1000000000000001
  0
CIRCLE
  5
1457
  8
DETAIL
  6
DASHED2
 62
     5
 10
-173.5909473395761
 20
139.05433641799081
 30
0.0
 40
2.1000000000000001
  0
LINE
  5
1458
  8
DETAIL
  6
DASHED2
 62
     5
 10
-178.60446156307111
 20
139.84824936690089
 30
0.0
 11
-178.32067876490231
 21
140.6759524075278
 31
0.0
  0
LINE
  5
1459
  8
DETAIL
  6
DASHED2
 62
     5
 10
-178.88824436124011
 20
139.0205463262736
 30
0.0
 11
-178.60446156307111
 21
139.84824936690089
 31
0.0
  0
LINE
  5
145A
  8
DETAIL
  6
DASHED2
 62
     5
 10
-179.17202715940911
 20
138.1928432856466
 30
0.0
 11
-178.88824436124011
 21
139.0205463262736
 31
0.0
  0
LINE
  5
145B
  8
DETAIL
  6
DASHED2
 62
     5
 10
-179.45580995757771
 20
137.36514024501969
 30
0.0
 11
-179.17202715940911
 21
138.1928432856466
 31
0.0
  0
LINE
  5
145C
  8
DETAIL
  6
DASHED2
 62
     5
 10
-180.02337555391591
 20
135.7097341637654
 30
0.0
 11
-179.7395927557468
 21
136.53743720439249
 31
0.0
  0
LINE
  5
145D
  8
DETAIL
  6
DASHED2
 62
     5
 10
-179.7395927557468
 20
136.53743720439249
 30
0.0
 11
-179.45580995757771
 21
137.36514024501969
 31
0.0
  0
ARC
  5
145E
  8
DETAIL
  6
DASHED2
 62
     5
 10
-173.5909473395761
 20
139.05433641799081
 30
0.0
 40
5.0
 50
18.924576000001931
 51
161.07528699999671
  0
LINE
  5
145F
  8
DETAIL
  6
DASHED2
 62
     5
 10
-180.5909411502538
 20
134.0543280825114
 30
0.0
 11
-180.3071583520848
 21
134.8820311231384
 31
0.0
  0
LINE
  5
1460
  8
DETAIL
  6
DASHED2
 62
     5
 10
-180.3071583520848
 20
134.8820311231384
 30
0.0
 11
-180.02337555391591
 21
135.7097341637654
 31
0.0
  0
LINE
  5
1461
  8
DETAIL
  6
DASHED2
 62
     5
 10
-168.2936498471114
 20
139.0205463262736
 30
0.0
 11
-168.5774326452802
 21
139.84824936690089
 31
0.0
  0
LINE
  5
1462
  8
BASIS
  6
DASHED2
 62
     6
 10
-183.59095033957621
 20
139.05433641799081
 30
0.0
 11
-163.5909433395762
 21
139.05433641799081
 31
0.0
  0
ENDSEC
  0
EOF
