  0
SECTION
  2
HEADER
  9
$ACADVER
  1
AC1009
  9
$INSBASE
 10
0.0
 20
0.0
 30
0.0
  9
$EXTMIN
 10
-1371.1894799999991
 20
-715.13707099999999
 30
0.0
  9
$EXTMAX
 10
1572.094240159294
 20
1079.6383395801081
 30
0.0
  9
$LIMMIN
 10
-2970.0
 20
-2100.0
  9
$LIMMAX
 10
2970.0
 20
2100.0
  9
$ORTHOMODE
 70
     1
  9
$REGENMODE
 70
     0
  9
$FILLMODE
 70
     1
  9
$QTEXTMODE
 70
     0
  9
$MIRRTEXT
 70
     0
  9
$DRAGMODE
 70
     2
  9
$LTSCALE
 40
20.0
  9
$OSMODE
 70
    37
  9
$ATTMODE
 70
     1
  9
$TEXTSIZE
 40
64.0
  9
$TRACEWID
 40
0.05
  9
$TEXTSTYLE
  7
STANDARD
  9
$CLAYER
  8
SIZE
  9
$CELTYPE
  6
CONTINUOUS
  9
$CECOLOR
 62
    30
  9
$DIMSCALE
 40
1.0
  9
$DIMASZ
 40
12.0
  9
$DIMEXO
 40
20.0
  9
$DIMDLI
 40
200.0
  9
$DIMRND
 40
0.0
  9
$DIMDLE
 40
0.0
  9
$DIMEXE
 40
30.0
  9
$DIMTP
 40
0.0
  9
$DIMTM
 40
0.0
  9
$DIMTXT
 40
64.0
  9
$DIMCEN
 40
0.09
  9
$DIMTSZ
 40
0.0
  9
$DIMTOL
 70
     0
  9
$DIMLIM
 70
     0
  9
$DIMTIH
 70
     0
  9
$DIMTOH
 70
     0
  9
$DIMSE1
 70
     0
  9
$DIMSE2
 70
     0
  9
$DIMTAD
 70
     1
  9
$DIMZIN
 70
     8
  9
$DIMBLK
  1
ORIGIN
  9
$DIMASO
 70
     1
  9
$DIMSHO
 70
     0
  9
$DIMPOST
  1

  9
$DIMAPOST
  1

  9
$DIMALT
 70
     0
  9
$DIMALTD
 70
     2
  9
$DIMALTF
 40
25.399999999999999
  9
$DIMLFAC
 40
1.0
  9
$DIMTOFL
 70
     1
  9
$DIMTVP
 40
0.0
  9
$DIMTIX
 70
     0
  9
$DIMSOXD
 70
     0
  9
$DIMSAH
 70
     0
  9
$DIMBLK1
  1

  9
$DIMBLK2
  1

  9
$DIMSTYLE
  2
STANDARD
  9
$DIMCLRD
 70
     0
  9
$DIMCLRE
 70
     0
  9
$DIMCLRT
 70
     0
  9
$DIMTFAC
 40
1.0
  9
$DIMGAP
 40
20.0
  9
$LUNITS
 70
     2
  9
$LUPREC
 70
     4
  9
$SKETCHINC
 40
0.1
  9
$FILLETRAD
 40
18.0
  9
$AUNITS
 70
     1
  9
$AUPREC
 70
     3
  9
$MENU
  1
ACAD
  9
$ELEVATION
 40
0.0
  9
$PELEVATION
 40
0.0
  9
$THICKNESS
 40
0.0
  9
$LIMCHECK
 70
     0
  9
$BLIPMODE
 70
     0
  9
$CHAMFERA
 40
0.0
  9
$CHAMFERB
 40
0.0
  9
$SKPOLY
 70
     0
  9
$TDCREATE
 40
2451396.6984259249
  9
$TDUPDATE
 40
2454155.5295113539
  9
$TDINDWG
 40
0.0602860764
  9
$TDUSRTIMER
 40
0.0602858912
  9
$USRTIMER
 70
     1
  9
$ANGBASE
 50
0.0
  9
$ANGDIR
 70
     0
  9
$PDMODE
 70
     3
  9
$PDSIZE
 40
-2.0
  9
$PLINEWID
 40
0.0
  9
$COORDS
 70
     0
  9
$SPLFRAME
 70
     0
  9
$SPLINETYPE
 70
     6
  9
$SPLINESEGS
 70
     8
  9
$ATTDIA
 70
     0
  9
$ATTREQ
 70
     1
  9
$HANDLING
 70
 22529
  9
$HANDSEED
  5
F69
  9
$SURFTAB1
 70
     6
  9
$SURFTAB2
 70
     6
  9
$SURFTYPE
 70
     6
  9
$SURFU
 70
     6
  9
$SURFV
 70
     6
  9
$UCSNAME
  2

  9
$UCSORG
 10
0.0
 20
0.0
 30
0.0
  9
$UCSXDIR
 10
1.0
 20
0.0
 30
0.0
  9
$UCSYDIR
 10
0.0
 20
1.0
 30
0.0
  9
$PUCSNAME
  2

  9
$PUCSORG
 10
0.0
 20
0.0
 30
0.0
  9
$PUCSXDIR
 10
1.0
 20
0.0
 30
0.0
  9
$PUCSYDIR
 10
0.0
 20
1.0
 30
0.0
  9
$USERI1
 70
     0
  9
$USERI2
 70
     0
  9
$USERI3
 70
     0
  9
$USERI4
 70
     0
  9
$USERI5
 70
     0
  9
$USERR1
 40
20.0
  9
$USERR2
 40
0.0
  9
$USERR3
 40
0.0
  9
$USERR4
 40
0.0
  9
$USERR5
 40
0.0
  9
$WORLDVIEW
 70
     1
  9
$SHADEDGE
 70
     3
  9
$SHADEDIF
 70
    70
  9
$TILEMODE
 70
     1
  9
$MAXACTVP
 70
    48
  9
$PLIMCHECK
 70
     0
  9
$PEXTMIN
 10
1.0000000000000000E+020
 20
1.0000000000000000E+020
 30
1.0000000000000000E+020
  9
$PEXTMAX
 10
-1.0000000000000000E+020
 20
-1.0000000000000000E+020
 30
-1.0000000000000000E+020
  9
$PLIMMIN
 10
0.0
 20
0.0
  9
$PLIMMAX
 10
12.0
 20
9.0
  9
$UNITMODE
 70
     0
  9
$VISRETAIN
 70
     1
  9
$PLINEGEN
 70
     0
  9
$PSLTSCALE
 70
     1
  0
ENDSEC
  0
SECTION
  2
TABLES
  0
TABLE
  2
VPORT
 70
     3
  0
VPORT
  2
*ACTIVE
 70
     0
 10
0.0
 20
0.0
 11
1.0
 21
1.0
 12
86.481622574480298
 22
181.86682551214591
 13
0.0
 23
0.0
 14
50.0
 24
50.0
 15
400.0
 25
400.0
 16
0.0
 26
0.0
 36
1.0
 17
0.0
 27
0.0
 37
0.0
 40
1912.469567774112
 41
1.710526315789473
 42
50.0
 43
0.0
 44
0.0
 50
0.0
 51
0.0
 71
     0
 72
   500
 73
     1
 74
     0
 75
     0
 76
     0
 77
     0
 78
     2
  0
ENDTAB
  0
TABLE
  2
LTYPE
 70
     8
  0
LTYPE
  2
CONTINUOUS
 70
     0
  3
Ä└É³
 72
    65
 73
     0
 40
0.0
  0
LTYPE
  2
DASHDOT
 70
     0
  3
____ _ ____ _ ____ _ ____ _ ____ _ ____ _ ____
 72
    65
 73
     4
 40
5.5
 49
4.0
 49
-0.6
 49
0.3
 49
-0.6
  0
LTYPE
  2
DASHED
 70
     0
  3
_ _ _ _ _ _ _ _ _ _ _ _ _ _ _ _ _ _ _ _ _ _ _
 72
    65
 73
     2
 40
2.0
 49
1.1999999999999991
 49
-0.8
  0
LTYPE
  2
DOT
 70
     0
  3
...............................................
 72
    65
 73
     2
 40
0.8
 49
0.5
 49
-0.3
  0
LTYPE
  2
DASHDOT1
 70
     0
  3
____ _ ____ _ ____ _ ____ _ ____ _ ____ _ ____
 72
    65
 73
     4
 40
2.0
 49
1.5
 49
-0.2
 49
0.1
 49
-0.2
  0
LTYPE
  2
DIVIDE
 70
     0
  3
_____ _ _ _____ _ _ _____ _ _ _____ _ _ ____
 72
    65
 73
     6
 40
6.4000000000000004
 49
4.0
 49
-0.6
 49
0.3
 49
-0.6
 49
0.3
 49
-0.6
  0
LTYPE
  2
DIVIDE1
 70
     0
  3
_____ _ _ _____ _ _ _____ _ _ _____ _ _ ____
 72
    65
 73
     6
 40
3.2000000000000002
 49
2.0
 49
-0.3
 49
0.15
 49
-0.3
 49
0.15
 49
-0.3
  0
LTYPE
  2
DASHED2
 70
     0
  3
Dashed (.5x) _ _ _ _ _ _ _ _ _ _ _ _ _ _ _ _ _
 72
    65
 73
     2
 40
0.375
 49
0.25
 49
-0.125
  0
ENDTAB
  0
TABLE
  2
LAYER
 70
    12
  0
LAYER
  2
0
 70
     0
 62
     7
  6
CONTINUOUS
  0
LAYER
  2
SIZE
 70
     0
 62
    30
  6
CONTINUOUS
  0
LAYER
  2
OUTLINE
 70
     0
 62
     3
  6
CONTINUOUS
  0
LAYER
  2
DETAIL
 70
     0
 62
     5
  6
CONTINUOUS
  0
LAYER
  2
BASIS
 70
     0
 62
     6
  6
DASHDOT
  0
LAYER
  2
NOTE
 70
     0
 62
     4
  6
CONTINUOUS
  0
LAYER
  2
DEFPOINTS
 70
     0
 62
     7
  6
CONTINUOUS
  0
LAYER
  2
FIX
 70
     0
 62
    11
  6
CONTINUOUS
  0
LAYER
  2
ARRANGE
 70
     0
 62
     1
  6
CONTINUOUS
  0
LAYER
  2
ETC
 70
     0
 62
    61
  6
CONTINUOUS
  0
LAYER
  2
SERVICESPACE
 70
     0
 62
     2
  6
DASHDOT
  0
LAYER
  2
SYMBOLLINE
 70
     0
 62
    15
  6
CONTINUOUS
  0
ENDTAB
  0
TABLE
  2
STYLE
 70
     1
  0
STYLE
  2
STANDARD
 70
     0
 40
0.0
 41
0.9
 50
0.0
 71
     0
 42
64.0
  3
SIMPLEX
  4
BIGFONT
  0
ENDTAB
  0
TABLE
  2
VIEW
 70
     1
  0
VIEW
  2
ALL
 70
     0
 40
4282.6198079999967
 10
0.0
 20
41.309903999999989
 41
5940.0
 11
0.0
 21
0.0
 31
1.0
 12
0.0
 22
0.0
 32
0.0
 42
50.0
 43
0.0
 44
0.0
 50
0.0
 71
     0
  0
ENDTAB
  0
TABLE
  2
UCS
 70
     0
  0
ENDTAB
  0
TABLE
  2
APPID
 70
     1
  0
APPID
  2
ACAD
 70
     0
  0
ENDTAB
  0
TABLE
  2
DIMSTYLE
 70
     2
  0
DIMSTYLE
  2
STANDARD
 70
     0
  3

  4

  5

  6

  7

 40
1.0
 41
0.18
 42
0.0625
 43
0.38
 44
0.18
 45
0.0
 46
0.0
 47
0.0
 48
0.0
140
0.18
141
0.09
142
0.0
143
25.399999999999999
144
1.0
145
0.0
146
1.0
147
0.09
 71
     0
 72
     0
 73
     1
 74
     1
 75
     0
 76
     0
 77
     0
 78
     0
170
     0
171
     2
172
     0
173
     0
174
     0
175
     0
176
     0
177
     0
178
     0
  0
DIMSTYLE
  2
ISO-25
 70
     0
  3

  4

  5

  6

  7

 40
1.0
 41
2.5
 42
0.625
 43
3.75
 44
1.25
 45
0.0
 46
0.0
 47
0.0
 48
0.0
140
2.5
141
2.5
142
0.0
143
0.03937007874016
144
1.0
145
0.0
146
1.0
147
0.625
 71
     0
 72
     0
 73
     0
 74
     0
 75
     0
 76
     0
 77
     1
 78
     8
170
     0
171
     3
172
     1
173
     0
174
     0
175
     0
176
     0
177
     0
178
     0
  0
ENDTAB
  0
ENDSEC
  0
SECTION
  2
BLOCKS
  0
BLOCK
  8
0
  2
$MODEL_SPACE
 70
     0
 10
0.0
 20
0.0
 30
0.0
  3
$MODEL_SPACE
  1

  0
ENDBLK
  5
C27
  8
0
  0
BLOCK
 67
     1
  8
0
  2
$PAPER_SPACE
 70
     0
 10
0.0
 20
0.0
 30
0.0
  3
$PAPER_SPACE
  1

  0
ENDBLK
  5
C23
 67
     1
  8
0
  0
BLOCK
  8
0
 62
     8
  2
_SMALL
 70
     0
 10
0.0
 20
0.0
 30
0.0
  3
_SMALL
  1

  0
CIRCLE
  5
C47
  8
0
  6
BYBLOCK
 62
     0
 10
0.0
 20
0.0
 30
0.0
 40
0.25
  0
ENDBLK
  5
C48
  8
0
 62
     8
  0
BLOCK
  8
0
 62
     8
  2
_OPEN30
 70
     0
 10
0.0
 20
0.0
 30
0.0
  3
_OPEN30
  1

  0
LINE
  5
C4B
  8
0
  6
BYBLOCK
 62
     0
 10
-1.0
 20
0.26794919
 30
0.0
 11
0.0
 21
0.0
 31
0.0
  0
LINE
  5
C4C
  8
0
  6
BYBLOCK
 62
     0
 10
0.0
 20
0.0
 30
0.0
 11
-1.0
 21
-0.26794919
 31
0.0
  0
LINE
  5
C4D
  8
0
  6
BYBLOCK
 62
     0
 10
0.0
 20
0.0
 30
0.0
 11
-1.0
 21
0.0
 31
0.0
  0
ENDBLK
  5
C4E
  8
0
 62
     8
  0
BLOCK
  8
0
 62
    30
  2
*D4
 70
     1
 10
0.0
 20
0.0
 30
0.0
  3
*D4
  1

  0
LINE
  5
C51
  8
SIZE
  6
CONTINUOUS
 62
     0
 10
239.5
 20
180.054428
 30
0.0
 11
239.5
 21
1027.716115932423
 31
0.0
  0
LINE
  5
C52
  8
SIZE
  6
CONTINUOUS
 62
     0
 10
-165.0
 20
996.81899999999916
 30
0.0
 11
-165.0
 21
967.71611593242403
 31
0.0
  0
LINE
  5
C53
  8
SIZE
  6
CONTINUOUS
 62
     0
 10
239.5
 20
997.71611593242392
 30
0.0
 11
-165.0
 21
997.71611593242392
 31
0.0
  0
TEXT
  5
C54
  8
SIZE
  6
CONTINUOUS
 62
     0
 10
-89.632394003021659
 20
1018.311820364091
 30
0.0
 40
64.0
  1
404.5
 41
0.9
  0
INSERT
  5
C55
  8
SIZE
  6
CONTINUOUS
 62
     0
  2
_SMALL
 10
239.5
 20
997.71611593242392
 30
0.0
 41
40.0
 42
40.0
 43
40.0
  0
INSERT
  5
C56
  8
SIZE
  6
CONTINUOUS
 62
     0
  2
_SMALL
 10
-165.0
 20
997.71611593242392
 30
0.0
 41
40.0
 42
40.0
 43
40.0
 50
180.0
  0
POINT
  5
C57
  8
DEFPOINTS
  6
CONTINUOUS
 62
     0
 10
239.5
 20
160.054428
 30
0.0
  0
POINT
  5
C58
  8
DEFPOINTS
  6
CONTINUOUS
 62
     0
 10
-165.0
 20
1016.8189999999991
 30
0.0
  0
POINT
  5
C59
  8
DEFPOINTS
  6
CONTINUOUS
 62
     0
 10
-165.0
 20
997.71611593242392
 30
0.0
  0
ENDBLK
  5
C5A
  8
0
 62
    30
  0
BLOCK
  8
0
 62
    30
  2
*D5
 70
     1
 10
0.0
 20
0.0
 30
0.0
  3
*D5
  1

  0
LINE
  5
C5D
  8
SIZE
  6
CONTINUOUS
 62
     0
 10
125.5
 20
867.12272999999982
 30
0.0
 11
125.5
 21
828.3364772845905
 31
0.0
  0
LINE
  5
C5E
  8
SIZE
  6
CONTINUOUS
 62
     0
 10
239.5
 20
1007.716115932421
 30
0.0
 11
239.5
 21
828.3364772845905
 31
0.0
  0
LINE
  5
C5F
  8
SIZE
  6
CONTINUOUS
 62
     0
 10
125.5
 20
858.33647728459073
 30
0.0
 11
239.5
 21
858.33647728459073
 31
0.0
  0
LINE
  5
C60
  8
SIZE
  6
CONTINUOUS
 62
     0
 10
455.03609852342942
 20
858.33647728459073
 30
0.0
 11
239.5
 21
858.33647728459073
 31
0.0
  0
TEXT
  5
C61
  8
SIZE
  6
CONTINUOUS
 62
     0
 10
306.12181280914382
 20
878.3364772845905
 30
0.0
 40
64.0
  1
114
 41
0.9
  0
INSERT
  5
C62
  8
SIZE
  6
CONTINUOUS
 62
     0
  2
_SMALL
 10
125.5
 20
858.33647728459073
 30
0.0
 41
40.0
 42
40.0
 43
40.0
 50
180.0
  0
INSERT
  5
C63
  8
SIZE
  6
CONTINUOUS
 62
     0
  2
_SMALL
 10
239.5
 20
858.33647728459073
 30
0.0
 41
40.0
 42
40.0
 43
40.0
  0
POINT
  5
C64
  8
DEFPOINTS
  6
CONTINUOUS
 62
     0
 10
125.5
 20
887.12273000000005
 30
0.0
  0
POINT
  5
C65
  8
DEFPOINTS
  6
CONTINUOUS
 62
     0
 10
239.5
 20
1027.716115932423
 30
0.0
  0
POINT
  5
C66
  8
DEFPOINTS
  6
CONTINUOUS
 62
     0
 10
239.5
 20
858.33647728459073
 30
0.0
  0
ENDBLK
  5
C67
  8
0
 62
    30
  0
BLOCK
  8
0
 62
    30
  2
*D6
 70
     1
 10
0.0
 20
0.0
 30
0.0
  3
*D6
  1

  0
LINE
  5
C6A
  8
SIZE
  6
CONTINUOUS
 62
     0
 10
187.5
 20
731.47247699999969
 30
0.0
 11
187.5
 21
688.95683036692037
 31
0.0
  0
LINE
  5
C6B
  8
SIZE
  6
CONTINUOUS
 62
     0
 10
239.5
 20
1007.716115932421
 30
0.0
 11
239.49999999999989
 21
688.95683036692037
 31
0.0
  0
LINE
  5
C6C
  8
SIZE
  6
CONTINUOUS
 62
     0
 10
187.5
 20
718.95683036692026
 30
0.0
 11
239.49999999999989
 21
718.95683036692026
 31
0.0
  0
LINE
  5
C6D
  8
SIZE
  6
CONTINUOUS
 62
     0
 10
437.20752709485811
 20
718.95683036692026
 30
0.0
 11
239.49999999999989
 21
718.95683036692026
 31
0.0
  0
TEXT
  5
C6E
  8
SIZE
  6
CONTINUOUS
 62
     0
 10
323.95038423771518
 20
738.95683036692037
 30
0.0
 40
64.0
  1
52
 41
0.9
  0
INSERT
  5
C6F
  8
SIZE
  6
CONTINUOUS
 62
     0
  2
_SMALL
 10
187.5
 20
718.95683036692026
 30
0.0
 41
40.0
 42
40.0
 43
40.0
 50
180.0
  0
INSERT
  5
C70
  8
SIZE
  6
CONTINUOUS
 62
     0
  2
_SMALL
 10
239.49999999999989
 20
718.95683036692026
 30
0.0
 41
40.0
 42
40.0
 43
40.0
  0
POINT
  5
C71
  8
DEFPOINTS
  6
CONTINUOUS
 62
     0
 10
187.5
 20
751.47247699999969
 30
0.0
  0
POINT
  5
C72
  8
DEFPOINTS
  6
CONTINUOUS
 62
     0
 10
239.5
 20
1027.716115932423
 30
0.0
  0
POINT
  5
C73
  8
DEFPOINTS
  6
CONTINUOUS
 62
     0
 10
239.49999999999989
 20
718.95683036692026
 30
0.0
  0
ENDBLK
  5
C74
  8
0
 62
    30
  0
BLOCK
  8
0
 62
    30
  2
*D7
 70
     1
 10
0.0
 20
0.0
 30
0.0
  3
*D7
  1

  0
LINE
  5
C77
  8
SIZE
  6
CONTINUOUS
 62
     0
 10
212.5
 20
603.902421
 30
0.0
 11
212.5
 21
562.10568992231845
 31
0.0
  0
LINE
  5
C78
  8
SIZE
  6
CONTINUOUS
 62
     0
 10
239.5
 20
200.054428
 30
0.0
 11
239.5
 21
622.10568992231845
 31
0.0
  0
LINE
  5
C79
  8
SIZE
  6
CONTINUOUS
 62
     0
 10
212.5
 20
592.10568992231845
 30
0.0
 11
172.5
 21
592.10568992231845
 31
0.0
  0
LINE
  5
C7A
  8
SIZE
  6
CONTINUOUS
 62
     0
 10
239.5
 20
592.10568992231845
 30
0.0
 11
279.49999999999989
 21
592.10568992231845
 31
0.0
  0
LINE
  5
C7B
  8
SIZE
  6
CONTINUOUS
 62
     0
 10
455.92907203315161
 20
592.10568992231845
 30
0.0
 11
239.5
 21
592.10568992231845
 31
0.0
  0
TEXT
  5
C7C
  8
SIZE
  6
CONTINUOUS
 62
     0
 10
342.67192917600909
 20
612.10568992231845
 30
0.0
 40
64.0
  1
27
 41
0.9
  0
LINE
  5
C7D
  8
SIZE
  6
CONTINUOUS
 62
     0
 10
212.5
 20
592.10568992231845
 30
0.0
 11
239.5
 21
592.10568992231845
 31
0.0
  0
LINE
  5
C7E
  8
SIZE
  6
CONTINUOUS
 62
     0
 10
212.5
 20
592.10568992231845
 30
0.0
 11
239.5
 21
592.10568992231845
 31
0.0
  0
INSERT
  5
C7F
  8
SIZE
  6
CONTINUOUS
 62
     0
  2
_SMALL
 10
212.5
 20
592.10568992231845
 30
0.0
 41
40.0
 42
40.0
 43
40.0
  0
INSERT
  5
C80
  8
SIZE
  6
CONTINUOUS
 62
     0
  2
_SMALL
 10
239.5
 20
592.10568992231845
 30
0.0
 41
40.0
 42
40.0
 43
40.0
 50
180.0
  0
POINT
  5
C81
  8
DEFPOINTS
  6
CONTINUOUS
 62
     0
 10
212.5
 20
623.902421
 30
0.0
  0
POINT
  5
C82
  8
DEFPOINTS
  6
CONTINUOUS
 62
     0
 10
239.5
 20
180.054428
 30
0.0
  0
POINT
  5
C83
  8
DEFPOINTS
  6
CONTINUOUS
 62
     0
 10
239.5
 20
592.10568992231845
 30
0.0
  0
ENDBLK
  5
C84
  8
0
 62
    30
  0
BLOCK
  8
0
 62
    30
  2
*D8
 70
     1
 10
0.0
 20
0.0
 30
0.0
  3
*D8
  1

  0
LINE
  5
C87
  8
SIZE
  6
CONTINUOUS
 62
     0
 10
-0.0000000000000012
 20
366.54394799999989
 30
0.0
 11
-0.0000000000000024
 21
347.55500416622078
 31
0.0
  0
LINE
  5
C88
  8
SIZE
  6
CONTINUOUS
 62
     0
 10
239.5
 20
220.05442799999989
 30
0.0
 11
239.5
 21
407.55500416622073
 31
0.0
  0
LINE
  5
C89
  8
SIZE
  6
CONTINUOUS
 62
     0
 10
-0.0000000000000006
 20
377.55500416622073
 30
0.0
 11
239.5
 21
377.55500416622073
 31
0.0
  0
LINE
  5
C8A
  8
SIZE
  6
CONTINUOUS
 62
     0
 10
556.59457764165495
 20
377.55500416622073
 30
0.0
 11
239.5
 21
377.55500416622073
 31
0.0
  0
TEXT
  5
C8B
  8
SIZE
  6
CONTINUOUS
 62
     0
 10
306.19457764165492
 20
397.55500416622078
 30
0.0
 40
64.0
  1
239.5
 41
0.9
  0
INSERT
  5
C8C
  8
SIZE
  6
CONTINUOUS
 62
     0
  2
_SMALL
 10
-0.0000000000000006
 20
377.55500416622073
 30
0.0
 41
40.0
 42
40.0
 43
40.0
 50
180.0
  0
INSERT
  5
C8D
  8
SIZE
  6
CONTINUOUS
 62
     0
  2
_SMALL
 10
239.5
 20
377.55500416622073
 30
0.0
 41
40.0
 42
40.0
 43
40.0
  0
POINT
  5
C8E
  8
DEFPOINTS
  6
CONTINUOUS
 62
     0
 10
0.0
 20
386.543948
 30
0.0
  0
POINT
  5
C8F
  8
DEFPOINTS
  6
CONTINUOUS
 62
     0
 10
239.5
 20
200.054428
 30
0.0
  0
POINT
  5
C90
  8
DEFPOINTS
  6
CONTINUOUS
 62
     0
 10
239.5
 20
377.55500416622073
 30
0.0
  0
ENDBLK
  5
C91
  8
0
 62
    30
  0
BLOCK
  8
0
 62
    30
  2
*D9
 70
     1
 10
0.0
 20
0.0
 30
0.0
  3
*D9
  1

  0
LINE
  5
C94
  8
SIZE
  6
CONTINUOUS
 62
     0
 10
148.4999999999998
 20
180.054428
 30
0.0
 11
1024.1301695233201
 21
180.0544279999994
 31
0.0
  0
LINE
  5
C95
  8
SIZE
  6
CONTINUOUS
 62
     0
 10
999.94899999999893
 20
0.0544280000000057
 30
0.0
 11
964.13016952332146
 21
0.0544280000000158
 31
0.0
  0
LINE
  5
C96
  8
SIZE
  6
CONTINUOUS
 62
     0
 10
994.13016952332168
 20
180.0544279999994
 30
0.0
 11
994.13016952332168
 21
0.0544280000000073
 31
0.0
  0
TEXT
  5
C97
  8
SIZE
  6
CONTINUOUS
 62
     0
 10
973.73898733741191
 20
20.757193808960309
 30
0.0
 40
64.0
  1
180
 50
90.0
 41
0.9
  0
INSERT
  5
C98
  8
SIZE
  6
CONTINUOUS
 62
     0
  2
_SMALL
 10
994.13016952332168
 20
180.0544279999994
 30
0.0
 41
40.0
 42
40.0
 43
40.0
 50
90.0
  0
INSERT
  5
C99
  8
SIZE
  6
CONTINUOUS
 62
     0
  2
_SMALL
 10
994.13016952332168
 20
0.0544280000000073
 30
0.0
 41
40.0
 42
40.0
 43
40.0
 50
270.0
  0
POINT
  5
C9A
  8
DEFPOINTS
  6
CONTINUOUS
 62
     0
 10
128.4999999999998
 20
180.054428
 30
0.0
  0
POINT
  5
C9B
  8
DEFPOINTS
  6
CONTINUOUS
 62
     0
 10
1019.948999999999
 20
0.054428
 30
0.0
  0
POINT
  5
C9C
  8
DEFPOINTS
  6
CONTINUOUS
 62
     0
 10
994.13016952332168
 20
0.0544280000000073
 30
0.0
  0
ENDBLK
  5
C9D
  8
0
 62
    30
  0
BLOCK
  8
0
 62
    30
  2
_ORIGIN
 70
     0
 10
0.0
 20
0.0
 30
0.0
  3
_ORIGIN
  1

  0
CIRCLE
  5
CA0
  8
0
  6
BYBLOCK
 62
     0
 10
0.0
 20
0.0
 30
0.0
 40
0.5
  0
LINE
  5
CA1
  8
0
  6
BYBLOCK
 62
     0
 10
0.0
 20
0.0
 30
0.0
 11
-1.0
 21
0.0
 31
0.0
  0
ENDBLK
  5
CA2
  8
0
 62
    30
  0
BLOCK
  8
0
 62
    30
  2
_NONE
 70
     0
 10
0.0
 20
0.0
 30
0.0
  3
_NONE
  1

  0
ENDBLK
  5
CA5
  8
0
 62
    30
  0
BLOCK
  8
0
 62
    30
  2
*D12
 70
     1
 10
0.0
 20
0.0
 30
0.0
  3
*D12
  1

  0
LINE
  5
CA8
  8
SIZE
  6
CONTINUOUS
 62
     0
 10
-165.0
 20
20.054428000000001
 30
0.0
 11
-164.9999999999998
 21
1025.638339580109
 31
0.0
  0
LINE
  5
CA9
  8
SIZE
  6
CONTINUOUS
 62
     0
 10
239.5
 20
180.054428
 30
0.0
 11
239.5
 21
1025.638339580109
 31
0.0
  0
LINE
  5
CAA
  8
SIZE
  6
CONTINUOUS
 62
     0
 10
-152.9999999999998
 20
995.63833958010946
 30
0.0
 11
227.49999999999989
 21
995.63833958010946
 31
0.0
  0
INSERT
  5
CAB
  8
SIZE
  6
CONTINUOUS
 62
     0
  2
_ORIGIN
 10
-164.9999999999998
 20
995.63833958010946
 30
0.0
 41
12.0
 42
12.0
 43
12.0
 50
180.0
  0
INSERT
  5
CAC
  8
SIZE
  6
CONTINUOUS
 62
     0
  2
_ORIGIN
 10
239.5
 20
995.63833958010946
 30
0.0
 41
12.0
 42
12.0
 43
12.0
  0
TEXT
  5
CAD
  8
SIZE
  6
CONTINUOUS
 62
     0
 10
-77.949999999999932
 20
1015.638339580108
 30
0.0
 40
64.0
  1
404.5
 41
0.9
  0
POINT
  5
CAE
  8
DEFPOINTS
  6
CONTINUOUS
 62
     0
 10
-165.0
 20
0.054428
 30
0.0
  0
POINT
  5
CAF
  8
DEFPOINTS
  6
CONTINUOUS
 62
     0
 10
239.5
 20
160.054428
 30
0.0
  0
POINT
  5
CB0
  8
DEFPOINTS
  6
CONTINUOUS
 62
     0
 10
239.5
 20
995.63833958010946
 30
0.0
  0
ENDBLK
  5
CB1
  8
0
 62
    30
  0
BLOCK
  8
0
 62
    30
  2
*D13
 70
     1
 10
0.0
 20
0.0
 30
0.0
  3
*D13
  1

  0
LINE
  5
CB4
  8
SIZE
  6
CONTINUOUS
 62
     0
 10
137.5
 20
856.21626422483052
 30
0.0
 11
227.49999999999989
 21
856.21626422483052
 31
0.0
  0
LINE
  5
CB5
  8
SIZE
  6
CONTINUOUS
 62
     0
 10
239.5
 20
856.21626422483052
 30
0.0
 11
420.4142857142856
 21
856.21626422483052
 31
0.0
  0
INSERT
  5
CB6
  8
SIZE
  6
CONTINUOUS
 62
     0
  2
_ORIGIN
 10
125.5
 20
856.21626422483052
 30
0.0
 41
12.0
 42
12.0
 43
12.0
 50
180.0
  0
INSERT
  5
CB7
  8
SIZE
  6
CONTINUOUS
 62
     0
  2
_ORIGIN
 10
239.5
 20
856.21626422483052
 30
0.0
 41
12.0
 42
12.0
 43
12.0
  0
TEXT
  5
CB8
  8
SIZE
  6
CONTINUOUS
 62
     0
 10
271.49999999999972
 20
876.21626422483018
 30
0.0
 40
64.0
  1
114
 41
0.9
  0
POINT
  5
CB9
  8
DEFPOINTS
  6
CONTINUOUS
 62
     0
 10
125.5
 20
198.054428
 30
0.0
  0
POINT
  5
CBA
  8
DEFPOINTS
  6
CONTINUOUS
 62
     0
 10
239.5
 20
180.054428
 30
0.0
  0
POINT
  5
CBB
  8
DEFPOINTS
  6
CONTINUOUS
 62
     0
 10
239.5
 20
856.21626422483052
 30
0.0
  0
ENDBLK
  5
CBC
  8
0
 62
    30
  0
BLOCK
  8
0
 62
    30
  2
*D14
 70
     1
 10
0.0
 20
0.0
 30
0.0
  3
*D14
  1

  0
LINE
  5
CBF
  8
SIZE
  6
CONTINUOUS
 62
     0
 10
187.5
 20
183.5544279999998
 30
0.0
 11
187.5
 21
749.86878402992249
 31
0.0
  0
LINE
  5
CC0
  8
SIZE
  6
CONTINUOUS
 62
     0
 10
175.5
 20
719.86878402992249
 30
0.0
 11
163.4999999999998
 21
719.86878402992249
 31
0.0
  0
LINE
  5
CC1
  8
SIZE
  6
CONTINUOUS
 62
     0
 10
251.5
 20
719.86878402992249
 30
0.0
 11
396.75714285714281
 21
719.86878402992249
 31
0.0
  0
LINE
  5
CC2
  8
SIZE
  6
CONTINUOUS
 62
     0
 10
187.5
 20
719.86878402992249
 30
0.0
 11
239.5
 21
719.86878402992249
 31
0.0
  0
INSERT
  5
CC3
  8
SIZE
  6
CONTINUOUS
 62
     0
  2
_ORIGIN
 10
187.5
 20
719.86878402992249
 30
0.0
 41
12.0
 42
12.0
 43
12.0
  0
INSERT
  5
CC4
  8
SIZE
  6
CONTINUOUS
 62
     0
  2
_ORIGIN
 10
239.5
 20
719.86878402992249
 30
0.0
 41
12.0
 42
12.0
 43
12.0
 50
180.0
  0
TEXT
  5
CC5
  8
SIZE
  6
CONTINUOUS
 62
     0
 10
283.49999999999989
 20
739.86878402992215
 30
0.0
 40
64.0
  1
52
 41
0.9
  0
POINT
  5
CC6
  8
DEFPOINTS
  6
CONTINUOUS
 62
     0
 10
187.5
 20
163.55442799999949
 30
0.0
  0
POINT
  5
CC7
  8
DEFPOINTS
  6
CONTINUOUS
 62
     0
 10
239.5
 20
160.054428
 30
0.0
  0
POINT
  5
CC8
  8
DEFPOINTS
  6
CONTINUOUS
 62
     0
 10
239.5
 20
719.86878402992249
 30
0.0
  0
ENDBLK
  5
CC9
  8
0
 62
    30
  0
BLOCK
  8
0
 62
    30
  2
*D15
 70
     1
 10
0.0
 20
0.0
 30
0.0
  3
*D15
  1

  0
LINE
  5
CCC
  8
SIZE
  6
CONTINUOUS
 62
     0
 10
212.5
 20
180.054428
 30
0.0
 11
212.5
 21
625.55196487617275
 31
0.0
  0
LINE
  5
CCD
  8
SIZE
  6
CONTINUOUS
 62
     0
 10
200.49999999999989
 20
595.55196487617275
 30
0.0
 11
188.4999999999998
 21
595.55196487617275
 31
0.0
  0
LINE
  5
CCE
  8
SIZE
  6
CONTINUOUS
 62
     0
 10
251.5
 20
595.55196487617275
 30
0.0
 11
396.75714285714281
 21
595.55196487617275
 31
0.0
  0
LINE
  5
CCF
  8
SIZE
  6
CONTINUOUS
 62
     0
 10
212.5
 20
595.55196487617275
 30
0.0
 11
239.5
 21
595.55196487617275
 31
0.0
  0
INSERT
  5
CD0
  8
SIZE
  6
CONTINUOUS
 62
     0
  2
_ORIGIN
 10
212.5
 20
595.55196487617275
 30
0.0
 41
12.0
 42
12.0
 43
12.0
  0
INSERT
  5
CD1
  8
SIZE
  6
CONTINUOUS
 62
     0
  2
_ORIGIN
 10
239.5
 20
595.55196487617275
 30
0.0
 41
12.0
 42
12.0
 43
12.0
 50
180.0
  0
TEXT
  5
CD2
  8
SIZE
  6
CONTINUOUS
 62
     0
 10
283.49999999999989
 20
615.55196487617275
 30
0.0
 40
64.0
  1
27
 41
0.9
  0
POINT
  5
CD3
  8
DEFPOINTS
  6
CONTINUOUS
 62
     0
 10
212.5
 20
160.054428
 30
0.0
  0
POINT
  5
CD4
  8
DEFPOINTS
  6
CONTINUOUS
 62
     0
 10
239.5
 20
160.054428
 30
0.0
  0
POINT
  5
CD5
  8
DEFPOINTS
  6
CONTINUOUS
 62
     0
 10
239.5
 20
595.55196487617275
 30
0.0
  0
ENDBLK
  5
CD6
  8
0
 62
    30
  0
BLOCK
  8
0
 62
    30
  2
*D16
 70
     1
 10
0.0
 20
0.0
 30
0.0
  3
*D16
  1

  0
LINE
  5
CD9
  8
SIZE
  6
CONTINUOUS
 62
     0
 10
0.0000000000000012
 20
241.77614199999991
 30
0.0
 11
0.0000000000000142
 21
454.44924443654321
 31
0.0
  0
LINE
  5
CDA
  8
SIZE
  6
CONTINUOUS
 62
     0
 10
12.000000000000011
 20
424.44924443654321
 30
0.0
 11
227.49999999999989
 21
424.44924443654321
 31
0.0
  0
LINE
  5
CDB
  8
SIZE
  6
CONTINUOUS
 62
     0
 10
239.5
 20
424.44924443654321
 30
0.0
 11
521.90000000000009
 21
424.44924443654321
 31
0.0
  0
INSERT
  5
CDC
  8
SIZE
  6
CONTINUOUS
 62
     0
  2
_ORIGIN
 10
0.0000000000000124
 20
424.44924443654321
 30
0.0
 41
12.0
 42
12.0
 43
12.0
 50
180.0
  0
INSERT
  5
CDD
  8
SIZE
  6
CONTINUOUS
 62
     0
  2
_ORIGIN
 10
239.5
 20
424.44924443654321
 30
0.0
 41
12.0
 42
12.0
 43
12.0
  0
TEXT
  5
CDE
  8
SIZE
  6
CONTINUOUS
 62
     0
 10
271.49999999999972
 20
444.4492444365431
 30
0.0
 40
64.0
  1
239.5
 41
0.9
  0
POINT
  5
CDF
  8
DEFPOINTS
  6
CONTINUOUS
 62
     0
 10
0.0
 20
221.77614199999991
 30
0.0
  0
POINT
  5
CE0
  8
DEFPOINTS
  6
CONTINUOUS
 62
     0
 10
239.5
 20
160.054428
 30
0.0
  0
POINT
  5
CE1
  8
DEFPOINTS
  6
CONTINUOUS
 62
     0
 10
239.5
 20
424.44924443654321
 30
0.0
  0
ENDBLK
  5
CE2
  8
0
 62
    30
  0
BLOCK
  8
0
  2
DOT1
 70
     0
 10
0.0
 20
0.0
 30
0.0
  3
DOT1
  1

  0
CIRCLE
  5
CE5
  8
SIZE
  6
CONTINUOUS
 62
     7
 10
0.0
 20
0.0
 30
0.0
 40
3.0
  0
ENDBLK
  5
CE6
  8
0
  0
ENDSEC
  0
SECTION
  2
ENTITIES
  0
LINE
  5
CE7
  8
BASIS
  6
DASHDOT
 62
     6
 10
-12.0
 20
213.7921979999999
 30
0.0
 11
-12.0
 21
149.9034879999999
 31
0.0
  0
LINE
  5
CE8
  8
DETAIL
  6
CONTINUOUS
 62
     5
 10
-42.63747
 20
199.4544139999999
 30
0.0
 11
-41.468961999999991
 21
201.47831599999989
 31
0.0
  0
LINE
  5
CE9
  8
DETAIL
  6
CONTINUOUS
 62
     5
 10
-47.939997999999989
 20
199.4544139999999
 30
0.0
 11
-12.0
 21
199.4544139999999
 31
0.0
  0
LINE
  5
CEA
  8
DETAIL
  6
CONTINUOUS
 62
     5
 10
-12.0
 20
201.47832999999989
 30
0.0
 11
-41.468952999999992
 21
201.47832999999989
 31
0.0
  0
LINE
  5
CEB
  8
DETAIL
  6
CONTINUOUS
 62
     5
 10
-18.672234
 20
202.48349999999991
 30
0.0
 11
-18.820820999999992
 21
201.47832999999989
 31
0.0
  0
LINE
  5
CEC
  8
DETAIL
  6
CONTINUOUS
 62
     5
 10
-16.852011999999991
 20
204.054428
 30
0.0
 11
-12.0
 21
204.054428
 31
0.0
  0
ARC
  5
CED
  8
DETAIL
  6
CONTINUOUS
 62
     5
 10
-16.852011999999991
 20
202.21441399999989
 30
0.0
 40
1.8400009999999991
 50
90.0
 51
171.59088899999981
  0
ARC
  5
CEE
  8
DETAIL
  6
CONTINUOUS
 62
     5
 10
-7.147987999999998
 20
202.21441399999989
 30
0.0
 40
1.8400009999999991
 50
8.4091109999999976
 51
90.0
  0
LINE
  5
CEF
  8
DETAIL
  6
CONTINUOUS
 62
     5
 10
-7.147987999999998
 20
204.054428
 30
0.0
 11
-12.0
 21
204.054428
 31
0.0
  0
LINE
  5
CF0
  8
DETAIL
  6
CONTINUOUS
 62
     5
 10
-5.3277659999999987
 20
202.48349999999991
 30
0.0
 11
-5.1791790000000004
 21
201.47832999999989
 31
0.0
  0
LINE
  5
CF1
  8
DETAIL
  6
CONTINUOUS
 62
     5
 10
-12.0
 20
201.47832999999989
 30
0.0
 11
10.08
 21
201.47832999999989
 31
0.0
  0
LINE
  5
CF2
  8
DETAIL
  6
CONTINUOUS
 62
     5
 10
10.08
 20
199.4544139999999
 30
0.0
 11
-12.0
 21
199.4544139999999
 31
0.0
  0
ARC
  5
CF3
  8
DETAIL
  6
CONTINUOUS
 62
     5
 10
23.939997999999999
 20
194.394428
 30
0.0
 40
5.060001999999999
 50
0.000001
 51
90.0
  0
LINE
  5
CF4
  8
DETAIL
  6
CONTINUOUS
 62
     5
 10
23.939997999999999
 20
199.4544139999999
 30
0.0
 11
-12.0
 21
199.4544139999999
 31
0.0
  0
LINE
  5
CF5
  8
DETAIL
  6
CONTINUOUS
 62
     5
 10
-12.0
 20
201.47832999999989
 30
0.0
 11
17.468952999999999
 21
201.47832999999989
 31
0.0
  0
LINE
  5
CF6
  8
DETAIL
  6
CONTINUOUS
 62
     5
 10
18.63747
 20
199.4544139999999
 30
0.0
 11
17.468962000000001
 21
201.47831599999989
 31
0.0
  0
CIRCLE
  5
CF7
  8
FIX
  6
CONTINUOUS
 62
    11
 10
-141.5
 20
0.054428
 30
0.0
 40
2.5
  0
CIRCLE
  5
CF8
  8
FIX
  6
CONTINUOUS
 62
    11
 10
85.0
 20
0.0
 30
0.0
 40
2.5
  0
CIRCLE
  5
CF9
  8
FIX
  6
CONTINUOUS
 62
    11
 10
85.0
 20
0.054428
 30
0.0
 40
2.5
  0
CIRCLE
  5
CFA
  8
FIX
  6
CONTINUOUS
 62
    11
 10
141.5
 20
0.054428
 30
0.0
 40
2.5
  0
LINE
  5
CFB
  8
DETAIL
  6
CONTINUOUS
 62
     5
 10
-159.4999999999996
 20
174.0544279999998
 30
0.0
 11
-159.4999999999996
 21
170.5544279999998
 31
0.0
  0
LINE
  5
CFC
  8
DETAIL
  6
CONTINUOUS
 62
     5
 10
87.5
 20
170.5544279999998
 30
0.0
 11
122.5
 21
170.5544279999998
 31
0.0
  0
LINE
  5
CFD
  8
DETAIL
  6
CONTINUOUS
 62
     5
 10
87.5
 20
174.0544279999998
 30
0.0
 11
122.5
 21
174.0544279999998
 31
0.0
  0
LINE
  5
CFE
  8
DETAIL
  6
CONTINUOUS
 62
     5
 10
-129.0
 20
170.5544279999998
 30
0.0
 11
-159.4999999999996
 21
170.5544279999998
 31
0.0
  0
CIRCLE
  5
CFF
  8
FIX
  6
CONTINUOUS
 62
    11
 10
142.5
 20
174.0544279999998
 30
0.0
 40
7.5
  0
TEXT
  5
D00
  8
NOTE
  6
CONTINUOUS
 62
     4
 10
323.512021
 20
-94.751137999999997
 30
0.0
 40
64.0
  1
EL
 41
0.9
  0
LINE
  5
D01
  8
NOTE
  6
CONTINUOUS
 62
     4
 10
299.88235900000001
 20
-119.0029009999997
 30
0.0
 11
418.687771
 21
-119.0029009999997
 31
0.0
  0
LINE
  5
D02
  8
SIZE
  6
CONTINUOUS
 62
    30
 10
-16.0
 20
356.543948
 30
0.0
 11
-299.79860099999991
 21
356.543948
 31
0.0
  0
LINE
  5
D03
  8
SIZE
  6
CONTINUOUS
 62
    30
 10
-53.5
 20
492.73677099999992
 30
0.0
 11
-362.59172100000001
 21
492.73677099999992
 31
0.0
  0
LINE
  5
D04
  8
SIZE
  6
CONTINUOUS
 62
    30
 10
102.0
 20
-258.53873599999991
 30
0.0
 11
358.893441
 21
-258.53873599999991
 31
0.0
  0
LINE
  5
D05
  8
NOTE
  6
CONTINUOUS
 62
     4
 10
-143.19888199999991
 20
173.73992699999999
 30
0.0
 11
-418.48877900000002
 21
391.60145
 31
0.0
  0
LINE
  5
D06
  8
NOTE
  6
CONTINUOUS
 62
     4
 10
-141.5
 20
0.054428
 30
0.0
 11
-280.69977299999982
 21
-325.68324200000001
 31
0.0
  0
POINT
  5
D07
  8
ARRANGE
  6
CONTINUOUS
 62
     1
 10
0.0
 20
0.0
 30
0.0
  0
CIRCLE
  5
D08
  8
ARRANGE
  6
CONTINUOUS
 62
     1
 10
0.0
 20
0.0
 30
0.0
 40
40.0
  0
LINE
  5
D09
  8
SIZE
  6
CONTINUOUS
 62
    30
 10
-685.01214500000003
 20
-19.945571999999999
 30
0.0
 11
-685.01214500000003
 21
-155.417025
 31
0.0
  0
CIRCLE
  5
D0A
  8
FIX
  6
CONTINUOUS
 62
    11
 10
-142.5
 20
174.0544279999998
 30
0.0
 40
7.5
  0
LINE
  5
D0B
  8
DETAIL
  6
CONTINUOUS
 62
     5
 10
128.4999999999998
 20
170.5544279999998
 30
0.0
 11
159.4999999999996
 21
170.5544279999998
 31
0.0
  0
LINE
  5
D0C
  8
DETAIL
  6
CONTINUOUS
 62
     5
 10
159.4999999999996
 20
174.0544279999998
 30
0.0
 11
159.4999999999996
 21
170.5544279999998
 31
0.0
  0
LINE
  5
D0D
  8
DETAIL
  6
CONTINUOUS
 62
     5
 10
-135.1349129999997
 20
-19.945571999999999
 30
0.0
 11
135.1349129999997
 21
-19.945571999999999
 31
0.0
  0
LINE
  5
D0E
  8
DETAIL
  6
CONTINUOUS
 62
     5
 10
165.0
 20
-8.4994510000000005
 30
0.0
 11
165.0
 21
0.054428
 31
0.0
  0
LINE
  5
D0F
  8
DETAIL
  6
CONTINUOUS
 62
     5
 10
-165.0
 20
-8.4994510000000005
 30
0.0
 11
-165.0
 21
0.054428
 31
0.0
  0
LINE
  5
D10
  8
DETAIL
  6
CONTINUOUS
 62
     5
 10
-165.0
 20
-5.9455720000000003
 30
0.0
 11
-126.5
 21
-5.9455720000000003
 31
0.0
  0
LINE
  5
D11
  8
DETAIL
  6
CONTINUOUS
 62
     5
 10
126.5
 20
-19.945571999999999
 30
0.0
 11
126.5
 21
0.054428
 31
0.0
  0
LINE
  5
D12
  8
DETAIL
  6
CONTINUOUS
 62
     5
 10
-126.5
 20
-19.945571999999999
 30
0.0
 11
-126.5
 21
0.054428
 31
0.0
  0
LINE
  5
D13
  8
DETAIL
  6
CONTINUOUS
 62
     5
 10
121.5
 20
-19.945571999999999
 30
0.0
 11
121.5
 21
0.054428
 31
0.0
  0
LINE
  5
D14
  8
DETAIL
  6
CONTINUOUS
 62
     5
 10
126.5
 20
-5.9455720000000003
 30
0.0
 11
165.0
 21
-5.9455720000000003
 31
0.0
  0
LINE
  5
D15
  8
DETAIL
  6
CONTINUOUS
 62
     5
 10
-121.5
 20
-5.9455720000000003
 30
0.0
 11
121.5
 21
-5.9455720000000003
 31
0.0
  0
LINE
  5
D16
  8
DETAIL
  6
CONTINUOUS
 62
     5
 10
-159.4999999999996
 20
174.0544279999998
 30
0.0
 11
-125.5
 21
174.0544279999998
 31
0.0
  0
CIRCLE
  5
D17
  8
FIX
  6
CONTINUOUS
 62
    11
 10
-85.0
 20
0.054428
 30
0.0
 40
2.5
  0
LINE
  5
D18
  8
DETAIL
  6
CONTINUOUS
 62
     5
 10
87.5
 20
174.0544279999998
 30
0.0
 11
87.5
 21
22.554428000000001
 31
0.0
  0
LINE
  5
D19
  8
DETAIL
  6
CONTINUOUS
 62
     5
 10
122.5
 20
174.0544279999998
 30
0.0
 11
122.5
 21
166.054428
 31
0.0
  0
LINE
  5
D1A
  8
DETAIL
  6
CONTINUOUS
 62
     5
 10
-125.5
 20
174.0544279999998
 30
0.0
 11
-125.5
 21
0.054428
 31
0.0
  0
LINE
  5
D1B
  8
DETAIL
  6
CONTINUOUS
 62
     5
 10
-121.5
 20
-19.945571999999999
 30
0.0
 11
-121.5
 21
0.054428
 31
0.0
  0
ARC
  5
D1C
  8
DETAIL
  6
CONTINUOUS
 62
     5
 10
-47.939997999999989
 20
194.394428
 30
0.0
 40
5.060001999999999
 50
90.0
 51
179.999999
  0
LINE
  5
D1D
  8
DETAIL
  6
CONTINUOUS
 62
     5
 10
-129.0
 20
170.5544279999998
 30
0.0
 11
-129.0
 21
22.554428000000001
 31
0.0
  0
LINE
  5
D1E
  8
DETAIL
  6
CONTINUOUS
 62
     5
 10
125.5
 20
166.054428
 30
0.0
 11
125.5
 21
174.0544279999998
 31
0.0
  0
CIRCLE
  5
D1F
  8
FIX
  6
CONTINUOUS
 62
    11
 10
105.0
 20
174.0544279999998
 30
0.0
 40
7.5
  0
LINE
  5
D20
  8
DETAIL
  6
CONTINUOUS
 62
     5
 10
125.5
 20
174.0544279999998
 30
0.0
 11
159.4999999999996
 21
174.0544279999998
 31
0.0
  0
LINE
  5
D21
  8
DETAIL
  6
CONTINUOUS
 62
     5
 10
125.5
 20
166.054428
 30
0.0
 11
122.5
 21
166.054428
 31
0.0
  0
LINE
  5
D22
  8
NOTE
  6
CONTINUOUS
 62
     4
 10
-280.69977299999982
 20
-325.68324200000001
 30
0.0
 11
-714.722488
 21
-325.68324200000001
 31
0.0
  0
LINE
  5
D23
  8
NOTE
  6
CONTINUOUS
 62
     4
 10
-1371.1894799999991
 20
391.60145
 30
0.0
 11
-418.48877900000002
 21
391.60145
 31
0.0
  0
LINE
  5
D24
  8
DETAIL
  6
CONTINUOUS
 62
     5
 10
122.5
 20
119.554428
 30
0.0
 11
128.4999999999998
 21
119.554428
 31
0.0
  0
LINE
  5
D25
  8
DETAIL
  6
CONTINUOUS
 62
     5
 10
87.5
 20
166.054428
 30
0.0
 11
-125.5
 21
166.054428
 31
0.0
  0
LINE
  5
D26
  8
DETAIL
  6
CONTINUOUS
 62
     5
 10
87.5
 20
159.054428
 30
0.0
 11
-125.5
 21
159.054428
 31
0.0
  0
LINE
  5
D27
  8
DETAIL
  6
CONTINUOUS
 62
     5
 10
29.0
 20
176.05442799999949
 30
0.0
 11
-53.0
 21
176.05442799999949
 31
0.0
  0
TEXT
  5
D28
  8
NOTE
  6
CONTINUOUS
 62
     4
 10
-1368.241
 20
428.65760799999993
 30
0.0
 40
64.0
  1
AH 4-âË15ü~22
 41
0.9
  0
LINE
  5
D29
  8
DETAIL
  6
CONTINUOUS
 62
     5
 10
-165.0
 20
0.054428
 30
0.0
 11
165.0
 21
0.054428
 31
0.0
  0
LINE
  5
D2A
  8
BASIS
  6
DASHDOT
 62
     6
 10
0.0
 20
221.77614199999991
 30
0.0
 11
0.0
 21
-58.376257999999993
 31
0.0
  0
LINE
  5
D2B
  8
DETAIL
  6
CONTINUOUS
 62
     5
 10
125.5
 20
180.05442799999949
 30
0.0
 11
125.5
 21
174.0544279999998
 31
0.0
  0
LINE
  5
D2C
  8
DETAIL
  6
CONTINUOUS
 62
     5
 10
212.5
 20
58.554428000000001
 30
0.0
 11
212.5
 21
163.55442799999949
 31
0.0
  0
LINE
  5
D2D
  8
DETAIL
  6
CONTINUOUS
 62
     5
 10
187.5
 20
56.054428000000001
 30
0.0
 11
187.5
 21
166.054428
 31
0.0
  0
LINE
  5
D2E
  8
DETAIL
  6
CONTINUOUS
 62
     5
 10
212.5
 20
163.55442799999949
 30
0.0
 11
187.5
 21
163.55442799999949
 31
0.0
  0
LINE
  5
D2F
  8
DETAIL
  6
CONTINUOUS
 62
     5
 10
212.5
 20
58.554428000000001
 30
0.0
 11
187.5
 21
58.554428000000001
 31
0.0
  0
LINE
  5
D30
  8
DETAIL
  6
CONTINUOUS
 62
     5
 10
239.5
 20
160.054428
 30
0.0
 11
212.5
 21
160.054428
 31
0.0
  0
LINE
  5
D31
  8
DETAIL
  6
CONTINUOUS
 62
     5
 10
239.5
 20
62.054428000000001
 30
0.0
 11
212.5
 21
62.054428000000001
 31
0.0
  0
LINE
  5
D32
  8
DETAIL
  6
CONTINUOUS
 62
     5
 10
187.5
 20
166.054428
 30
0.0
 11
128.4999999999998
 21
166.054428
 31
0.0
  0
LINE
  5
D33
  8
DETAIL
  6
CONTINUOUS
 62
     5
 10
187.5
 20
56.054428000000001
 30
0.0
 11
128.4999999999998
 21
56.054428000000001
 31
0.0
  0
TEXT
  5
D34
  8
NOTE
  6
CONTINUOUS
 62
     4
 10
301.24838899999992
 20
73.648282999999978
 30
0.0
 40
64.0
  1
EA
 41
0.9
  0
LINE
  5
D35
  8
SIZE
  6
CONTINUOUS
 62
    30
 10
648.72324100000003
 20
162.054428
 30
0.0
 11
648.72324100000003
 21
378.14520599999992
 31
0.0
  0
LINE
  5
D36
  8
SIZE
  6
CONTINUOUS
 62
    30
 10
765.64947900000004
 20
165.5544279999998
 30
0.0
 11
765.64947900000004
 21
394.338257
 31
0.0
  0
LINE
  5
D37
  8
DETAIL
  6
CONTINUOUS
 62
     5
 10
128.4999999999998
 20
1.054427999999999
 30
0.0
 11
128.4999999999998
 21
170.5544279999998
 31
0.0
  0
LINE
  5
D38
  8
BASIS
  6
DASHDOT
 62
     6
 10
283.68260699999962
 20
111.054428
 30
0.0
 11
103.86499599999991
 21
111.054428
 31
0.0
  0
LINE
  5
D39
  8
SIZE
  6
CONTINUOUS
 62
    30
 10
855.22530200000006
 20
2.0544279999999961
 30
0.0
 11
855.22530200000006
 21
-161.66463999999999
 31
0.0
  0
LINE
  5
D3A
  8
SIZE
  6
CONTINUOUS
 62
    30
 10
611.3106889999998
 20
-3.9455719999999981
 30
0.0
 11
611.3106889999998
 21
-141.7053929999999
 31
0.0
  0
LINE
  5
D3B
  8
DETAIL
  6
CONTINUOUS
 62
     5
 10
48.0
 20
170.054428
 30
0.0
 11
-72.0
 21
170.054428
 31
0.0
  0
LINE
  5
D3C
  8
DETAIL
  6
CONTINUOUS
 62
     5
 10
-72.0
 20
170.054428
 30
0.0
 11
-72.0
 21
166.054428
 31
0.0
  0
LINE
  5
D3D
  8
DETAIL
  6
CONTINUOUS
 62
     5
 10
48.0
 20
170.054428
 30
0.0
 11
48.0
 21
166.054428
 31
0.0
  0
LINE
  5
D3E
  8
DETAIL
  6
CONTINUOUS
 62
     5
 10
87.5
 20
22.554428000000001
 30
0.0
 11
122.5
 21
22.554428000000001
 31
0.0
  0
LINE
  5
D3F
  8
DETAIL
  6
CONTINUOUS
 62
     5
 10
128.4999999999998
 20
174.0544279999998
 30
0.0
 11
128.4999999999998
 21
180.054428
 31
0.0
  0
LINE
  5
D40
  8
DETAIL
  6
CONTINUOUS
 62
     5
 10
125.5
 20
170.5544279999998
 30
0.0
 11
125.5
 21
0.054428
 31
0.0
  0
LINE
  5
D41
  8
OUTLINE
  6
CONTINUOUS
 62
     3
 10
-165.0
 20
0.054428
 30
0.0
 11
165.0
 21
0.054428
 31
0.0
  0
LINE
  5
D42
  8
OUTLINE
  6
CONTINUOUS
 62
     3
 10
-125.5
 20
166.054428
 30
0.0
 11
-125.5
 21
0.054428
 31
0.0
  0
LINE
  5
D43
  8
OUTLINE
  6
CONTINUOUS
 62
     3
 10
125.5
 20
166.054428
 30
0.0
 11
-125.5
 21
166.054428
 31
0.0
  0
LINE
  5
D44
  8
OUTLINE
  6
CONTINUOUS
 62
     3
 10
125.5
 20
166.054428
 30
0.0
 11
125.5
 21
0.054428
 31
0.0
  0
LINE
  5
D45
  8
DETAIL
  6
CONTINUOUS
 62
     5
 10
-87.5
 20
174.0544279999998
 30
0.0
 11
-87.5
 21
166.054428
 31
0.0
  0
LINE
  5
D46
  8
DETAIL
  6
CONTINUOUS
 62
     5
 10
-122.5
 20
174.0544279999998
 30
0.0
 11
-122.5
 21
166.054428
 31
0.0
  0
CIRCLE
  5
D47
  8
FIX
  6
CONTINUOUS
 62
    11
 10
-105.0
 20
174.0544279999998
 30
0.0
 40
7.5
  0
LINE
  5
D48
  8
DETAIL
  6
CONTINUOUS
 62
     5
 10
-87.5
 20
174.0544279999998
 30
0.0
 11
-122.5
 21
174.0544279999998
 31
0.0
  0
LINE
  5
D49
  8
DETAIL
  6
CONTINUOUS
 62
     5
 10
122.5
 20
119.554428
 30
0.0
 11
122.5
 21
22.554428000000001
 31
0.0
  0
LINE
  5
D4A
  8
SIZE
  6
CONTINUOUS
 62
    30
 10
-546.23052300000006
 20
174.0544279999998
 30
0.0
 11
-546.23052300000006
 21
325.337784
 31
0.0
  0
LINE
  5
D4B
  8
SIZE
  6
CONTINUOUS
 62
    30
 10
-421.01708699999989
 20
176.05442799999949
 30
0.0
 11
-421.01708699999989
 21
326.65579799999989
 31
0.0
  0
TEXT
  5
D4C
  8
NOTE
  6
CONTINUOUS
 62
     4
 10
-695.09206799999981
 20
-285.905573
 30
0.0
 40
64.0
  1
8-âË5ü~8
 41
0.9
  0
LINE
  5
D4D
  8
DETAIL
  6
CONTINUOUS
 62
     5
 10
-129.0
 20
22.554428000000001
 30
0.0
 11
-125.5
 21
22.554428000000001
 31
0.0
  0
LINE
  5
D4E
  8
DETAIL
  6
CONTINUOUS
 62
     5
 10
128.4999999999998
 20
1.054427999999999
 30
0.0
 11
153.5
 21
1.054427999999999
 31
0.0
  0
LINE
  5
D4F
  8
DETAIL
  6
CONTINUOUS
 62
     5
 10
153.5
 20
0.054428
 30
0.0
 11
153.5
 21
1.054427999999999
 31
0.0
  0
LINE
  5
D50
  8
NOTE
  6
CONTINUOUS
 62
     4
 10
105.0
 20
166.054428
 30
0.0
 11
299.88235900000001
 21
-119.0029009999997
 31
0.0
  0
LINE
  5
D51
  8
DETAIL
  6
CONTINUOUS
 62
     5
 10
125.5
 20
22.554428000000001
 30
0.0
 11
128.4999999999998
 21
22.554428000000001
 31
0.0
  0
LINE
  5
D52
  8
DETAIL
  6
CONTINUOUS
 62
     5
 10
-53.0
 20
170.054428
 30
0.0
 11
-53.0
 21
194.394428
 31
0.0
  0
LINE
  5
D53
  8
DETAIL
  6
CONTINUOUS
 62
     5
 10
29.0
 20
170.054428
 30
0.0
 11
29.0
 21
194.394428
 31
0.0
  0
TEXT
  5
D54
  8
NOTE
  6
CONTINUOUS
 62
     4
 10
-745.37531799999988
 20
430.19957499999992
 30
0.0
 40
64.0
  1
(2ô_Æ¦éÞ)
 41
0.9
  0
LINE
  5
D55
  8
SIZE
  6
BYBLOCK
 62
    30
 10
29.0
 20
214.39442799999989
 30
0.0
 11
29.0
 21
522.73677099999998
 31
0.0
  0
LINE
  5
D56
  8
SIZE
  6
BYBLOCK
 62
    30
 10
-53.0
 20
214.39442799999989
 30
0.0
 11
-53.0
 21
522.73677099999998
 31
0.0
  0
LINE
  5
D57
  8
SIZE
  6
CONTINUOUS
 62
    30
 10
-55.0
 20
492.73677099999992
 30
0.0
 11
-57.0
 21
492.73677099999992
 31
0.0
  0
LINE
  5
D58
  8
SIZE
  6
CONTINUOUS
 62
    30
 10
31.0
 20
492.73677099999992
 30
0.0
 11
33.0
 21
492.73677099999992
 31
0.0
  0
LINE
  5
D59
  8
SIZE
  6
CONTINUOUS
 62
    30
 10
-53.0
 20
492.73677099999992
 30
0.0
 11
29.0
 21
492.73677099999992
 31
0.0
  0
TEXT
  5
D5A
  8
SIZE
  6
BYBLOCK
 62
    30
 10
-362.92940699999991
 20
524.73677099999986
 30
0.0
 40
64.0
  1
âË82
 41
0.9
  0
LINE
  5
D5B
  8
SIZE
  6
BYBLOCK
 62
    30
 10
0.0
 20
-78.376257999999964
 30
0.0
 11
0.0
 21
-288.53873599999991
 31
0.0
  0
LINE
  5
D5C
  8
SIZE
  6
BYBLOCK
 62
    30
 10
105.0
 20
126.0544279999999
 30
0.0
 11
105.0
 21
-288.53873599999991
 31
0.0
  0
LINE
  5
D5D
  8
SIZE
  6
BYBLOCK
 62
    30
 10
107.0
 20
-258.53873599999991
 30
0.0
 11
109.0
 21
-258.53873599999991
 31
0.0
  0
LINE
  5
D5E
  8
SIZE
  6
BYBLOCK
 62
    30
 10
-2.0
 20
-258.53873599999991
 30
0.0
 11
-4.0
 21
-258.53873599999991
 31
0.0
  0
LINE
  5
D5F
  8
SIZE
  6
BYBLOCK
 62
    30
 10
105.0
 20
-258.53873599999991
 30
0.0
 11
0.0
 21
-258.53873599999991
 31
0.0
  0
TEXT
  5
D60
  8
SIZE
  6
BYBLOCK
 62
    30
 10
192.5037889999999
 20
-226.538736
 30
0.0
 40
64.0
  1
105
 41
0.9
  0
LINE
  5
D61
  8
SIZE
  6
BYBLOCK
 62
    30
 10
173.5
 20
1.054427999999999
 30
0.0
 11
641.3106889999998
 21
1.054427999999999
 31
0.0
  0
LINE
  5
D62
  8
SIZE
  6
BYBLOCK
 62
    30
 10
148.5
 20
56.054428000000001
 30
0.0
 11
641.3106889999998
 21
56.054428000000001
 31
0.0
  0
LINE
  5
D63
  8
SIZE
  6
BYBLOCK
 62
    30
 10
611.3106889999998
 20
58.054428000000001
 30
0.0
 11
611.3106889999998
 21
60.054428000000001
 31
0.0
  0
LINE
  5
D64
  8
SIZE
  6
BYBLOCK
 62
    30
 10
611.3106889999998
 20
-0.9455719999999999
 30
0.0
 11
611.3106889999998
 21
-2.9455719999999981
 31
0.0
  0
LINE
  5
D65
  8
SIZE
  6
BYBLOCK
 62
    30
 10
611.3106889999998
 20
56.054428000000001
 30
0.0
 11
611.3106889999998
 21
1.054427999999999
 31
0.0
  0
TEXT
  5
D66
  8
SIZE
  6
BYBLOCK
 62
    30
 10
579.3106889999998
 20
-114.1040359999996
 30
0.0
 40
64.0
  1
55
 50
90.0
 41
0.9
  0
LINE
  5
D67
  8
SIZE
  6
BYBLOCK
 62
    30
 10
-185.0
 20
0.054428
 30
0.0
 11
-715.01214500000003
 21
0.054428
 31
0.0
  0
LINE
  5
D68
  8
SIZE
  6
BYBLOCK
 62
    30
 10
-36.852012000000002
 20
204.05441499999969
 30
0.0
 11
-715.01214500000003
 21
204.05441499999969
 31
0.0
  0
LINE
  5
D69
  8
SIZE
  6
BYBLOCK
 62
    30
 10
-685.01214500000003
 20
2.0544279999999961
 30
0.0
 11
-685.01214500000003
 21
202.05441499999981
 31
0.0
  0
TEXT
  5
D6A
  8
SIZE
  6
BYBLOCK
 62
    30
 10
-717.01214500000003
 20
26.625849999999989
 30
0.0
 40
64.0
  1
204
 50
90.0
 41
0.9
  0
LINE
  5
D6B
  8
SIZE
  6
BYBLOCK
 62
    30
 10
-145.5
 20
166.054428
 30
0.0
 11
-451.017087
 21
166.054428
 31
0.0
  0
LINE
  5
D6C
  8
SIZE
  6
BYBLOCK
 62
    30
 10
-182.5
 20
174.0544279999998
 30
0.0
 11
-451.017087
 21
174.0544279999998
 31
0.0
  0
LINE
  5
D6D
  8
SIZE
  6
BYBLOCK
 62
    30
 10
-421.01708699999989
 20
176.05442799999949
 30
0.0
 11
-421.01708699999989
 21
178.0544279999998
 31
0.0
  0
LINE
  5
D6E
  8
SIZE
  6
BYBLOCK
 62
    30
 10
-421.01708699999989
 20
164.054428
 30
0.0
 11
-421.01708699999989
 21
162.054428
 31
0.0
  0
LINE
  5
D6F
  8
SIZE
  6
BYBLOCK
 62
    30
 10
-421.01708699999989
 20
174.0544279999998
 30
0.0
 11
-421.01708699999989
 21
166.054428
 31
0.0
  0
TEXT
  5
D70
  8
SIZE
  6
BYBLOCK
 62
    30
 10
-449.06297899999981
 20
256.29555299999993
 30
0.0
 40
64.0
  1
8
 50
90.0
 41
0.9
  0
LINE
  5
D71
  8
SIZE
  6
BYBLOCK
 62
    30
 10
-142.5
 20
166.054428
 30
0.0
 11
-576.23052299999995
 21
166.054428
 31
0.0
  0
LINE
  5
D72
  8
SIZE
  6
BYBLOCK
 62
    30
 10
-92.0
 20
170.054428
 30
0.0
 11
-576.23052299999995
 21
170.054428
 31
0.0
  0
LINE
  5
D73
  8
SIZE
  6
BYBLOCK
 62
    30
 10
-546.23052300000006
 20
172.054428
 30
0.0
 11
-546.23052300000006
 21
174.0544279999998
 31
0.0
  0
LINE
  5
D74
  8
SIZE
  6
BYBLOCK
 62
    30
 10
-546.23052300000006
 20
164.054428
 30
0.0
 11
-546.23052300000006
 21
162.054428
 31
0.0
  0
LINE
  5
D75
  8
SIZE
  6
BYBLOCK
 62
    30
 10
-546.23052300000006
 20
170.054428
 30
0.0
 11
-546.23052300000006
 21
166.054428
 31
0.0
  0
TEXT
  5
D76
  8
SIZE
  6
BYBLOCK
 62
    30
 10
-582.18463199999985
 20
256.87816600000002
 30
0.0
 40
64.0
  1
4
 50
90.0
 41
0.9
  0
LINE
  5
D77
  8
SIZE
  6
BYBLOCK
 62
    30
 10
-185.0
 20
0.054428
 30
0.0
 11
-576.23052299999995
 21
0.054428
 31
0.0
  0
LINE
  5
D78
  8
SIZE
  6
BYBLOCK
 62
    30
 10
-145.5
 20
166.054428
 30
0.0
 11
-576.23052299999995
 21
166.054428
 31
0.0
  0
LINE
  5
D79
  8
SIZE
  6
BYBLOCK
 62
    30
 10
-546.23052300000006
 20
2.0544279999999961
 30
0.0
 11
-546.23052300000006
 21
164.054428
 31
0.0
  0
TEXT
  5
D7A
  8
SIZE
  6
BYBLOCK
 62
    30
 10
-578.23052299999995
 20
15.854428
 30
0.0
 40
64.0
  1
166
 50
90.0
 41
0.9
  0
LINE
  5
D7B
  8
SIZE
  6
BYBLOCK
 62
    30
 10
125.5
 20
198.054428
 30
0.0
 11
125.5
 21
887.12273000000005
 31
0.0
  0
LINE
  5
D7C
  8
SIZE
  6
BYBLOCK
 62
    30
 10
-125.5
 20
194.054428
 30
0.0
 11
-125.5
 21
887.12273000000005
 31
0.0
  0
LINE
  5
D7D
  8
SIZE
  6
CONTINUOUS
 62
    30
 10
123.5
 20
857.12273000000005
 30
0.0
 11
0.0
 21
857.12273000000005
 31
0.0
  0
LINE
  5
D7E
  8
SIZE
  6
CONTINUOUS
 62
    30
 10
-123.5
 20
857.12273000000005
 30
0.0
 11
0.0
 21
857.12273000000005
 31
0.0
  0
TEXT
  5
D7F
  8
SIZE
  6
CONTINUOUS
 62
    30
 10
-102.31675300000001
 20
889.12273000000005
 30
0.0
 40
64.0
  1
üá251
 41
0.9
  0
LINE
  5
D80
  8
SIZE
  6
BYBLOCK
 62
    30
 10
185.0
 20
0.054428
 30
0.0
 11
1019.948999999999
 21
0.054428
 31
0.0
  0
LINE
  5
D81
  8
SIZE
  6
BYBLOCK
 62
    30
 10
185.0
 20
0.054428
 30
0.0
 11
885.22530199999994
 21
0.054428
 31
0.0
  0
LINE
  5
D82
  8
SIZE
  6
BYBLOCK
 62
    30
 10
303.6826069999999
 20
111.054428
 30
0.0
 11
885.22530199999994
 21
111.054428
 31
0.0
  0
LINE
  5
D83
  8
SIZE
  6
BYBLOCK
 62
    30
 10
855.22530200000006
 20
2.0544279999999961
 30
0.0
 11
855.22530200000006
 21
55.554428000000001
 31
0.0
  0
LINE
  5
D84
  8
SIZE
  6
BYBLOCK
 62
    30
 10
855.22530200000006
 20
109.054428
 30
0.0
 11
855.22530200000006
 21
55.554428000000001
 31
0.0
  0
TEXT
  5
D85
  8
SIZE
  6
BYBLOCK
 62
    30
 10
823.22530199999983
 20
-149.87259
 30
0.0
 40
64.0
  1
111
 50
90.0
 41
0.9
  0
LINE
  5
D86
  8
SIZE
  6
BYBLOCK
 62
    30
 10
125.5
 20
192.82711399999991
 30
0.0
 11
125.5
 21
887.12273000000005
 31
0.0
  0
LINE
  5
D87
  8
SIZE
  6
CONTINUOUS
 62
    30
 10
123.5
 20
857.12273000000005
 30
0.0
 11
121.5
 21
857.12273000000005
 31
0.0
  0
LINE
  5
D88
  8
SIZE
  6
BYBLOCK
 62
    30
 10
232.5
 20
58.554428000000001
 30
0.0
 11
795.64947900000004
 21
58.554428000000001
 31
0.0
  0
LINE
  5
D89
  8
SIZE
  6
BYBLOCK
 62
    30
 10
232.5
 20
163.55442799999949
 30
0.0
 11
795.64947900000004
 21
163.55442799999949
 31
0.0
  0
LINE
  5
D8A
  8
SIZE
  6
BYBLOCK
 62
    30
 10
765.64947900000004
 20
165.5544279999998
 30
0.0
 11
765.64947900000004
 21
167.5544279999996
 31
0.0
  0
LINE
  5
D8B
  8
SIZE
  6
BYBLOCK
 62
    30
 10
765.64947900000004
 20
56.554428000000001
 30
0.0
 11
765.64947900000004
 21
54.554428000000001
 31
0.0
  0
LINE
  5
D8C
  8
SIZE
  6
BYBLOCK
 62
    30
 10
765.64947900000004
 20
163.55442799999949
 30
0.0
 11
765.64947900000004
 21
58.554428000000001
 31
0.0
  0
TEXT
  5
D8D
  8
SIZE
  6
BYBLOCK
 62
    30
 10
733.64947900000004
 20
206.98753400000001
 30
0.0
 40
64.0
  1
âË105
 50
90.0
 41
0.9
  0
LINE
  5
D8E
  8
SIZE
  6
BYBLOCK
 62
    30
 10
262.5
 20
62.054428000000001
 30
0.0
 11
678.72324100000003
 21
62.054428000000001
 31
0.0
  0
LINE
  5
D8F
  8
SIZE
  6
BYBLOCK
 62
    30
 10
262.5
 20
160.054428
 30
0.0
 11
678.72324100000003
 21
160.054428
 31
0.0
  0
LINE
  5
D90
  8
SIZE
  6
BYBLOCK
 62
    30
 10
648.72324100000003
 20
162.054428
 30
0.0
 11
648.72324100000003
 21
164.054428
 31
0.0
  0
LINE
  5
D91
  8
SIZE
  6
BYBLOCK
 62
    30
 10
648.72324100000003
 20
60.054428000000001
 30
0.0
 11
648.72324100000003
 21
58.054428000000001
 31
0.0
  0
LINE
  5
D92
  8
SIZE
  6
BYBLOCK
 62
    30
 10
648.72324100000003
 20
160.054428
 30
0.0
 11
648.72324100000003
 21
62.054428000000001
 31
0.0
  0
TEXT
  5
D93
  8
SIZE
  6
BYBLOCK
 62
    30
 10
616.72324100000003
 20
206.66494800000001
 30
0.0
 40
64.0
  1
âË98
 50
90.0
 41
0.9
  0
LINE
  5
D94
  8
SIZE
  6
BYBLOCK
 62
    30
 10
-12.0
 20
233.7921979999999
 30
0.0
 11
-12.0
 21
386.543948
 31
0.0
  0
LINE
  5
D95
  8
SIZE
  6
CONTINUOUS
 62
    30
 10
-14.0
 20
356.543948
 30
0.0
 11
-16.0
 21
356.543948
 31
0.0
  0
LINE
  5
D96
  8
SIZE
  6
CONTINUOUS
 62
    30
 10
2.0
 20
356.543948
 30
0.0
 11
4.0
 21
356.543948
 31
0.0
  0
LINE
  5
D97
  8
SIZE
  6
CONTINUOUS
 62
    30
 10
-12.0
 20
356.543948
 30
0.0
 11
0.0
 21
356.543948
 31
0.0
  0
TEXT
  5
D98
  8
SIZE
  6
BYBLOCK
 62
    30
 10
-283.74145099999993
 20
388.543948
 30
0.0
 40
64.0
  1
12
 41
0.9
  0
LINE
  5
D99
  8
SIZE
  6
BYBLOCK
 62
    30
 10
-185.0
 20
0.054428
 30
0.0
 11
-715.01214500000003
 21
0.054428
 31
0.0
  0
LINE
  5
D9A
  8
SIZE
  6
BYBLOCK
 62
    30
 10
-146.5
 20
-19.945571999999999
 30
0.0
 11
-715.01214500000003
 21
-19.945571999999999
 31
0.0
  0
LINE
  5
D9B
  8
SIZE
  6
BYBLOCK
 62
    30
 10
-685.01214500000003
 20
-21.945571999999991
 30
0.0
 11
-685.01214500000003
 21
-23.945571999999991
 31
0.0
  0
LINE
  5
D9C
  8
SIZE
  6
BYBLOCK
 62
    30
 10
-685.01214500000003
 20
2.0544279999999961
 30
0.0
 11
-685.01214500000003
 21
4.054427999999997
 31
0.0
  0
LINE
  5
D9D
  8
SIZE
  6
BYBLOCK
 62
    30
 10
-685.01214500000003
 20
-19.945571999999999
 30
0.0
 11
-685.01214500000003
 21
0.054428
 31
0.0
  0
TEXT
  5
D9E
  8
SIZE
  6
BYBLOCK
 62
    30
 10
-717.01214500000003
 20
-138.30814599999991
 30
0.0
 40
64.0
  1
20
 50
90.0
 41
0.9
  0
LINE
  5
D9F
  8
SIZE
  6
BYBLOCK
 62
    30
 10
-105.0
 20
214.0544279999998
 30
0.0
 11
-105.0
 21
624.18775900000003
 31
0.0
  0
LINE
  5
DA0
  8
SIZE
  6
BYBLOCK
 62
    30
 10
105.0
 20
214.0544279999998
 30
0.0
 11
105.0
 21
624.18775900000003
 31
0.0
  0
LINE
  5
DA1
  8
SIZE
  6
CONTINUOUS
 62
    30
 10
-103.0
 20
594.18775900000003
 30
0.0
 11
0.0
 21
594.18775900000003
 31
0.0
  0
LINE
  5
DA2
  8
SIZE
  6
CONTINUOUS
 62
    30
 10
103.0
 20
594.18775900000003
 30
0.0
 11
0.0
 21
594.18775900000003
 31
0.0
  0
TEXT
  5
DA3
  8
SIZE
  6
CONTINUOUS
 62
    30
 10
-68.571429000000009
 20
626.18775900000003
 30
0.0
 40
64.0
  1
210
 41
0.9
  0
LINE
  5
DA4
  8
SIZE
  6
BYBLOCK
 62
    30
 10
-142.5
 20
214.75058199999981
 30
0.0
 11
-142.5
 21
751.52869999999984
 31
0.0
  0
LINE
  5
DA5
  8
SIZE
  6
BYBLOCK
 62
    30
 10
142.5
 20
214.75058199999981
 30
0.0
 11
142.5
 21
751.52869999999984
 31
0.0
  0
LINE
  5
DA6
  8
SIZE
  6
CONTINUOUS
 62
    30
 10
-140.5
 20
721.52869999999984
 30
0.0
 11
0.0
 21
721.52869999999984
 31
0.0
  0
LINE
  5
DA7
  8
SIZE
  6
CONTINUOUS
 62
    30
 10
140.5
 20
721.52869999999984
 30
0.0
 11
0.0
 21
721.52869999999984
 31
0.0
  0
TEXT
  5
DA8
  8
SIZE
  6
CONTINUOUS
 62
    30
 10
-74.057143000000025
 20
753.52869999999984
 30
0.0
 40
64.0
  1
285
 41
0.9
  0
LINE
  5
DA9
  8
SIZE
  6
BYBLOCK
 62
    30
 10
-165.00000700000001
 20
-26.210712999999998
 30
0.0
 11
-165.00000700000001
 21
-715.13707099999999
 31
0.0
  0
LINE
  5
DAA
  8
SIZE
  6
BYBLOCK
 62
    30
 10
165.00000700000001
 20
-26.210712999999998
 30
0.0
 11
165.00000700000001
 21
-715.13707099999999
 31
0.0
  0
LINE
  5
DAB
  8
SIZE
  6
BYBLOCK
 62
    30
 10
-163.00000700000001
 20
-685.13707099999999
 30
0.0
 11
0.0
 21
-685.13707099999999
 31
0.0
  0
LINE
  5
DAC
  8
SIZE
  6
BYBLOCK
 62
    30
 10
163.00000700000001
 20
-685.13707099999999
 30
0.0
 11
0.0
 21
-685.13707099999999
 31
0.0
  0
TEXT
  5
DAD
  8
SIZE
  6
BYBLOCK
 62
    30
 10
-106.6971429999999
 20
-653.13707099999999
 30
0.0
 40
64.0
  1
üá330
 41
0.9
  0
LINE
  5
DAE
  8
SIZE
  6
BYBLOCK
 62
    30
 10
141.5
 20
-40.0
 30
0.0
 11
141.5
 21
-586.16231600000003
 31
0.0
  0
LINE
  5
DAF
  8
SIZE
  6
BYBLOCK
 62
    30
 10
-141.5
 20
-40.0
 30
0.0
 11
-141.5
 21
-586.16231600000003
 31
0.0
  0
LINE
  5
DB0
  8
SIZE
  6
BYBLOCK
 62
    30
 10
139.5
 20
-556.16231600000003
 30
0.0
 11
0.0
 21
-556.16231600000003
 31
0.0
  0
LINE
  5
DB1
  8
SIZE
  6
BYBLOCK
 62
    30
 10
-139.5
 20
-556.16231600000003
 30
0.0
 11
0.0
 21
-556.16231600000003
 31
0.0
  0
TEXT
  5
DB2
  8
SIZE
  6
BYBLOCK
 62
    30
 10
-68.310451
 20
-524.16231600000003
 30
0.0
 40
64.0
  1
283
 41
0.9
  0
LINE
  5
DB3
  8
SIZE
  6
BYBLOCK
 62
    30
 10
85.0
 20
-40.0
 30
0.0
 11
85.0
 21
-445.16050899999999
 31
0.0
  0
LINE
  5
DB4
  8
SIZE
  6
BYBLOCK
 62
    30
 10
-85.0
 20
-40.0
 30
0.0
 11
-85.0
 21
-445.16050899999999
 31
0.0
  0
LINE
  5
DB5
  8
SIZE
  6
BYBLOCK
 62
    30
 10
83.0
 20
-415.16050899999999
 30
0.0
 11
0.0
 21
-415.16050899999999
 31
0.0
  0
LINE
  5
DB6
  8
SIZE
  6
BYBLOCK
 62
    30
 10
-83.0
 20
-415.16050899999999
 30
0.0
 11
0.0
 21
-415.16050899999999
 31
0.0
  0
TEXT
  5
DB7
  8
SIZE
  6
BYBLOCK
 62
    30
 10
-68.571429000000009
 20
-383.16050899999999
 30
0.0
 40
64.0
  1
170
 41
0.9
  0
CIRCLE
  5
DB8
  8
SIZE
  6
CONTINUOUS
 62
    30
 10
-85.0
 20
-415.16050899999999
 30
0.0
 40
6.0
  0
CIRCLE
  5
DB9
  8
SIZE
  6
CONTINUOUS
 62
    30
 10
85.0
 20
-415.16050899999999
 30
0.0
 40
6.0
  0
CIRCLE
  5
DBA
  8
SIZE
  6
CONTINUOUS
 62
    30
 10
-141.5
 20
-556.16231600000003
 30
0.0
 40
6.0
  0
CIRCLE
  5
DBB
  8
SIZE
  6
CONTINUOUS
 62
    30
 10
141.5
 20
-556.16231600000003
 30
0.0
 40
6.0
  0
CIRCLE
  5
DBC
  8
SIZE
  6
CONTINUOUS
 62
    30
 10
165.00000700000001
 20
-685.13707099999999
 30
0.0
 40
6.0
  0
CIRCLE
  5
DBD
  8
SIZE
  6
CONTINUOUS
 62
    30
 10
-165.00000700000001
 20
-685.13707099999999
 30
0.0
 40
6.0
  0
CIRCLE
  5
DBE
  8
SIZE
  6
CONTINUOUS
 62
    30
 10
142.5
 20
721.52869999999984
 30
0.0
 40
6.0
  0
CIRCLE
  5
DBF
  8
SIZE
  6
CONTINUOUS
 62
    30
 10
-142.5
 20
721.52869999999984
 30
0.0
 40
6.0
  0
CIRCLE
  5
DC0
  8
SIZE
  6
CONTINUOUS
 62
    30
 10
105.0
 20
594.18775900000003
 30
0.0
 40
6.0
  0
CIRCLE
  5
DC1
  8
SIZE
  6
CONTINUOUS
 62
    30
 10
-105.0
 20
594.18775900000003
 30
0.0
 40
6.0
  0
CIRCLE
  5
DC2
  8
SIZE
  6
CONTINUOUS
 62
    30
 10
-685.01214500000003
 20
0.054428
 30
0.0
 40
6.0
  0
CIRCLE
  5
DC3
  8
SIZE
  6
CONTINUOUS
 62
    30
 10
-685.01214500000003
 20
-19.945571999999999
 30
0.0
 40
6.0
  0
CIRCLE
  5
DC4
  8
SIZE
  6
CONTINUOUS
 62
    30
 10
0.0
 20
356.543948
 30
0.0
 40
6.0
  0
CIRCLE
  5
DC5
  8
SIZE
  6
CONTINUOUS
 62
    30
 10
-12.0
 20
356.543948
 30
0.0
 40
6.0
  0
CIRCLE
  5
DC6
  8
SIZE
  6
CONTINUOUS
 62
    30
 10
648.72324100000003
 20
62.054428000000001
 30
0.0
 40
6.0
  0
CIRCLE
  5
DC7
  8
SIZE
  6
CONTINUOUS
 62
    30
 10
648.72324100000003
 20
160.054428
 30
0.0
 40
6.0
  0
CIRCLE
  5
DC8
  8
SIZE
  6
CONTINUOUS
 62
    30
 10
765.64947900000004
 20
58.554428000000001
 30
0.0
 40
6.0
  0
CIRCLE
  5
DC9
  8
SIZE
  6
CONTINUOUS
 62
    30
 10
765.64947900000004
 20
163.55442799999949
 30
0.0
 40
6.0
  0
CIRCLE
  5
DCA
  8
SIZE
  6
CONTINUOUS
 62
    30
 10
855.22530200000006
 20
111.054428
 30
0.0
 40
6.0
  0
CIRCLE
  5
DCB
  8
SIZE
  6
CONTINUOUS
 62
    30
 10
855.22530200000006
 20
0.054428
 30
0.0
 40
6.0
  0
CIRCLE
  5
DCC
  8
SIZE
  6
CONTINUOUS
 62
    30
 10
-125.5
 20
857.12273000000005
 30
0.0
 40
6.0
  0
CIRCLE
  5
DCD
  8
SIZE
  6
CONTINUOUS
 62
    30
 10
-546.23052300000006
 20
166.054428
 30
0.0
 40
6.0
  0
CIRCLE
  5
DCE
  8
SIZE
  6
CONTINUOUS
 62
    30
 10
-546.23052300000006
 20
0.054428
 30
0.0
 40
6.0
  0
CIRCLE
  5
DCF
  8
SIZE
  6
CONTINUOUS
 62
    30
 10
-546.23052300000006
 20
166.054428
 30
0.0
 40
6.0
  0
CIRCLE
  5
DD0
  8
SIZE
  6
CONTINUOUS
 62
    30
 10
-546.23052300000006
 20
170.054428
 30
0.0
 40
6.0
  0
CIRCLE
  5
DD1
  8
SIZE
  6
CONTINUOUS
 62
    30
 10
-421.01708699999989
 20
166.054428
 30
0.0
 40
6.0
  0
CIRCLE
  5
DD2
  8
SIZE
  6
CONTINUOUS
 62
    30
 10
-421.01708699999989
 20
174.0544279999998
 30
0.0
 40
6.0
  0
CIRCLE
  5
DD3
  8
SIZE
  6
CONTINUOUS
 62
    30
 10
-685.01214500000003
 20
204.05441499999969
 30
0.0
 40
6.0
  0
CIRCLE
  5
DD4
  8
SIZE
  6
CONTINUOUS
 62
    30
 10
-685.01214500000003
 20
0.054428
 30
0.0
 40
6.0
  0
CIRCLE
  5
DD5
  8
SIZE
  6
CONTINUOUS
 62
    30
 10
611.3106889999998
 20
1.054427999999999
 30
0.0
 40
6.0
  0
CIRCLE
  5
DD6
  8
SIZE
  6
CONTINUOUS
 62
    30
 10
611.3106889999998
 20
56.054428000000001
 30
0.0
 40
6.0
  0
CIRCLE
  5
DD7
  8
SIZE
  6
CONTINUOUS
 62
    30
 10
0.0
 20
-258.53873599999991
 30
0.0
 40
6.0
  0
CIRCLE
  5
DD8
  8
SIZE
  6
CONTINUOUS
 62
    30
 10
105.0
 20
-258.53873599999991
 30
0.0
 40
6.0
  0
CIRCLE
  5
DD9
  8
SIZE
  6
CONTINUOUS
 62
    30
 10
29.0
 20
492.73677099999992
 30
0.0
 40
6.0
  0
CIRCLE
  5
DDA
  8
SIZE
  6
CONTINUOUS
 62
    30
 10
-53.0
 20
492.73677099999992
 30
0.0
 40
6.0
  0
LINE
  5
DDB
  8
NOTE
  6
CONTINUOUS
 62
     4
 10
-105.0
 20
154.0544279999996
 30
0.0
 11
-105.0
 21
194.054428
 31
0.0
  0
LINE
  5
DDC
  8
NOTE
  6
CONTINUOUS
 62
     4
 10
-85.0
 20
174.0544279999998
 30
0.0
 11
-125.0
 21
174.0544279999998
 31
0.0
  0
LINE
  5
DDD
  8
NOTE
  6
CONTINUOUS
 62
     4
 10
105.0
 20
154.0544279999996
 30
0.0
 11
105.0
 21
194.054428
 31
0.0
  0
LINE
  5
DDE
  8
NOTE
  6
CONTINUOUS
 62
     4
 10
85.0
 20
174.0544279999998
 30
0.0
 11
125.0
 21
174.0544279999998
 31
0.0
  0
LINE
  5
DDF
  8
NOTE
  6
CONTINUOUS
 62
     4
 10
-142.5
 20
154.0544279999996
 30
0.0
 11
-142.5
 21
194.054428
 31
0.0
  0
LINE
  5
DE0
  8
NOTE
  6
CONTINUOUS
 62
     4
 10
-122.5
 20
174.0544279999998
 30
0.0
 11
-162.5
 21
174.0544279999998
 31
0.0
  0
LINE
  5
DE1
  8
NOTE
  6
CONTINUOUS
 62
     4
 10
142.5
 20
154.0544279999996
 30
0.0
 11
142.5
 21
194.054428
 31
0.0
  0
LINE
  5
DE2
  8
NOTE
  6
CONTINUOUS
 62
     4
 10
122.5
 20
174.0544279999998
 30
0.0
 11
162.5
 21
174.0544279999998
 31
0.0
  0
LINE
  5
DE3
  8
NOTE
  6
CONTINUOUS
 62
     4
 10
105.0
 20
146.054428
 30
0.0
 11
105.0
 21
186.054428
 31
0.0
  0
LINE
  5
DE4
  8
NOTE
  6
CONTINUOUS
 62
     4
 10
85.0
 20
166.054428
 30
0.0
 11
125.0
 21
166.054428
 31
0.0
  0
LINE
  5
DE5
  8
NOTE
  6
CONTINUOUS
 62
     4
 10
141.5
 20
-19.945571999999999
 30
0.0
 11
141.5
 21
20.054428000000001
 31
0.0
  0
LINE
  5
DE6
  8
NOTE
  6
CONTINUOUS
 62
     4
 10
161.5
 20
0.054428
 30
0.0
 11
121.5
 21
0.054428
 31
0.0
  0
LINE
  5
DE7
  8
NOTE
  6
CONTINUOUS
 62
     4
 10
85.0
 20
-19.945571999999999
 30
0.0
 11
85.0
 21
20.054428000000001
 31
0.0
  0
LINE
  5
DE8
  8
NOTE
  6
CONTINUOUS
 62
     4
 10
105.0
 20
0.054428
 30
0.0
 11
65.0
 21
0.054428
 31
0.0
  0
LINE
  5
DE9
  8
NOTE
  6
CONTINUOUS
 62
     4
 10
-85.0
 20
-19.945571999999999
 30
0.0
 11
-85.0
 21
20.054428000000001
 31
0.0
  0
LINE
  5
DEA
  8
NOTE
  6
CONTINUOUS
 62
     4
 10
-65.0
 20
0.054428
 30
0.0
 11
-105.0
 21
0.054428
 31
0.0
  0
LINE
  5
DEB
  8
NOTE
  6
CONTINUOUS
 62
     4
 10
-141.5
 20
-19.945571999999999
 30
0.0
 11
-141.5
 21
20.054428000000001
 31
0.0
  0
LINE
  5
DEC
  8
NOTE
  6
CONTINUOUS
 62
     4
 10
-121.5
 20
0.054428
 30
0.0
 11
-161.5
 21
0.054428
 31
0.0
  0
LINE
  5
DED
  8
DETAIL
  6
CONTINUOUS
 62
     5
 10
239.5
 20
62.054428000000001
 30
0.0
 11
239.5
 21
160.054428
 31
0.0
  0
LINE
  5
DEE
  8
DETAIL
  6
CONTINUOUS
 62
     5
 10
125.5
 20
180.054428
 30
0.0
 11
128.4999999999998
 21
180.054428
 31
0.0
  0
LINE
  5
DEF
  8
SIZE
  6
CONTINUOUS
 62
    30
 10
0.0000000000000012
 20
241.77614199999991
 30
0.0
 11
0.0000000000000142
 21
454.44924443654321
 31
0.0
  0
LINE
  5
DF0
  8
SIZE
  6
CONTINUOUS
 62
    30
 10
12.000000000000011
 20
424.44924443654321
 30
0.0
 11
227.49999999999989
 21
424.44924443654321
 31
0.0
  0
LINE
  5
DF1
  8
SIZE
  6
CONTINUOUS
 62
    30
 10
239.5
 20
424.44924443654321
 30
0.0
 11
521.90000000000009
 21
424.44924443654321
 31
0.0
  0
TEXT
  5
DF2
  8
SIZE
  6
CONTINUOUS
 62
    30
 10
271.49999999999972
 20
444.4492444365431
 30
0.0
 40
64.0
  1
239.5
 41
0.9
  0
LINE
  5
DF3
  8
SIZE
  6
CONTINUOUS
 62
    30
 10
-165.0
 20
20.054428000000001
 30
0.0
 11
-164.9999999999998
 21
1025.638339580109
 31
0.0
  0
LINE
  5
DF4
  8
SIZE
  6
CONTINUOUS
 62
    30
 10
239.5
 20
180.054428
 30
0.0
 11
239.5
 21
1025.638339580109
 31
0.0
  0
LINE
  5
DF5
  8
SIZE
  6
CONTINUOUS
 62
    30
 10
-152.9999999999998
 20
995.63833958010946
 30
0.0
 11
227.49999999999989
 21
995.63833958010946
 31
0.0
  0
TEXT
  5
DF6
  8
SIZE
  6
CONTINUOUS
 62
    30
 10
-77.949999999999932
 20
1015.638339580108
 30
0.0
 40
64.0
  1
404.5
 41
0.9
  0
LINE
  5
DF7
  8
NOTE
  6
CONTINUOUS
 62
     4
 10
-147.617694
 20
-39.474975999999998
 30
0.0
 11
-141.5
 21
0.054428
 31
0.0
  0
LINE
  5
DF8
  8
NOTE
  6
CONTINUOUS
 62
     4
 10
-141.5
 20
0.054428
 30
0.0
 11
-166.56278
 21
-31.120194000000001
 31
0.0
  0
ARC
  5
DF9
  8
DETAIL
  6
CONTINUOUS
 62
     5
 10
-160.65313142131211
 20
-8.4994533355303297
 30
0.0
 40
4.3468685786884
 50
179.99996921553301
 51
234.48040473296439
  0
ARC
  5
DFA
  8
DETAIL
  6
CONTINUOUS
 62
     5
 10
-143.85271285375001
 20
15.036754348281431
 30
0.0
 40
33.26411492374222
 50
234.4803248995994
 51
253.5286705122075
  0
ARC
  5
DFB
  8
DETAIL
  6
CONTINUOUS
 62
     5
 10
-132.52209515784131
 20
53.358355301539113
 30
0.0
 40
73.22569643633463
 50
253.5285971813862
 51
263.01776918893609
  0
ARC
  5
DFC
  8
DETAIL
  6
CONTINUOUS
 62
     5
 10
-125.00014469848099
 20
114.77611733569969
 30
0.0
 40
135.10235788464331
 50
263.01771384064739
 51
265.6978882188734
  0
LINE
  5
DFD
  8
NOTE
  6
CONTINUOUS
 62
     4
 10
-180.39787699999999
 20
188.444851
 30
0.0
 11
-143.19888199999991
 21
173.73992699999999
 31
0.0
  0
LINE
  5
DFE
  8
NOTE
  6
CONTINUOUS
 62
     4
 10
-143.19888199999991
 20
173.73992699999999
 30
0.0
 11
-168.0616939999999
 21
205.074262
 31
0.0
  0
LINE
  5
DFF
  8
SIZE
  6
CONTINUOUS
 62
    30
 10
148.4999999999998
 20
180.054428
 30
0.0
 11
1024.1301695233201
 21
180.0544279999994
 31
0.0
  0
LINE
  5
E00
  8
SIZE
  6
CONTINUOUS
 62
    30
 10
999.94899999999893
 20
0.0544280000000057
 30
0.0
 11
964.13016952332146
 21
0.0544280000000158
 31
0.0
  0
LINE
  5
E01
  8
SIZE
  6
CONTINUOUS
 62
    30
 10
994.13016952332168
 20
180.0544279999994
 30
0.0
 11
994.13016952332168
 21
0.0544280000000073
 31
0.0
  0
TEXT
  5
E02
  8
SIZE
  6
CONTINUOUS
 62
    30
 10
973.73898733741191
 20
20.757193808960309
 30
0.0
 40
64.0
  1
180
 50
90.0
 41
0.9
  0
ARC
  5
E03
  8
DETAIL
  6
CONTINUOUS
 62
     5
 10
160.65313142131211
 20
-8.4994533355303297
 30
0.0
 40
4.3468685786884
 50
305.51959526703553
 51
0.0000307844666481
  0
ARC
  5
E04
  8
DETAIL
  6
CONTINUOUS
 62
     5
 10
143.85271285375001
 20
15.036754348281431
 30
0.0
 40
33.26411492374222
 50
286.47132948779222
 51
305.5196751004006
  0
ARC
  5
E05
  8
DETAIL
  6
CONTINUOUS
 62
     5
 10
132.52209515784131
 20
53.358355301539113
 30
0.0
 40
73.22569643633463
 50
276.98223081106369
 51
286.47140281861363
  0
ARC
  5
E06
  8
DETAIL
  6
CONTINUOUS
 62
     5
 10
125.00014469848099
 20
114.77611733569969
 30
0.0
 40
135.10235788464331
 50
274.3021117811266
 51
276.98228615935238
  0
LINE
  5
E07
  8
SIZE
  6
CONTINUOUS
 62
    30
 10
212.5
 20
180.054428
 30
0.0
 11
212.5
 21
625.55196487617275
 31
0.0
  0
LINE
  5
E08
  8
SIZE
  6
CONTINUOUS
 62
    30
 10
200.49999999999989
 20
595.55196487617275
 30
0.0
 11
188.4999999999998
 21
595.55196487617275
 31
0.0
  0
LINE
  5
E09
  8
SIZE
  6
CONTINUOUS
 62
    30
 10
251.5
 20
595.55196487617275
 30
0.0
 11
396.75714285714281
 21
595.55196487617275
 31
0.0
  0
LINE
  5
E0A
  8
SIZE
  6
CONTINUOUS
 62
    30
 10
212.5
 20
595.55196487617275
 30
0.0
 11
239.5
 21
595.55196487617275
 31
0.0
  0
TEXT
  5
E0B
  8
SIZE
  6
CONTINUOUS
 62
    30
 10
283.49999999999989
 20
615.55196487617275
 30
0.0
 40
64.0
  1
27
 41
0.9
  0
LINE
  5
E0C
  8
SIZE
  6
CONTINUOUS
 62
    30
 10
187.5
 20
183.5544279999998
 30
0.0
 11
187.5
 21
749.86878402992249
 31
0.0
  0
LINE
  5
E0D
  8
SIZE
  6
CONTINUOUS
 62
    30
 10
175.5
 20
719.86878402992249
 30
0.0
 11
163.4999999999998
 21
719.86878402992249
 31
0.0
  0
LINE
  5
E0E
  8
SIZE
  6
CONTINUOUS
 62
    30
 10
251.5
 20
719.86878402992249
 30
0.0
 11
396.75714285714281
 21
719.86878402992249
 31
0.0
  0
LINE
  5
E0F
  8
SIZE
  6
CONTINUOUS
 62
    30
 10
187.5
 20
719.86878402992249
 30
0.0
 11
239.5
 21
719.86878402992249
 31
0.0
  0
TEXT
  5
E10
  8
SIZE
  6
CONTINUOUS
 62
    30
 10
283.49999999999989
 20
739.86878402992215
 30
0.0
 40
64.0
  1
52
 41
0.9
  0
LINE
  5
E11
  8
SIZE
  6
CONTINUOUS
 62
    30
 10
137.5
 20
856.21626422483052
 30
0.0
 11
227.49999999999989
 21
856.21626422483052
 31
0.0
  0
LINE
  5
E12
  8
SIZE
  6
CONTINUOUS
 62
    30
 10
239.5
 20
856.21626422483052
 30
0.0
 11
420.4142857142856
 21
856.21626422483052
 31
0.0
  0
TEXT
  5
E13
  8
SIZE
  6
CONTINUOUS
 62
    30
 10
271.49999999999972
 20
876.21626422483018
 30
0.0
 40
64.0
  1
114
 41
0.9
  0
LINE
  5
E14
  8
NOTE
  6
CONTINUOUS
 62
     4
 10
135.9109729999999
 20
140.6671919999998
 30
0.0
 11
105.0
 21
166.054428
 31
0.0
  0
LINE
  5
E15
  8
NOTE
  6
CONTINUOUS
 62
     4
 10
105.0
 20
166.054428
 30
0.0
 11
119.07607
 21
128.61295000000001
 31
0.0
  0
TEXT
  5
E16
  8
ETC
  6
CONTINUOUS
 62
    61
 10
1023.759261478321
 20
630.49838702820966
 30
0.0
 40
50.0
  1
VD-15ZP7
 41
0.9
  0
TEXT
  5
E17
  8
ETC
  6
CONTINUOUS
 62
    61
 10
1019.541631863255
 20
706.35650861752492
 30
0.0
 40
50.0
  1
VD-15Z7-BL
 41
0.9
  0
TEXT
  5
E18
  8
ETC
  6
CONTINUOUS
 62
    61
 10
865.54307718986479
 20
979.20273517625242
 30
0.0
 40
64.0
  1
VD-15Z7_5
 41
0.9
  0
TEXT
  5
E19
  8
ETC
  6
CONTINUOUS
 62
    61
 10
1010.588627915005
 20
790.6433103834305
 30
0.0
 40
50.0
  1
VD-15Z7
 41
0.9
  0
TEXT
  5
E1A
  8
ETC
  6
CONTINUOUS
 62
    61
 10
866.09546218986509
 20
866.64137717625238
 30
0.0
 40
64.0
  1
èÀïCÉ¯
 41
0.9
  0
CIRCLE
  5
E1B
  8
SIZE
  6
CONTINUOUS
 62
    30
 10
0.0000000000000124
 20
424.44924443654321
 30
0.0
 40
6.0
  0
LINE
  5
E1C
  8
SIZE
  6
CONTINUOUS
 62
    30
 10
0.0000000000000124
 20
424.44924443654321
 30
0.0
 11
12.000000000000011
 21
424.44924443654321
 31
0.0
  0
CIRCLE
  5
E1D
  8
SIZE
  6
CONTINUOUS
 62
    30
 10
-164.9999999999998
 20
995.63833958010946
 30
0.0
 40
6.0
  0
LINE
  5
E1E
  8
SIZE
  6
CONTINUOUS
 62
    30
 10
-164.9999999999998
 20
995.63833958010946
 30
0.0
 11
-152.9999999999998
 21
995.63833958010946
 31
0.0
  0
CIRCLE
  5
E1F
  8
SIZE
  6
CONTINUOUS
 62
    30
 10
994.13016952332168
 20
0.0544280000000073
 30
0.0
 40
10.0
  0
CIRCLE
  5
E20
  8
SIZE
  6
CONTINUOUS
 62
    30
 10
239.5
 20
424.44924443654321
 30
0.0
 40
6.0
  0
LINE
  5
E21
  8
SIZE
  6
CONTINUOUS
 62
    30
 10
239.5
 20
424.44924443654321
 30
0.0
 11
227.49999999999989
 21
424.44924443654321
 31
0.0
  0
CIRCLE
  5
E22
  8
SIZE
  6
CONTINUOUS
 62
    30
 10
212.5
 20
595.55196487617275
 30
0.0
 40
6.0
  0
LINE
  5
E23
  8
SIZE
  6
CONTINUOUS
 62
    30
 10
212.5
 20
595.55196487617275
 30
0.0
 11
200.49999999999989
 21
595.55196487617275
 31
0.0
  0
CIRCLE
  5
E24
  8
SIZE
  6
CONTINUOUS
 62
    30
 10
239.5
 20
595.55196487617275
 30
0.0
 40
6.0
  0
LINE
  5
E25
  8
SIZE
  6
CONTINUOUS
 62
    30
 10
239.5
 20
595.55196487617275
 30
0.0
 11
251.5
 21
595.55196487617275
 31
0.0
  0
CIRCLE
  5
E26
  8
SIZE
  6
CONTINUOUS
 62
    30
 10
239.5
 20
856.21626422483052
 30
0.0
 40
6.0
  0
LINE
  5
E27
  8
SIZE
  6
CONTINUOUS
 62
    30
 10
239.5
 20
856.21626422483052
 30
0.0
 11
227.49999999999989
 21
856.21626422483052
 31
0.0
  0
CIRCLE
  5
E28
  8
SIZE
  6
CONTINUOUS
 62
    30
 10
187.5
 20
719.86878402992249
 30
0.0
 40
6.0
  0
LINE
  5
E29
  8
SIZE
  6
CONTINUOUS
 62
    30
 10
187.5
 20
719.86878402992249
 30
0.0
 11
175.5
 21
719.86878402992249
 31
0.0
  0
CIRCLE
  5
E2A
  8
SIZE
  6
CONTINUOUS
 62
    30
 10
125.5
 20
856.21626422483052
 30
0.0
 40
6.0
  0
LINE
  5
E2B
  8
SIZE
  6
CONTINUOUS
 62
    30
 10
125.5
 20
856.21626422483052
 30
0.0
 11
137.5
 21
856.21626422483052
 31
0.0
  0
CIRCLE
  5
E2C
  8
SIZE
  6
CONTINUOUS
 62
    30
 10
239.5
 20
719.86878402992249
 30
0.0
 40
6.0
  0
LINE
  5
E2D
  8
SIZE
  6
CONTINUOUS
 62
    30
 10
239.5
 20
719.86878402992249
 30
0.0
 11
251.5
 21
719.86878402992249
 31
0.0
  0
CIRCLE
  5
E2E
  8
SIZE
  6
CONTINUOUS
 62
    30
 10
239.5
 20
995.63833958010946
 30
0.0
 40
6.0
  0
LINE
  5
E2F
  8
SIZE
  6
CONTINUOUS
 62
    30
 10
239.5
 20
995.63833958010946
 30
0.0
 11
227.49999999999989
 21
995.63833958010946
 31
0.0
  0
CIRCLE
  5
E30
  8
SIZE
  6
CONTINUOUS
 62
    30
 10
994.13016952332168
 20
180.0544279999994
 30
0.0
 40
10.0
  0
LINE
  5
E31
  8
SIZE
  6
CONTINUOUS
 62
    30
 10
250.49999999999989
 20
139.97453102155939
 30
0.0
 11
250.49999999999989
 21
330.47136371110707
 31
0.0
  0
LINE
  5
E3B
  8
SIZE
  6
CONTINUOUS
 62
    30
 10
216.78322311960341
 20
307.14856420187323
 30
0.0
 11
371.1928477144728
 21
307.14856420187323
 31
0.0
  0
CIRCLE
  5
E3C
  8
SIZE
  6
CONTINUOUS
 62
    30
 10
250.49999999999989
 20
307.14856420187323
 30
0.0
 40
6.0
  0
CIRCLE
  5
E3D
  8
SIZE
  6
CONTINUOUS
 62
    30
 10
239.5
 20
307.14856420187323
 30
0.0
 40
6.0
  0
TEXT
  5
E3E
  8
SIZE
  6
CONTINUOUS
 62
    30
 10
283.49999999999989
 20
324.9140024458664
 30
0.0
 40
64.0
  1
11
 41
0.9
  0
LINE
  5
F0B
  8
DETAIL
  6
DASHED2
 62
     5
 10
179.172027159409
 20
138.19284328564751
 30
0.0
 11
178.8882443612396
 21
139.0205463262746
 31
0.0
  0
LINE
  5
F0C
  8
DETAIL
  6
DASHED2
 62
     5
 10
168.00986704894279
 20
138.19284328564751
 30
0.0
 11
168.2936498471112
 21
139.0205463262746
 31
0.0
  0
LINE
  5
F0D
  8
DETAIL
  6
DASHDOT1
 62
     5
 10
173.5909473395761
 20
149.05434041799171
 30
0.0
 11
173.5909473395761
 21
61.054336417991799
 31
0.0
  0
CIRCLE
  5
F0E
  8
DETAIL
  6
DASHED2
 62
     5
 10
173.5909473395761
 20
139.05433641799181
 30
0.0
 40
2.1000000000000001
  0
CIRCLE
  5
F0F
  8
DETAIL
  6
DASHED2
 62
     5
 10
173.5909473395761
 20
139.05433641799181
 30
0.0
 40
2.1000000000000001
  0
ARC
  5
F10
  8
DETAIL
  6
DASHDOT1
 62
     5
 10
173.5909473395761
 20
139.05433641799181
 30
0.0
 40
78.0
 50
270.0
 51
350.4059999999983
  0
LINE
  5
F11
  8
DETAIL
  6
DASHED2
 62
     5
 10
250.7113413395752
 20
127.33714541799191
 30
0.0
 11
203.36319333957539
 21
135.34038541799171
 31
0.0
  0
LINE
  5
F12
  8
DETAIL
  6
DASHED2
 62
     5
 10
250.4999993395752
 20
126.0544284179917
 30
0.0
 11
203.17135233957549
 21
134.0543714179918
 31
0.0
  0
LINE
  5
F13
  8
DETAIL
  6
DASHED2
 62
     5
 10
179.45580995757791
 20
137.3651402450206
 30
0.0
 11
179.172027159409
 21
138.19284328564751
 31
0.0
  0
LINE
  5
F14
  8
DETAIL
  6
DASHED2
 62
     5
 10
180.0233755539156
 20
135.70973416376631
 30
0.0
 11
179.73959275574629
 21
136.5374372043934
 31
0.0
  0
LINE
  5
F15
  8
DETAIL
  6
DASHED2
 62
     5
 10
179.73959275574629
 20
136.5374372043934
 30
0.0
 11
179.45580995757791
 21
137.3651402450206
 31
0.0
  0
LINE
  5
F16
  8
DETAIL
  6
DASHED2
 62
     5
 10
180.59094115025391
 20
134.05432808251231
 30
0.0
 11
180.30715835208471
 21
134.88203112313931
 31
0.0
  0
LINE
  5
F17
  8
DETAIL
  6
DASHED2
 62
     5
 10
180.30715835208471
 20
134.88203112313931
 30
0.0
 11
180.0233755539156
 21
135.70973416376631
 31
0.0
  0
LINE
  5
F18
  8
DETAIL
  6
DASHED2
 62
     5
 10
180.30498533957589
 20
135.3543444179918
 30
0.0
 11
203.44019533957541
 21
135.35437141799181
 31
0.0
  0
LINE
  5
F19
  8
DETAIL
  6
DASHED2
 62
     5
 10
167.7260842507732
 20
137.3651402450206
 30
0.0
 11
168.00986704894279
 21
138.19284328564751
 31
0.0
  0
LINE
  5
F1A
  8
DETAIL
  6
DASHED2
 62
     5
 10
167.15851865443571
 20
135.70973416376631
 30
0.0
 11
167.4423014526046
 21
136.5374372043934
 31
0.0
  0
LINE
  5
F1B
  8
DETAIL
  6
DASHED2
 62
     5
 10
167.4423014526046
 20
136.5374372043934
 30
0.0
 11
167.7260842507732
 21
137.3651402450206
 31
0.0
  0
LINE
  5
F1C
  8
DETAIL
  6
DASHED2
 62
     5
 10
166.59095305809791
 20
134.05432808251231
 30
0.0
 11
166.8747358562666
 21
134.88203112313931
 31
0.0
  0
LINE
  5
F1D
  8
DETAIL
  6
DASHED2
 62
     5
 10
166.8747358562666
 20
134.88203112313931
 30
0.0
 11
167.15851865443571
 21
135.70973416376631
 31
0.0
  0
LINE
  5
F1E
  8
DETAIL
  6
DASHED2
 62
     5
 10
154.70092433957589
 20
134.05431341799181
 30
0.0
 11
154.70092333957609
 21
135.35431341799179
 31
0.0
  0
LINE
  5
F1F
  8
DETAIL
  6
DASHED2
 62
     5
 10
154.54117433957609
 20
135.35431341799179
 30
0.0
 11
167.03666533957599
 21
135.35432841799181
 31
0.0
  0
LINE
  5
F20
  8
DETAIL
  6
DASHED2
 62
     5
 10
154.54117633957611
 20
134.05431341799181
 30
0.0
 11
203.17135233957549
 21
134.0543714179918
 31
0.0
  0
LINE
  5
F21
  8
DETAIL
  6
DASHED2
 62
     5
 10
250.4999993395752
 20
126.0544284179917
 30
0.0
 11
250.7113413395752
 21
127.33714541799191
 31
0.0
  0
LINE
  5
F22
  8
DETAIL
  6
DASHED2
 62
     5
 10
178.8882443612396
 20
139.0205463262746
 30
0.0
 11
178.60446156307071
 21
139.8482493669018
 31
0.0
  0
LINE
  5
F23
  8
DETAIL
  6
DASHED2
 62
     5
 10
178.60446156307071
 20
139.8482493669018
 30
0.0
 11
178.32067876490231
 21
140.67595240752871
 31
0.0
  0
LINE
  5
F24
  8
DETAIL
  6
DASHED2
 62
     5
 10
168.2936498471112
 20
139.0205463262746
 30
0.0
 11
168.57743264528011
 21
139.8482493669018
 31
0.0
  0
LINE
  5
F25
  8
DETAIL
  6
DASHED2
 62
     5
 10
168.57743264528011
 20
139.8482493669018
 30
0.0
 11
168.86121544344951
 21
140.67595240752871
 31
0.0
  0
LINE
  5
F26
  8
BASIS
  6
DASHED2
 62
     6
 10
183.59095033957621
 20
139.05433641799181
 30
0.0
 11
163.59094333957611
 21
139.05433641799181
 31
0.0
  0
ARC
  5
F27
  8
DETAIL
  6
DASHED2
 62
     5
 10
173.5909473395761
 20
139.05433641799181
 30
0.0
 40
5.0
 50
18.924713000002988
 51
161.07542399999821
  0
ENDSEC
  0
EOF
