  0
SECTION
  2
HEADER
  9
$ACADVER
  1
AC1009
  9
$DWGCODEPAGE
  3
dos932
  9
$INSBASE
 10
0.0
 20
0.0
 30
0.0
  9
$EXTMIN
 10
-1373.027947623281
 20
-2144.752638639886
 30
0.0
  9
$EXTMAX
 10
2178.338955012411
 20
1841.843180176082
 30
50.0
  9
$LIMMIN
 10
-2970.0
 20
-2100.0
  9
$LIMMAX
 10
2970.0
 20
2100.0
  9
$ORTHOMODE
 70
     0
  9
$REGENMODE
 70
     1
  9
$FILLMODE
 70
     1
  9
$QTEXTMODE
 70
     0
  9
$MIRRTEXT
 70
     0
  9
$DRAGMODE
 70
     2
  9
$LTSCALE
 40
20.0
  9
$OSMODE
 70
    37
  9
$ATTMODE
 70
     1
  9
$TEXTSIZE
 40
64.0
  9
$TRACEWID
 40
0.05
  9
$TEXTSTYLE
  7
STANDARD
  9
$CLAYER
  8
SIZE
  9
$CELTYPE
  6
CONTINUOUS
  9
$CECOLOR
 62
     7
  9
$DIMSCALE
 40
1.0
  9
$DIMASZ
 40
12.0
  9
$DIMEXO
 40
20.0
  9
$DIMDLI
 40
200.0
  9
$DIMRND
 40
0.0
  9
$DIMDLE
 40
0.0
  9
$DIMEXE
 40
20.0
  9
$DIMTP
 40
0.0
  9
$DIMTM
 40
0.0
  9
$DIMTXT
 40
64.0
  9
$DIMCEN
 40
0.09
  9
$DIMTSZ
 40
0.0
  9
$DIMTOL
 70
     0
  9
$DIMLIM
 70
     0
  9
$DIMTIH
 70
     0
  9
$DIMTOH
 70
     0
  9
$DIMSE1
 70
     0
  9
$DIMSE2
 70
     0
  9
$DIMTAD
 70
     1
  9
$DIMZIN
 70
     8
  9
$DIMBLK
  1

  9
$DIMASO
 70
     1
  9
$DIMSHO
 70
     0
  9
$DIMPOST
  1

  9
$DIMAPOST
  1

  9
$DIMALT
 70
     0
  9
$DIMALTD
 70
     2
  9
$DIMALTF
 40
25.4
  9
$DIMLFAC
 40
1.0
  9
$DIMTOFL
 70
     1
  9
$DIMTVP
 40
0.0
  9
$DIMTIX
 70
     1
  9
$DIMSOXD
 70
     0
  9
$DIMSAH
 70
     0
  9
$DIMBLK1
  1

  9
$DIMBLK2
  1

  9
$DIMSTYLE
  2
STANDARD
  9
$DIMCLRD
 70
     7
  9
$DIMCLRE
 70
     7
  9
$DIMCLRT
 70
     7
  9
$DIMTFAC
 40
1.0
  9
$DIMGAP
 40
25.0
  9
$LUNITS
 70
     2
  9
$LUPREC
 70
     4
  9
$SKETCHINC
 40
0.1
  9
$FILLETRAD
 40
3.0
  9
$AUNITS
 70
     1
  9
$AUPREC
 70
     3
  9
$MENU
  1
ACAD
  9
$ELEVATION
 40
0.0
  9
$PELEVATION
 40
0.0
  9
$THICKNESS
 40
50.0
  9
$LIMCHECK
 70
     0
  9
$CHAMFERA
 40
0.0
  9
$CHAMFERB
 40
0.0
  9
$SKPOLY
 70
     0
  9
$TDCREATE
 40
2453019.623010359
  9
$TDUPDATE
 40
2457485.592385984
  9
$TDINDWG
 40
1.6288223264
  9
$TDUSRTIMER
 40
1.6288223264
  9
$USRTIMER
 70
     1
  9
$ANGBASE
 50
0.0
  9
$ANGDIR
 70
     0
  9
$PDMODE
 70
     3
  9
$PDSIZE
 40
-2.0
  9
$PLINEWID
 40
0.0
  9
$COORDS
 70
     1
  9
$SPLFRAME
 70
     0
  9
$SPLINETYPE
 70
     6
  9
$SPLINESEGS
 70
     8
  9
$ATTDIA
 70
     0
  9
$ATTREQ
 70
     1
  9
$HANDLING
 70
     1
  9
$HANDSEED
  5
E638
  9
$SURFTAB1
 70
     6
  9
$SURFTAB2
 70
     6
  9
$SURFTYPE
 70
     6
  9
$SURFU
 70
     6
  9
$SURFV
 70
     6
  9
$UCSNAME
  2

  9
$UCSORG
 10
0.0
 20
0.0
 30
0.0
  9
$UCSXDIR
 10
1.0
 20
0.0
 30
0.0
  9
$UCSYDIR
 10
0.0
 20
1.0
 30
0.0
  9
$PUCSNAME
  2

  9
$PUCSORG
 10
0.0
 20
0.0
 30
0.0
  9
$PUCSXDIR
 10
1.0
 20
0.0
 30
0.0
  9
$PUCSYDIR
 10
0.0
 20
1.0
 30
0.0
  9
$USERI1
 70
     0
  9
$USERI2
 70
     0
  9
$USERI3
 70
     0
  9
$USERI4
 70
     0
  9
$USERI5
 70
     0
  9
$USERR1
 40
20.0
  9
$USERR2
 40
0.0
  9
$USERR3
 40
0.0
  9
$USERR4
 40
0.0
  9
$USERR5
 40
0.0
  9
$WORLDVIEW
 70
     1
  9
$SHADEDGE
 70
     3
  9
$SHADEDIF
 70
    70
  9
$TILEMODE
 70
     1
  9
$MAXACTVP
 70
    48
  9
$PLIMCHECK
 70
     0
  9
$PEXTMIN
 10
-1.000000000000000E+20
 20
-1.000000000000000E+20
 30
-1.000000000000000E+20
  9
$PEXTMAX
 10
1.000000000000000E+20
 20
1.000000000000000E+20
 30
1.000000000000000E+20
  9
$PLIMMIN
 10
0.0
 20
0.0
  9
$PLIMMAX
 10
12.0
 20
9.0
  9
$UNITMODE
 70
     0
  9
$VISRETAIN
 70
     0
  9
$PLINEGEN
 70
     0
  9
$PSLTSCALE
 70
     0
  0
ENDSEC
  0
SECTION
  2
TABLES
  0
TABLE
  2
VPORT
 70
     1
  0
VPORT
  2
*ACTIVE
 70
     0
 10
0.0
 20
0.0
 11
1.0
 21
1.0
 12
849.8874053408324
 22
-1285.696777772203
 13
0.0
 23
0.0
 14
1.0
 24
1.0
 15
0.0
 25
0.0
 16
0.0
 26
0.0
 36
1.0
 17
0.0
 27
0.0
 37
0.0
 40
2112.20501852906
 41
1.571428571428571
 42
50.0
 43
0.0
 44
0.0
 50
0.0
 51
0.0
 71
     0
 72
  1000
 73
     1
 74
     0
 75
     0
 76
     0
 77
     0
 78
     0
  0
ENDTAB
  0
TABLE
  2
LTYPE
 70
     2
  0
LTYPE
  2
CONTINUOUS
 70
     0
  3
実線
 72
    65
 73
     0
 40
0.0
  0
LTYPE
  2
DASHDOT
 70
     0
  3
____ _ ____ _ ____ _ ____ _ ____ _ ____ _ ____
 72
    65
 73
     4
 40
5.5
 49
4.0
 49
-0.6
 49
0.3
 49
-0.6
  0
ENDTAB
  0
TABLE
  2
LAYER
 70
    12
  0
LAYER
  2
0
 70
     0
 62
     7
  6
CONTINUOUS
  0
LAYER
  2
DEFPOINTS
 70
     0
 62
     7
  6
CONTINUOUS
  0
LAYER
  2
SIZE
 70
     0
 62
    30
  6
CONTINUOUS
  0
LAYER
  2
BASIS
 70
     0
 62
     6
  6
DASHDOT
  0
LAYER
  2
OUTLINE
 70
     0
 62
     3
  6
CONTINUOUS
  0
LAYER
  2
DETAIL
 70
     0
 62
     5
  6
CONTINUOUS
  0
LAYER
  2
ARRANGE
 70
     0
 62
     1
  6
CONTINUOUS
  0
LAYER
  2
ETC
 70
     0
 62
    61
  6
CONTINUOUS
  0
LAYER
  2
FIX
 70
     0
 62
    11
  6
CONTINUOUS
  0
LAYER
  2
NOTE
 70
     0
 62
     4
  6
CONTINUOUS
  0
LAYER
  2
SERVICESPACE
 70
     0
 62
     2
  6
DASHDOT
  0
LAYER
  2
SYMBOLLINE
 70
     0
 62
    15
  6
CONTINUOUS
  0
ENDTAB
  0
TABLE
  2
STYLE
 70
     1
  0
STYLE
  2
STANDARD
 70
     0
 40
64.0
 41
0.9
 50
0.0
 71
     0
 42
64.0
  3
SIMPLEX.shx
  4
BIGFONT.shx
  0
ENDTAB
  0
TABLE
  2
VIEW
 70
     1
  0
VIEW
  2
ALL
 70
     0
 40
4282.619807999999
 10
0.0
 20
41.309904
 41
5940.0
 11
0.0
 21
0.0
 31
1.0
 12
0.0
 22
0.0
 32
0.0
 42
50.0
 43
0.0
 44
0.0
 50
0.0
 71
     0
  0
ENDTAB
  0
TABLE
  2
UCS
 70
     0
  0
ENDTAB
  0
TABLE
  2
APPID
 70
    15
  0
APPID
  2
ACAD
 70
     0
  0
APPID
  2
AUTOCAD_POSTSCRIPT_FIGURE
 70
     0
  0
APPID
  2
ACAD_EXEMPT_FROM_CAD_STAND
 70
     0
  0
APPID
  2
ACAD_PSEXT
 70
     0
  0
APPID
  2
ACAUTHENVIRON
 70
     0
  0
APPID
  2
GENIUS_GENOENT_13
 70
     0
  0
APPID
  2
GENIUS_GENCFG_13
 70
     0
  0
APPID
  2
GENIUS_GENCFG0_13
 70
     0
  0
APPID
  2
GENIUS_GENCFG1_13
 70
     0
  0
APPID
  2
GENIUS_GENCFG2_13
 70
     0
  0
APPID
  2
GENIUS_GENCFG3_13
 70
     0
  0
APPID
  2
GENIUS_GENCFG4_13
 70
     0
  0
APPID
  2
GENIUS_GEVCFG0_13
 70
     0
  0
APPID
  2
CONTENTBLOCKICON
 70
     0
  0
APPID
  2
CONTENTBLOCKDESCRIPTION
 70
     0
  0
ENDTAB
  0
TABLE
  2
DIMSTYLE
 70
     1
  0
DIMSTYLE
  2
STANDARD
 70
     0
  3

  4

  5

  6

  7

 40
1.0
 41
0.18
 42
0.0625
 43
0.38
 44
0.18
 45
0.0
 46
0.0
 47
0.0
 48
0.0
140
0.18
141
0.09
142
0.0
143
25.4
144
1.0
145
0.0
146
1.0
147
0.09
 71
     0
 72
     0
 73
     1
 74
     1
 75
     0
 76
     0
 77
     0
 78
     0
170
     0
171
     2
172
     0
173
     0
174
     0
175
     0
176
     7
177
     7
178
     7
  0
ENDTAB
  0
ENDSEC
  0
SECTION
  2
BLOCKS
  0
BLOCK
  8
0
  2
$MODEL_SPACE
 70
     0
 10
0.0
 20
0.0
 30
0.0
  3
$MODEL_SPACE
  1

  0
ENDBLK
  5
E610
  8
0
  0
BLOCK
 67
     1
  8
0
  2
$PAPER_SPACE
 70
     0
 10
0.0
 20
0.0
 30
0.0
  3
$PAPER_SPACE
  1

  0
ENDBLK
  5
E612
 67
     1
  8
0
  0
BLOCK
  8
0
  2
_ORIGIN
 70
     0
 10
0.0
 20
0.0
 30
0.0
  3
_ORIGIN
  1

  0
CIRCLE
  5
E484
  8
0
  6
CONTINUOUS
 62
     7
 10
0.0
 20
0.0
 30
0.0
 40
0.5
  0
LINE
  5
E485
  8
0
  6
CONTINUOUS
 62
     7
 10
0.0
 20
0.0
 30
0.0
 11
-1.0
 21
0.0
 31
0.0
  0
ENDBLK
  5
E486
  8
0
  0
ENDSEC
  0
SECTION
  2
ENTITIES
  0
TEXT
  5
E487
  8
ETC
  6
CONTINUOUS
 62
    61
 10
509.5511409999999
 20
547.0969240000002
 30
0.0
 40
64.0
  1
VD-15Z9_3
 41
0.9
  0
TEXT
  5
E488
  8
ETC
  6
CONTINUOUS
 62
    61
 10
505.365147
 20
429.1416140000001
 30
0.0
 40
64.0
  1
換気扇
 41
0.9
  0
TEXT
  5
E489
  8
ETC
  6
CONTINUOUS
 62
    61
 10
555.9726489999996
 20
322.2206780000001
 30
0.0
 40
40.0
  1
VD-15Z9
 41
0.9
  0
CIRCLE
  5
E48A
  8
ARRANGE
  6
CONTINUOUS
 62
     1
 10
0.0
 20
0.0
 30
0.0
 40
40.0
  0
POINT
  5
E48B
  8
ARRANGE
  6
CONTINUOUS
 62
     1
 39
50.0
 10
0.0
 20
0.0
 30
0.0
  0
LINE
  5
E48C
  8
BASIS
  6
DASHDOT
 62
     6
 39
50.0
 10
0.0
 20
-55.92754100000002
 30
0.0
 11
0.0
 21
214.115488
 31
0.0
  0
LINE
  5
E48D
  8
DETAIL
  6
CONTINUOUS
 62
     5
 10
-0.7560539999999492
 20
99.77403200000003
 30
0.0
 11
-0.7653420000000892
 21
99.7723840000001
 31
0.0
  0
LINE
  5
E48E
  8
DETAIL
  6
CONTINUOUS
 62
     5
 10
-0.7653420000000892
 20
99.7723840000001
 30
0.0
 11
-0.7802820000000565
 21
99.76017200000001
 31
0.0
  0
LINE
  5
E48F
  8
DETAIL
  6
CONTINUOUS
 62
     5
 10
-0.7802820000000565
 20
99.76017200000001
 30
0.0
 11
-0.8006659999999783
 21
99.73785599999997
 31
0.0
  0
LINE
  5
E490
  8
DETAIL
  6
CONTINUOUS
 62
     5
 10
-0.8006659999999783
 20
99.73785599999997
 30
0.0
 11
-0.8258019999999533
 21
99.70608799999991
 31
0.0
  0
LINE
  5
E491
  8
DETAIL
  6
CONTINUOUS
 62
     5
 10
-0.8258019999999533
 20
99.70608799999991
 30
0.0
 11
-0.8548620000000824
 21
99.66586000000007
 31
0.0
  0
LINE
  5
E492
  8
DETAIL
  6
CONTINUOUS
 62
     5
 10
-0.8548620000000824
 20
99.66586000000007
 30
0.0
 11
-0.8869979999999487
 21
99.618428
 31
0.0
  0
LINE
  5
E493
  8
DETAIL
  6
CONTINUOUS
 62
     5
 10
-0.8869979999999487
 20
99.618428
 30
0.0
 11
-0.9211820000001012
 21
99.5652399999999
 31
0.0
  0
LINE
  5
E494
  8
DETAIL
  6
CONTINUOUS
 62
     5
 10
-0.9211820000001012
 20
99.5652399999999
 30
0.0
 11
-0.9564259999999649
 21
99.50791600000002
 31
0.0
  0
LINE
  5
E495
  8
DETAIL
  6
CONTINUOUS
 62
     5
 10
-0.9564259999999649
 20
99.50791600000002
 30
0.0
 11
-0.9916339999999764
 21
99.44815999999992
 31
0.0
  0
LINE
  5
E496
  8
DETAIL
  6
CONTINUOUS
 62
     5
 10
-0.9916339999999764
 20
99.44815999999992
 30
0.0
 11
-1.025778000000003
 21
99.38779199999999
 31
0.0
  0
LINE
  5
E497
  8
DETAIL
  6
CONTINUOUS
 62
     5
 10
-1.025778000000003
 20
99.38779199999999
 30
0.0
 11
-1.057802000000095
 21
99.32861200000002
 31
0.0
  0
LINE
  5
E498
  8
DETAIL
  6
CONTINUOUS
 62
     5
 10
-1.057802000000095
 20
99.32861200000002
 30
0.0
 11
-1.086773999999991
 21
99.27241200000003
 31
0.0
  0
LINE
  5
E499
  8
DETAIL
  6
CONTINUOUS
 62
     5
 10
-1.086773999999991
 20
99.27241200000003
 30
0.0
 11
-1.111781999999948
 21
99.22086400000012
 31
0.0
  0
LINE
  5
E49A
  8
DETAIL
  6
CONTINUOUS
 62
     5
 10
-1.111781999999948
 20
99.22086400000012
 30
0.0
 11
-1.132085999999958
 21
99.17558400000007
 31
0.0
  0
LINE
  5
E49B
  8
DETAIL
  6
CONTINUOUS
 62
     5
 10
-1.132085999999958
 20
99.17558400000007
 30
0.0
 11
-1.147033999999962
 21
99.13793200000009
 31
0.0
  0
LINE
  5
E49C
  8
DETAIL
  6
CONTINUOUS
 62
     5
 10
-1.147033999999962
 20
99.13793200000009
 30
0.0
 11
-1.156165999999985
 21
99.10912000000008
 31
0.0
  0
LINE
  5
E49D
  8
DETAIL
  6
CONTINUOUS
 62
     5
 10
-1.156165999999985
 20
99.10912000000008
 30
0.0
 11
-1.159269999999992
 21
99.09007599999995
 31
0.0
  0
LINE
  5
E49E
  8
DETAIL
  6
CONTINUOUS
 62
     5
 10
-1.159269999999992
 20
99.09007599999995
 30
0.0
 11
-1.156054000000097
 21
99.08121200000005
 31
0.0
  0
TEXT
  5
E49F
  8
NOTE
  6
CONTINUOUS
 62
     4
 10
-686.018241
 20
294.6437420000002
 30
0.0
 40
64.0
  1
8-φ5×8
 41
0.9
  0
LINE
  5
E4A0
  8
NOTE
  6
CONTINUOUS
 62
     4
 39
50.0
 10
-512.94141
 20
53.47029599999996
 30
0.0
 11
-512.94141
 21
53.47029599999996
 31
0.0
  0
LINE
  5
E4A1
  8
NOTE
  6
CONTINUOUS
 62
     4
 39
50.0
 10
-305.872541
 20
272.7513230000002
 30
0.0
 11
-711.087556
 21
272.7513230000002
 31
0.0
  0
LINE
  5
E4A2
  8
NOTE
  6
CONTINUOUS
 62
     4
 39
50.0
 10
-142.7375590000001
 20
1.571318000000019
 30
0.0
 11
-305.872541
 21
272.7513230000002
 31
0.0
  0
LINE
  5
E4A3
  8
NOTE
  6
CONTINUOUS
 62
     4
 39
50.0
 10
-148.4643
 20
5.849075999999968
 30
0.0
 11
-142.7375590000001
 21
1.571318000000019
 31
0.0
  0
LINE
  5
E4A4
  8
NOTE
  6
CONTINUOUS
 62
     4
 39
50.0
 10
-142.7375590000001
 20
1.571318000000019
 30
0.0
 11
-144.0249200000001
 21
7.907279999999901
 31
0.0
  0
LINE
  5
E4A5
  8
DETAIL
  6
CONTINUOUS
 62
     5
 10
125.499847
 20
0.3999969999999848
 30
0.0
 11
125.499847
 21
145.149997
 31
0.0
  0
LINE
  5
E4A6
  8
DETAIL
  6
CONTINUOUS
 62
     5
 10
151.499847
 20
0.00009399999999
 30
0.0
 11
125.8910040000001
 21
0.00009399999999
 31
0.0
  0
LINE
  5
E4A7
  8
DETAIL
  6
CONTINUOUS
 62
     5
 10
-88.0
 20
0.00009399999999
 30
0.0
 11
-125.900223
 21
0.00009399999999
 31
0.0
  0
LINE
  5
E4A8
  8
DETAIL
  6
CONTINUOUS
 62
     5
 10
-151.5000760000001
 20
0.00009399999999
 30
0.0
 11
-125.900223
 21
0.00009399999999
 31
0.0
  0
LINE
  5
E4A9
  8
DETAIL
  6
CONTINUOUS
 62
     5
 10
-125.500153
 20
0.3999969999999848
 30
0.0
 11
-125.500153
 21
120.5
 31
0.0
  0
ARC
  5
E4AA
  8
DETAIL
  6
CONTINUOUS
 62
     5
 10
125.8998409999999
 20
0.3999969999999848
 30
0.0
 40
0.4
 50
179.9999819896252
 51
270.0
  0
ARC
  5
E4AB
  8
DETAIL
  6
CONTINUOUS
 62
     5
 10
-125.900223
 20
0.3999969999999848
 30
0.0
 40
0.4
 50
270.0
 51
0.0000014787793335
  0
LINE
  5
E4AC
  8
DETAIL
  6
CONTINUOUS
 62
     5
 10
103.452194
 20
165.500094
 30
0.0
 11
123.2998500000001
 21
165.500094
 31
0.0
  0
LINE
  5
E4AD
  8
DETAIL
  6
CONTINUOUS
 62
     5
 10
125.499847
 20
156.899997
 30
0.0
 11
125.499847
 21
145.2195770000001
 31
0.0
  0
LINE
  5
E4AE
  8
DETAIL
  6
CONTINUOUS
 62
     5
 10
124.8998409999999
 20
157.500094
 30
0.0
 11
-87.5
 21
157.500094
 31
0.0
  0
ARC
  5
E4AF
  8
DETAIL
  6
CONTINUOUS
 62
     5
 10
124.8998409999999
 20
156.899997
 30
0.0
 40
0.6
 50
0.0000012074182697
 51
90.0
  0
LINE
  5
E4B0
  8
DETAIL
  6
CONTINUOUS
 62
     5
 10
124.7998500000001
 20
164.000094
 30
0.0
 11
124.7998500000001
 21
159.7395960000001
 31
0.0
  0
ARC
  5
E4B1
  8
DETAIL
  6
CONTINUOUS
 62
     5
 10
123.2998500000001
 20
164.000094
 30
0.0
 40
1.5
 50
0.0000008537736463
 51
90.0
  0
LINE
  5
E4B2
  8
DETAIL
  6
CONTINUOUS
 62
     5
 10
123.7998500000001
 20
158.7395960000001
 30
0.0
 11
-87.5
 21
158.7395960000001
 31
0.0
  0
ARC
  5
E4B3
  8
DETAIL
  6
CONTINUOUS
 62
     5
 10
123.7998500000001
 20
159.7395960000001
 30
0.0
 40
1.0
 50
270.0
 51
0.0
  0
ARC
  5
E4B4
  8
DETAIL
  6
CONTINUOUS
 62
     5
 10
125.8998409999999
 20
0.3999969999999848
 30
0.0
 40
1.0
 50
179.999982009873
 51
203.5779760000032
  0
LINE
  5
E4B5
  8
DETAIL
  6
CONTINUOUS
 62
     5
 10
0.0
 20
0.0
 30
0.0
 11
117.8245609999999
 21
0.0
 31
0.0
  0
LINE
  5
E4B6
  8
DETAIL
  6
CONTINUOUS
 62
     5
 10
165.0
 20
-1.0
 30
0.0
 11
165.0
 21
-5.298007000000098
 31
0.0
  0
ARC
  5
E4B7
  8
DETAIL
  6
CONTINUOUS
 62
     5
 10
164.0
 20
-1.0
 30
0.0
 40
1.0
 50
0.0
 51
90.0
  0
LINE
  5
E4B8
  8
DETAIL
  6
CONTINUOUS
 62
     5
 10
164.0
 20
0.0
 30
0.0
 11
117.8245609999999
 21
0.0
 31
0.0
  0
ARC
  5
E4B9
  8
DETAIL
  6
CONTINUOUS
 62
     5
 10
119.5
 20
80.0
 30
0.0
 40
100.0
 50
270.0
 51
294.8480209999918
  0
ARC
  5
E4BA
  8
DETAIL
  6
CONTINUOUS
 62
     5
 10
159.0
 20
-5.298007000000098
 30
0.0
 40
6.0
 50
294.8480209999918
 51
0.0
  0
LINE
  5
E4BB
  8
DETAIL
  6
CONTINUOUS
 62
     5
 10
157.228752
 20
-10.74256100000002
 30
0.0
 11
119.301739
 21
-10.74256100000002
 31
0.0
  0
LINE
  5
E4BC
  8
DETAIL
  6
CONTINUOUS
 62
     5
 10
0.0
 20
-20.0
 30
0.0
 11
118.0
 21
-20.0
 31
0.0
  0
LINE
  5
E4BD
  8
DETAIL
  6
CONTINUOUS
 62
     5
 10
118.0
 20
0.0
 30
0.0
 11
118.0
 21
-20.0
 31
0.0
  0
LINE
  5
E4BE
  8
DETAIL
  6
CONTINUOUS
 62
     5
 10
119.5
 20
0.0
 30
0.0
 11
119.5
 21
-20.0
 31
0.0
  0
LINE
  5
E4BF
  8
DETAIL
  6
CONTINUOUS
 62
     5
 10
118.0
 20
-10.74256100000002
 30
0.0
 11
0.0
 21
-10.74256100000002
 31
0.0
  0
LINE
  5
E4C0
  8
DETAIL
  6
CONTINUOUS
 62
     5
 10
119.5
 20
-19.0
 30
0.0
 11
118.0
 21
-19.0
 31
0.0
  0
ARC
  5
E4C1
  8
DETAIL
  6
CONTINUOUS
 62
     5
 10
-164.0
 20
-1.0
 30
0.0
 40
1.0
 50
90.0
 51
180.0
  0
LINE
  5
E4C2
  8
DETAIL
  6
CONTINUOUS
 62
     5
 10
-164.0
 20
0.0
 30
0.0
 11
-117.824561
 21
0.0
 31
0.0
  0
LINE
  5
E4C3
  8
DETAIL
  6
CONTINUOUS
 62
     5
 10
-165.0
 20
-1.0
 30
0.0
 11
-165.0
 21
-5.298007000000098
 31
0.0
  0
LINE
  5
E4C4
  8
DETAIL
  6
CONTINUOUS
 62
     5
 10
0.0
 20
-20.0
 30
0.0
 11
-118.0
 21
-20.0
 31
0.0
  0
ARC
  5
E4C5
  8
DETAIL
  6
CONTINUOUS
 62
     5
 10
-119.5
 20
80.0
 30
0.0
 40
100.0
 50
245.151979000008
 51
270.0
  0
ARC
  5
E4C6
  8
DETAIL
  6
CONTINUOUS
 62
     5
 10
-159.0
 20
-5.298007000000098
 30
0.0
 40
6.0
 50
180.0
 51
245.1519790000086
  0
LINE
  5
E4C7
  8
DETAIL
  6
CONTINUOUS
 62
     5
 10
-118.0
 20
0.0
 30
0.0
 11
-118.0
 21
-20.0
 31
0.0
  0
LINE
  5
E4C8
  8
DETAIL
  6
CONTINUOUS
 62
     5
 10
-119.5
 20
0.0
 30
0.0
 11
-119.5
 21
-20.0
 31
0.0
  0
LINE
  5
E4C9
  8
DETAIL
  6
CONTINUOUS
 62
     5
 10
-157.228752
 20
-10.74256100000002
 30
0.0
 11
-119.301739
 21
-10.74256100000002
 31
0.0
  0
LINE
  5
E4CA
  8
DETAIL
  6
CONTINUOUS
 62
     5
 10
-118.0
 20
-10.74256100000002
 30
0.0
 11
0.0
 21
-10.74256100000002
 31
0.0
  0
LINE
  5
E4CB
  8
DETAIL
  6
CONTINUOUS
 62
     5
 10
-119.5
 20
-19.0
 30
0.0
 11
-118.0
 21
-19.0
 31
0.0
  0
LINE
  5
E4CC
  8
DETAIL
  6
CONTINUOUS
 62
     5
 10
-87.5
 20
165.500094
 30
0.0
 11
103.5248260000001
 21
165.500094
 31
0.0
  0
LINE
  5
E4CD
  8
DETAIL
  6
CONTINUOUS
 62
     5
 10
-91.50001499999996
 20
179.5999939999999
 30
0.0
 11
-64.49992399999996
 21
179.5999939999999
 31
0.0
  0
LINE
  5
E4CE
  8
DETAIL
  6
CONTINUOUS
 62
     5
 10
-88.00001499999996
 20
179.5999939999999
 30
0.0
 11
-88.00001499999996
 21
175.0
 31
0.0
  0
LINE
  5
E4CF
  8
DETAIL
  6
CONTINUOUS
 62
     5
 10
-91.50001499999996
 20
179.5999939999999
 30
0.0
 11
-91.50001499999996
 21
175.0
 31
0.0
  0
LINE
  5
E4D0
  8
DETAIL
  6
CONTINUOUS
 62
     5
 10
-91.50001499999996
 20
174.0
 30
0.0
 11
-122.5
 21
174.0
 31
0.0
  0
LINE
  5
E4D1
  8
DETAIL
  6
CONTINUOUS
 62
     5
 10
-127.5
 20
175.0
 30
0.0
 11
-159.5
 21
175.0
 31
0.0
  0
LINE
  5
E4D2
  8
DETAIL
  6
CONTINUOUS
 62
     5
 10
-159.5
 20
175.0
 30
0.0
 11
-159.5
 21
174.0
 31
0.0
  0
ARC
  5
E4D3
  8
DETAIL
  6
CONTINUOUS
 62
     5
 10
-127.499997
 20
173.0
 30
0.0
 40
1.0
 50
0.0
 51
90.0
  0
LINE
  5
E4D4
  8
DETAIL
  6
CONTINUOUS
 62
     5
 10
-126.499997
 20
173.0
 30
0.0
 11
-126.499997
 21
120.5
 31
0.0
  0
LINE
  5
E4D5
  8
DETAIL
  6
CONTINUOUS
 62
     5
 10
-87.5
 20
175.0
 30
0.0
 11
-87.5
 21
175.0000010000001
 31
0.0
  0
LINE
  5
E4D6
  8
DETAIL
  6
CONTINUOUS
 62
     5
 10
-87.5
 20
175.0
 30
0.0
 11
-87.5
 21
175.0000010000001
 31
0.0
  0
LINE
  5
E4D7
  8
DETAIL
  6
CONTINUOUS
 62
     5
 10
-87.5
 20
120.5
 30
0.0
 11
-126.499997
 21
120.5
 31
0.0
  0
LINE
  5
E4D8
  8
DETAIL
  6
CONTINUOUS
 62
     5
 10
-91.50001499999996
 20
175.0
 30
0.0
 11
-122.5
 21
175.0
 31
0.0
  0
LINE
  5
E4D9
  8
DETAIL
  6
CONTINUOUS
 62
     5
 10
-122.5
 20
175.0
 30
0.0
 11
-122.5
 21
173.0
 31
0.0
  0
LINE
  5
E4DA
  8
DETAIL
  6
CONTINUOUS
 62
     5
 10
-122.5
 20
173.0
 30
0.0
 11
-126.499997
 21
173.0
 31
0.0
  0
LINE
  5
E4DB
  8
DETAIL
  6
CONTINUOUS
 62
     5
 10
-127.499997
 20
174.0
 30
0.0
 11
-159.5
 21
174.0
 31
0.0
  0
ARC
  5
E4DC
  8
DETAIL
  6
CONTINUOUS
 62
     5
 10
-127.5
 20
173.0
 30
0.0
 40
2.0
 50
0.0
 51
90.0
  0
LINE
  5
E4DD
  8
DETAIL
  6
CONTINUOUS
 62
     5
 10
-94.0
 20
174.0
 30
0.0
 11
-116.0
 21
174.0
 31
0.0
  0
ARC
  5
E4DE
  8
DETAIL
  6
CONTINUOUS
 62
     5
 10
-130.0
 20
168.0
 30
0.0
 40
2.0
 50
270.0
 51
0.0
  0
LINE
  5
E4DF
  8
DETAIL
  6
CONTINUOUS
 62
     5
 10
-129.5
 20
178.0
 30
0.0
 11
-129.5
 21
181.0
 31
0.0
  0
LINE
  5
E4E0
  8
DETAIL
  6
CONTINUOUS
 62
     5
 10
-129.5
 20
178.0
 30
0.0
 11
-142.5
 21
178.0
 31
0.0
  0
LINE
  5
E4E1
  8
DETAIL
  6
CONTINUOUS
 62
     5
 10
-128.0
 20
174.0
 30
0.0
 11
-142.5
 21
174.0
 31
0.0
  0
LINE
  5
E4E2
  8
DETAIL
  6
CONTINUOUS
 62
     5
 10
-128.0
 20
174.0
 30
0.0
 11
-128.0
 21
168.0
 31
0.0
  0
LINE
  5
E4E3
  8
DETAIL
  6
CONTINUOUS
 62
     5
 10
-142.5
 20
181.0
 30
0.0
 11
-129.5
 21
181.0
 31
0.0
  0
LINE
  5
E4E4
  8
DETAIL
  6
CONTINUOUS
 62
     5
 10
-142.5
 20
166.0
 30
0.0
 11
-130.0
 21
166.0
 31
0.0
  0
LINE
  5
E4E5
  8
DETAIL
  6
CONTINUOUS
 62
     5
 10
-157.0
 20
174.0
 30
0.0
 11
-157.0
 21
168.0
 31
0.0
  0
ARC
  5
E4E6
  8
DETAIL
  6
CONTINUOUS
 62
     5
 10
-155.0
 20
168.0
 30
0.0
 40
2.0
 50
180.0
 51
270.0
  0
LINE
  5
E4E7
  8
DETAIL
  6
CONTINUOUS
 62
     5
 10
-155.5
 20
178.0
 30
0.0
 11
-155.5
 21
181.0
 31
0.0
  0
LINE
  5
E4E8
  8
DETAIL
  6
CONTINUOUS
 62
     5
 10
-155.5
 20
178.0
 30
0.0
 11
-142.5
 21
178.0
 31
0.0
  0
LINE
  5
E4E9
  8
DETAIL
  6
CONTINUOUS
 62
     5
 10
-157.0
 20
174.0
 30
0.0
 11
-142.5
 21
174.0
 31
0.0
  0
LINE
  5
E4EA
  8
DETAIL
  6
CONTINUOUS
 62
     5
 10
-142.5
 20
181.0
 30
0.0
 11
-155.5
 21
181.0
 31
0.0
  0
LINE
  5
E4EB
  8
DETAIL
  6
CONTINUOUS
 62
     5
 10
-142.5
 20
166.0
 30
0.0
 11
-155.0
 21
166.0
 31
0.0
  0
LINE
  5
E4EC
  8
DETAIL
  6
CONTINUOUS
 62
     5
 10
-153.5
 20
175.0
 30
0.0
 11
-153.5
 21
178.0
 31
0.0
  0
LINE
  5
E4ED
  8
DETAIL
  6
CONTINUOUS
 62
     5
 10
-131.5
 20
175.0
 30
0.0
 11
-131.5
 21
178.0
 31
0.0
  0
LINE
  5
E4EE
  8
DETAIL
  6
CONTINUOUS
 62
     5
 10
0.0
 20
0.0
 30
0.0
 11
-117.824561
 21
0.0
 31
0.0
  0
TEXT
  5
E4EF
  8
ETC
  6
CONTINUOUS
 62
    61
 10
555.9726489999996
 20
247.2068500000003
 30
0.0
 40
40.0
  1
VD-15Z9-BL
 41
0.9
  0
LINE
  5
E4F0
  8
DETAIL
  6
CONTINUOUS
 62
     5
 10
91.50001499999996
 20
179.5999939999999
 30
0.0
 11
17.50007600000004
 21
179.5999939999999
 31
0.0
  0
LINE
  5
E4F1
  8
DETAIL
  6
CONTINUOUS
 62
     5
 10
91.50001499999996
 20
179.5999939999999
 30
0.0
 11
91.50001499999996
 21
165.500094
 31
0.0
  0
LINE
  5
E4F2
  8
DETAIL
  6
CONTINUOUS
 62
     5
 39
50.0
 10
122.199936
 20
157.500094
 30
0.0
 11
122.199936
 21
158.7395960000001
 31
0.0
  0
LINE
  5
E4F3
  8
OUTLINE
  6
CONTINUOUS
 62
     3
 10
125.4998410000001
 20
0.3999969999999848
 30
0.0
 11
125.4998410000001
 21
145.149997
 31
0.0
  0
LINE
  5
E4F4
  8
OUTLINE
  6
CONTINUOUS
 62
     3
 10
151.4998410000001
 20
0.00009399999999
 30
0.0
 11
125.8909980000001
 21
0.00009399999999
 31
0.0
  0
LINE
  5
E4F5
  8
OUTLINE
  6
CONTINUOUS
 62
     3
 10
-88.00000599999998
 20
0.00009399999999
 30
0.0
 11
-125.900229
 21
0.00009399999999
 31
0.0
  0
LINE
  5
E4F6
  8
OUTLINE
  6
CONTINUOUS
 62
     3
 10
-151.500082
 20
0.00009399999999
 30
0.0
 11
-125.900229
 21
0.00009399999999
 31
0.0
  0
ARC
  5
E4F7
  8
OUTLINE
  6
CONTINUOUS
 62
     3
 10
125.8998349999999
 20
0.3999969999999848
 30
0.0
 40
0.4
 50
179.9999819896252
 51
270.0
  0
ARC
  5
E4F8
  8
OUTLINE
  6
CONTINUOUS
 62
     3
 10
-125.900229
 20
0.3999969999999848
 30
0.0
 40
0.4
 50
270.0
 51
0.0000014787793335
  0
LINE
  5
E4F9
  8
OUTLINE
  6
CONTINUOUS
 62
     3
 10
103.452188
 20
165.500094
 30
0.0
 11
123.2998439999999
 21
165.500094
 31
0.0
  0
LINE
  5
E4FA
  8
OUTLINE
  6
CONTINUOUS
 62
     3
 10
125.4998410000001
 20
156.899997
 30
0.0
 11
125.4998410000001
 21
145.2195770000001
 31
0.0
  0
LINE
  5
E4FB
  8
OUTLINE
  6
CONTINUOUS
 62
     3
 10
124.8998349999999
 20
157.500094
 30
0.0
 11
122.19993
 21
157.500094
 31
0.0
  0
ARC
  5
E4FC
  8
OUTLINE
  6
CONTINUOUS
 62
     3
 10
124.8998349999999
 20
156.899997
 30
0.0
 40
0.6
 50
0.0000012074182697
 51
90.0
  0
LINE
  5
E4FD
  8
OUTLINE
  6
CONTINUOUS
 62
     3
 10
124.7998439999999
 20
164.000094
 30
0.0
 11
124.7998439999999
 21
159.7395960000001
 31
0.0
  0
ARC
  5
E4FE
  8
OUTLINE
  6
CONTINUOUS
 62
     3
 10
123.2998439999999
 20
164.000094
 30
0.0
 40
1.5
 50
0.0000008537736463
 51
90.0
  0
LINE
  5
E4FF
  8
OUTLINE
  6
CONTINUOUS
 62
     3
 10
123.7998439999999
 20
158.7395960000001
 30
0.0
 11
122.19993
 21
158.7395960000001
 31
0.0
  0
ARC
  5
E500
  8
OUTLINE
  6
CONTINUOUS
 62
     3
 10
123.7998439999999
 20
159.7395960000001
 30
0.0
 40
1.0
 50
270.0
 51
0.0
  0
ARC
  5
E501
  8
OUTLINE
  6
CONTINUOUS
 62
     3
 10
125.8998349999999
 20
0.3999969999999848
 30
0.0
 40
1.0
 50
179.999982009873
 51
203.5779760000032
  0
LINE
  5
E502
  8
OUTLINE
  6
CONTINUOUS
 62
     3
 10
-0.0000059999999849
 20
0.0
 30
0.0
 11
117.8245549999999
 21
0.0
 31
0.0
  0
LINE
  5
E503
  8
OUTLINE
  6
CONTINUOUS
 62
     3
 10
164.999994
 20
-1.0
 30
0.0
 11
164.999994
 21
-5.298007000000098
 31
0.0
  0
ARC
  5
E504
  8
OUTLINE
  6
CONTINUOUS
 62
     3
 10
163.999994
 20
-1.0
 30
0.0
 40
1.0
 50
0.0
 51
90.0
  0
LINE
  5
E505
  8
OUTLINE
  6
CONTINUOUS
 62
     3
 10
163.999994
 20
0.0
 30
0.0
 11
117.8245549999999
 21
0.0
 31
0.0
  0
ARC
  5
E506
  8
OUTLINE
  6
CONTINUOUS
 62
     3
 10
119.499994
 20
80.0
 30
0.0
 40
100.0
 50
270.0
 51
294.8480209999918
  0
ARC
  5
E507
  8
OUTLINE
  6
CONTINUOUS
 62
     3
 10
158.999994
 20
-5.298007000000098
 30
0.0
 40
6.0
 50
294.8480209999918
 51
0.0
  0
LINE
  5
E508
  8
OUTLINE
  6
CONTINUOUS
 62
     3
 10
-0.0000059999999849
 20
-20.0
 30
0.0
 11
117.999994
 21
-20.0
 31
0.0
  0
LINE
  5
E509
  8
OUTLINE
  6
CONTINUOUS
 62
     3
 10
119.499994
 20
-19.0
 30
0.0
 11
117.999994
 21
-19.0
 31
0.0
  0
ARC
  5
E50A
  8
OUTLINE
  6
CONTINUOUS
 62
     3
 10
-164.000006
 20
-1.0
 30
0.0
 40
1.0
 50
90.0
 51
180.0
  0
LINE
  5
E50B
  8
OUTLINE
  6
CONTINUOUS
 62
     3
 10
-164.000006
 20
0.0
 30
0.0
 11
-117.824567
 21
0.0
 31
0.0
  0
LINE
  5
E50C
  8
OUTLINE
  6
CONTINUOUS
 62
     3
 10
-165.000006
 20
-1.0
 30
0.0
 11
-165.000006
 21
-5.298007000000098
 31
0.0
  0
LINE
  5
E50D
  8
OUTLINE
  6
CONTINUOUS
 62
     3
 10
-0.0000059999999849
 20
-20.0
 30
0.0
 11
-118.000006
 21
-20.0
 31
0.0
  0
ARC
  5
E50E
  8
OUTLINE
  6
CONTINUOUS
 62
     3
 10
-119.500006
 20
80.0
 30
0.0
 40
100.0
 50
245.151979000008
 51
270.0
  0
ARC
  5
E50F
  8
OUTLINE
  6
CONTINUOUS
 62
     3
 10
-159.000006
 20
-5.298007000000098
 30
0.0
 40
6.0
 50
180.0
 51
245.1519790000086
  0
LINE
  5
E510
  8
OUTLINE
  6
CONTINUOUS
 62
     3
 10
-119.500006
 20
-19.0
 30
0.0
 11
-118.000006
 21
-19.0
 31
0.0
  0
LINE
  5
E511
  8
OUTLINE
  6
CONTINUOUS
 62
     3
 10
91.50000899999998
 20
165.500094
 30
0.0
 11
103.5248200000001
 21
165.500094
 31
0.0
  0
LINE
  5
E512
  8
OUTLINE
  6
CONTINUOUS
 62
     3
 10
-0.0000059999999849
 20
0.0
 30
0.0
 11
-117.824567
 21
0.0
 31
0.0
  0
LINE
  5
E513
  8
OUTLINE
  6
CONTINUOUS
 62
     3
 39
50.0
 10
122.19993
 20
157.500094
 30
0.0
 11
122.19993
 21
158.7395960000001
 31
0.0
  0
LINE
  5
E514
  8
OUTLINE
  6
CONTINUOUS
 62
     3
 10
-125.4998409999999
 20
0.3999969999999848
 30
0.0
 11
-125.4998409999999
 21
145.149997
 31
0.0
  0
LINE
  5
E515
  8
OUTLINE
  6
CONTINUOUS
 62
     3
 10
-103.452188
 20
165.500094
 30
0.0
 11
-123.299844
 21
165.500094
 31
0.0
  0
LINE
  5
E516
  8
OUTLINE
  6
CONTINUOUS
 62
     3
 10
-125.4998409999999
 20
156.899997
 30
0.0
 11
-125.4998409999999
 21
145.2195770000001
 31
0.0
  0
LINE
  5
E517
  8
OUTLINE
  6
CONTINUOUS
 62
     3
 10
-124.8998350000001
 20
157.500094
 30
0.0
 11
-122.19993
 21
157.500094
 31
0.0
  0
ARC
  5
E518
  8
OUTLINE
  6
CONTINUOUS
 62
     3
 10
-124.8998350000001
 20
156.899997
 30
0.0
 40
0.6
 50
90.0
 51
179.9999987925817
  0
LINE
  5
E519
  8
OUTLINE
  6
CONTINUOUS
 62
     3
 10
-124.799844
 20
164.000094
 30
0.0
 11
-124.799844
 21
159.7395960000001
 31
0.0
  0
ARC
  5
E51A
  8
OUTLINE
  6
CONTINUOUS
 62
     3
 10
-123.299844
 20
164.000094
 30
0.0
 40
1.5
 50
90.0
 51
179.9999991462263
  0
LINE
  5
E51B
  8
OUTLINE
  6
CONTINUOUS
 62
     3
 10
-123.799844
 20
158.7395960000001
 30
0.0
 11
-122.19993
 21
158.7395960000001
 31
0.0
  0
ARC
  5
E51C
  8
OUTLINE
  6
CONTINUOUS
 62
     3
 10
-123.799844
 20
159.7395960000001
 30
0.0
 40
1.0
 50
180.0
 51
270.0
  0
LINE
  5
E51D
  8
OUTLINE
  6
CONTINUOUS
 62
     3
 10
91.50000899999998
 20
165.500094
 30
0.0
 11
-103.52482
 21
165.500094
 31
0.0
  0
LINE
  5
E51E
  8
OUTLINE
  6
CONTINUOUS
 62
     3
 39
50.0
 10
-122.19993
 20
157.500094
 30
0.0
 11
-122.19993
 21
158.7395960000001
 31
0.0
  0
LINE
  5
E51F
  8
OUTLINE
  6
CONTINUOUS
 62
     3
 39
50.0
 10
-119.500006
 20
-19.0
 30
0.0
 11
-119.500006
 21
-20.0
 31
0.0
  0
LINE
  5
E520
  8
OUTLINE
  6
CONTINUOUS
 62
     3
 39
50.0
 10
-118.000006
 20
-19.0
 30
0.0
 11
-118.000006
 21
-20.0
 31
0.0
  0
LINE
  5
E521
  8
OUTLINE
  6
CONTINUOUS
 62
     3
 39
50.0
 10
117.999994
 20
-19.0
 30
0.0
 11
117.999994
 21
-20.0
 31
0.0
  0
LINE
  5
E522
  8
OUTLINE
  6
CONTINUOUS
 62
     3
 39
50.0
 10
119.499994
 20
-19.0
 30
0.0
 11
119.499994
 21
-20.0
 31
0.0
  0
LINE
  5
E523
  8
DETAIL
  6
CONTINUOUS
 62
     5
 10
127.5
 20
175.0
 30
0.0
 11
159.5
 21
175.0
 31
0.0
  0
LINE
  5
E524
  8
DETAIL
  6
CONTINUOUS
 62
     5
 10
159.5
 20
175.0
 30
0.0
 11
159.5
 21
174.0
 31
0.0
  0
ARC
  5
E525
  8
DETAIL
  6
CONTINUOUS
 62
     5
 10
127.4999969999999
 20
173.0
 30
0.0
 40
1.0
 50
90.0
 51
180.0
  0
LINE
  5
E526
  8
DETAIL
  6
CONTINUOUS
 62
     5
 10
126.4999969999999
 20
173.0
 30
0.0
 11
126.4999969999999
 21
120.5
 31
0.0
  0
LINE
  5
E527
  8
DETAIL
  6
CONTINUOUS
 62
     5
 10
91.50001499999996
 20
175.0
 30
0.0
 11
122.5
 21
175.0
 31
0.0
  0
LINE
  5
E528
  8
DETAIL
  6
CONTINUOUS
 62
     5
 10
122.5
 20
175.0
 30
0.0
 11
122.5
 21
173.0
 31
0.0
  0
LINE
  5
E529
  8
DETAIL
  6
CONTINUOUS
 62
     5
 10
122.5
 20
173.0
 30
0.0
 11
126.4999969999999
 21
173.0
 31
0.0
  0
LINE
  5
E52A
  8
DETAIL
  6
CONTINUOUS
 62
     5
 10
127.4999969999999
 20
174.0
 30
0.0
 11
159.5
 21
174.0
 31
0.0
  0
ARC
  5
E52B
  8
DETAIL
  6
CONTINUOUS
 62
     5
 10
127.5
 20
173.0
 30
0.0
 40
2.0
 50
90.0
 51
180.0
  0
ARC
  5
E52C
  8
DETAIL
  6
CONTINUOUS
 62
     5
 10
130.0
 20
168.0
 30
0.0
 40
2.0
 50
180.0
 51
270.0
  0
LINE
  5
E52D
  8
DETAIL
  6
CONTINUOUS
 62
     5
 10
129.5
 20
178.0
 30
0.0
 11
129.5
 21
181.0
 31
0.0
  0
LINE
  5
E52E
  8
DETAIL
  6
CONTINUOUS
 62
     5
 10
129.5
 20
178.0
 30
0.0
 11
142.5
 21
178.0
 31
0.0
  0
LINE
  5
E52F
  8
DETAIL
  6
CONTINUOUS
 62
     5
 10
128.0
 20
174.0
 30
0.0
 11
142.5
 21
174.0
 31
0.0
  0
LINE
  5
E530
  8
DETAIL
  6
CONTINUOUS
 62
     5
 10
128.0
 20
174.0
 30
0.0
 11
128.0
 21
168.0
 31
0.0
  0
LINE
  5
E531
  8
DETAIL
  6
CONTINUOUS
 62
     5
 10
142.5
 20
181.0
 30
0.0
 11
129.5
 21
181.0
 31
0.0
  0
LINE
  5
E532
  8
DETAIL
  6
CONTINUOUS
 62
     5
 10
142.5
 20
166.0
 30
0.0
 11
130.0
 21
166.0
 31
0.0
  0
LINE
  5
E533
  8
DETAIL
  6
CONTINUOUS
 62
     5
 10
157.0
 20
174.0
 30
0.0
 11
157.0
 21
168.0
 31
0.0
  0
ARC
  5
E534
  8
DETAIL
  6
CONTINUOUS
 62
     5
 10
155.0
 20
168.0
 30
0.0
 40
2.0
 50
270.0
 51
0.0
  0
LINE
  5
E535
  8
DETAIL
  6
CONTINUOUS
 62
     5
 10
155.5
 20
178.0
 30
0.0
 11
155.5
 21
181.0
 31
0.0
  0
LINE
  5
E536
  8
DETAIL
  6
CONTINUOUS
 62
     5
 10
155.5
 20
178.0
 30
0.0
 11
142.5
 21
178.0
 31
0.0
  0
LINE
  5
E537
  8
DETAIL
  6
CONTINUOUS
 62
     5
 10
157.0
 20
174.0
 30
0.0
 11
142.5
 21
174.0
 31
0.0
  0
LINE
  5
E538
  8
DETAIL
  6
CONTINUOUS
 62
     5
 10
142.5
 20
181.0
 30
0.0
 11
155.5
 21
181.0
 31
0.0
  0
LINE
  5
E539
  8
DETAIL
  6
CONTINUOUS
 62
     5
 10
142.5
 20
166.0
 30
0.0
 11
155.0
 21
166.0
 31
0.0
  0
LINE
  5
E53A
  8
DETAIL
  6
CONTINUOUS
 62
     5
 10
153.5
 20
175.0
 30
0.0
 11
153.5
 21
178.0
 31
0.0
  0
LINE
  5
E53B
  8
DETAIL
  6
CONTINUOUS
 62
     5
 10
131.5
 20
175.0
 30
0.0
 11
131.5
 21
178.0
 31
0.0
  0
LINE
  5
E53C
  8
DETAIL
  6
CONTINUOUS
 62
     5
 39
50.0
 10
126.4999969999999
 20
120.5
 30
0.0
 11
125.499847
 21
120.5
 31
0.0
  0
LINE
  5
E53D
  8
NOTE
  6
CONTINUOUS
 62
     4
 39
50.0
 10
-141.5
 20
7.873741000000109
 30
0.0
 11
-141.5
 21
-8.026166999999987
 31
0.0
  0
CIRCLE
  5
E53E
  8
FIX
  6
CONTINUOUS
 62
    11
 39
50.0
 10
-141.5
 20
0.0001890000000913
 30
0.0
 40
2.0
  0
LINE
  5
E53F
  8
NOTE
  6
CONTINUOUS
 62
     4
 39
50.0
 10
-85.0
 20
7.873647000000119
 30
0.0
 11
-85.0
 21
-8.026260999999977
 31
0.0
  0
CIRCLE
  5
E540
  8
FIX
  6
CONTINUOUS
 62
    11
 39
50.0
 10
-85.0
 20
0.00009399999999
 30
0.0
 40
2.0
  0
LINE
  5
E541
  8
NOTE
  6
CONTINUOUS
 62
     4
 39
50.0
 10
85.0
 20
7.873647000000119
 30
0.0
 11
85.0
 21
-8.026260999999977
 31
0.0
  0
CIRCLE
  5
E542
  8
FIX
  6
CONTINUOUS
 62
    11
 39
50.0
 10
85.0
 20
0.00009399999999
 30
0.0
 40
2.0
  0
LINE
  5
E543
  8
NOTE
  6
CONTINUOUS
 62
     4
 39
50.0
 10
141.5
 20
7.873741000000109
 30
0.0
 11
141.5
 21
-8.026166999999987
 31
0.0
  0
CIRCLE
  5
E544
  8
FIX
  6
CONTINUOUS
 62
    11
 39
50.0
 10
141.5
 20
0.0001890000000913
 30
0.0
 40
2.0
  0
LINE
  5
E545
  8
NOTE
  6
CONTINUOUS
 62
     4
 39
50.0
 10
-142.5
 20
190.3847900000001
 30
0.0
 11
-142.5
 21
157.210284
 31
0.0
  0
LINE
  5
E546
  8
NOTE
  6
CONTINUOUS
 62
     4
 39
50.0
 10
-105.0
 20
190.3847900000001
 30
0.0
 11
-105.0
 21
157.210284
 31
0.0
  0
LINE
  5
E547
  8
NOTE
  6
CONTINUOUS
 62
     4
 39
50.0
 10
105.0
 20
190.3847900000001
 30
0.0
 11
105.0
 21
157.210284
 31
0.0
  0
LINE
  5
E548
  8
NOTE
  6
CONTINUOUS
 62
     4
 39
50.0
 10
142.5
 20
190.3847900000001
 30
0.0
 11
142.5
 21
157.210284
 31
0.0
  0
LINE
  5
E549
  8
SIZE
  6
CONTINUOUS
 62
    30
 10
-85.0
 20
-28.02626099999998
 30
0.0
 11
-85.0
 21
-206.312463
 31
0.0
  0
LINE
  5
E54A
  8
SIZE
  6
CONTINUOUS
 62
    30
 10
85.0
 20
-28.02626099999998
 30
0.0
 11
85.0
 21
-206.312463
 31
0.0
  0
LINE
  5
E54B
  8
SIZE
  6
CONTINUOUS
 62
    30
 10
-97.0
 20
-186.312463
 30
0.0
 11
-109.0
 21
-186.312463
 31
0.0
  0
LINE
  5
E54C
  8
SIZE
  6
CONTINUOUS
 62
    30
 10
97.0
 20
-186.312463
 30
0.0
 11
109.0
 21
-186.312463
 31
0.0
  0
LINE
  5
E54D
  8
SIZE
  6
CONTINUOUS
 62
    30
 10
-85.0
 20
-186.312463
 30
0.0
 11
85.0
 21
-186.312463
 31
0.0
  0
CIRCLE
  5
E54E
  8
SIZE
  6
CONTINUOUS
 62
    30
 10
-85.0
 20
-186.312463
 30
0.0
 40
6.0
  0
LINE
  5
E54F
  8
SIZE
  6
CONTINUOUS
 62
    30
 10
-85.0
 20
-186.312463
 30
0.0
 11
-97.0
 21
-186.312463
 31
0.0
  0
CIRCLE
  5
E550
  8
SIZE
  6
CONTINUOUS
 62
    30
 10
85.0
 20
-186.312463
 30
0.0
 40
6.0
  0
LINE
  5
E551
  8
SIZE
  6
CONTINUOUS
 62
    30
 10
85.0
 20
-186.312463
 30
0.0
 11
97.0
 21
-186.312463
 31
0.0
  0
TEXT
  5
E552
  8
SIZE
  6
CONTINUOUS
 62
    30
 10
-86.4
 20
-161.312463
 30
0.0
 40
64.0
  1
170
 41
0.9
 72
     1
 11
0.0
 21
-161.312463
 31
0.0
  0
POINT
  5
E553
  8
DEFPOINTS
  6
CONTINUOUS
 62
    30
 10
-85.0
 20
-8.026260999999977
 30
0.0
  0
POINT
  5
E554
  8
DEFPOINTS
  6
CONTINUOUS
 62
    30
 10
85.0
 20
-8.026260999999977
 30
0.0
  0
POINT
  5
E555
  8
DEFPOINTS
  6
CONTINUOUS
 62
    30
 10
85.0
 20
-186.312463
 30
0.0
  0
LINE
  5
E556
  8
SIZE
  6
CONTINUOUS
 62
    30
 10
-141.5
 20
-28.02616699999999
 30
0.0
 11
-141.5
 21
-335.906747
 31
0.0
  0
LINE
  5
E557
  8
SIZE
  6
CONTINUOUS
 62
    30
 10
141.5
 20
-28.02626099999998
 30
0.0
 11
141.5
 21
-335.906747
 31
0.0
  0
LINE
  5
E558
  8
SIZE
  6
CONTINUOUS
 62
    30
 10
-129.5
 20
-315.906747
 30
0.0
 11
129.5
 21
-315.906747
 31
0.0
  0
CIRCLE
  5
E559
  8
SIZE
  6
CONTINUOUS
 62
    30
 10
-141.5
 20
-315.906747
 30
0.0
 40
6.0
  0
LINE
  5
E55A
  8
SIZE
  6
CONTINUOUS
 62
    30
 10
-141.5
 20
-315.906747
 30
0.0
 11
-129.5
 21
-315.906747
 31
0.0
  0
CIRCLE
  5
E55B
  8
SIZE
  6
CONTINUOUS
 62
    30
 10
141.5
 20
-315.906747
 30
0.0
 40
6.0
  0
LINE
  5
E55C
  8
SIZE
  6
CONTINUOUS
 62
    30
 10
141.5
 20
-315.906747
 30
0.0
 11
129.5
 21
-315.906747
 31
0.0
  0
TEXT
  5
E55D
  8
SIZE
  6
CONTINUOUS
 62
    30
 10
-82.28571428571429
 20
-290.906747
 30
0.0
 40
64.0
  1
283
 41
0.9
 72
     1
 11
0.0
 21
-290.906747
 31
0.0
  0
POINT
  5
E55E
  8
DEFPOINTS
  6
CONTINUOUS
 62
    30
 10
-141.5
 20
-8.026166999999987
 30
0.0
  0
POINT
  5
E55F
  8
DEFPOINTS
  6
CONTINUOUS
 62
    30
 10
141.5
 20
-8.026260999999977
 30
0.0
  0
POINT
  5
E560
  8
DEFPOINTS
  6
CONTINUOUS
 62
    30
 10
141.5
 20
-315.906747
 30
0.0
  0
LINE
  5
E561
  8
SIZE
  6
CONTINUOUS
 62
    30
 10
-165.0
 20
-25.2980070000001
 30
0.0
 11
-165.0
 21
-473.860134
 31
0.0
  0
LINE
  5
E562
  8
SIZE
  6
CONTINUOUS
 62
    30
 10
165.0
 20
-25.2980070000001
 30
0.0
 11
165.0
 21
-473.860134
 31
0.0
  0
LINE
  5
E563
  8
SIZE
  6
CONTINUOUS
 62
    30
 10
-153.0
 20
-453.860134
 30
0.0
 11
153.0
 21
-453.860134
 31
0.0
  0
CIRCLE
  5
E564
  8
SIZE
  6
CONTINUOUS
 62
    30
 10
-165.0
 20
-453.860134
 30
0.0
 40
6.0
  0
LINE
  5
E565
  8
SIZE
  6
CONTINUOUS
 62
    30
 10
-165.0
 20
-453.860134
 30
0.0
 11
-153.0
 21
-453.860134
 31
0.0
  0
CIRCLE
  5
E566
  8
SIZE
  6
CONTINUOUS
 62
    30
 10
165.0
 20
-453.860134
 30
0.0
 40
6.0
  0
LINE
  5
E567
  8
SIZE
  6
CONTINUOUS
 62
    30
 10
165.0
 20
-453.860134
 30
0.0
 11
153.0
 21
-453.860134
 31
0.0
  0
TEXT
  5
E568
  8
SIZE
  6
CONTINUOUS
 62
    30
 10
-106.9714285714286
 20
-428.860134
 30
0.0
 40
64.0
  1
□330
 41
0.9
 72
     1
 11
0.0
 21
-428.860134
 31
0.0
  0
POINT
  5
E569
  8
DEFPOINTS
  6
CONTINUOUS
 62
    30
 10
-165.0
 20
-5.298007000000098
 30
0.0
  0
POINT
  5
E56A
  8
DEFPOINTS
  6
CONTINUOUS
 62
    30
 10
165.0
 20
-5.298007000000098
 30
0.0
  0
POINT
  5
E56B
  8
DEFPOINTS
  6
CONTINUOUS
 62
    30
 10
165.0
 20
-453.860134
 30
0.0
  0
LINE
  5
E56C
  8
SIZE
  6
CONTINUOUS
 62
    30
 10
-125.499835
 20
176.899997
 30
0.0
 11
-125.499835
 21
425.7052830000002
 31
0.0
  0
LINE
  5
E56D
  8
SIZE
  6
CONTINUOUS
 62
    30
 10
125.499847
 20
176.899997
 30
0.0
 11
125.499847
 21
425.7052830000002
 31
0.0
  0
LINE
  5
E56E
  8
SIZE
  6
CONTINUOUS
 62
    30
 10
-113.499835
 20
405.7052830000002
 30
0.0
 11
113.499847
 21
405.7052830000002
 31
0.0
  0
CIRCLE
  5
E56F
  8
SIZE
  6
CONTINUOUS
 62
    30
 10
-125.499835
 20
405.7052830000002
 30
0.0
 40
6.0
  0
LINE
  5
E570
  8
SIZE
  6
CONTINUOUS
 62
    30
 10
-125.499835
 20
405.7052830000002
 30
0.0
 11
-113.499835
 21
405.7052830000002
 31
0.0
  0
CIRCLE
  5
E571
  8
SIZE
  6
CONTINUOUS
 62
    30
 10
125.499847
 20
405.7052830000002
 30
0.0
 40
6.0
  0
LINE
  5
E572
  8
SIZE
  6
CONTINUOUS
 62
    30
 10
125.499847
 20
405.7052830000002
 30
0.0
 11
113.499847
 21
405.7052830000002
 31
0.0
  0
TEXT
  5
E573
  8
SIZE
  6
CONTINUOUS
 62
    30
 10
-98.7428511428571
 20
430.7052830000002
 30
0.0
 40
64.0
  1
□251
 41
0.9
 72
     1
 11
0.0000060000000417
 21
430.7052830000002
 31
0.0
  0
POINT
  5
E574
  8
DEFPOINTS
  6
CONTINUOUS
 62
    30
 10
-125.499835
 20
156.899997
 30
0.0
  0
POINT
  5
E575
  8
DEFPOINTS
  6
CONTINUOUS
 62
    30
 10
125.499847
 20
156.899997
 30
0.0
  0
POINT
  5
E576
  8
DEFPOINTS
  6
CONTINUOUS
 62
    30
 10
125.499847
 20
405.7052830000002
 30
0.0
  0
LINE
  5
E577
  8
SIZE
  6
CONTINUOUS
 62
    30
 10
-105.0
 20
210.38479
 30
0.0
 11
-105.0
 21
312.3371610000002
 31
0.0
  0
LINE
  5
E578
  8
SIZE
  6
CONTINUOUS
 62
    30
 10
105.0
 20
210.38479
 30
0.0
 11
105.0
 21
312.3371610000002
 31
0.0
  0
LINE
  5
E579
  8
SIZE
  6
CONTINUOUS
 62
    30
 10
-93.0
 20
292.3371610000002
 30
0.0
 11
93.0
 21
292.3371610000002
 31
0.0
  0
CIRCLE
  5
E57A
  8
SIZE
  6
CONTINUOUS
 62
    30
 10
-105.0
 20
292.3371610000002
 30
0.0
 40
6.0
  0
LINE
  5
E57B
  8
SIZE
  6
CONTINUOUS
 62
    30
 10
-105.0
 20
292.3371610000002
 30
0.0
 11
-93.0
 21
292.3371610000002
 31
0.0
  0
CIRCLE
  5
E57C
  8
SIZE
  6
CONTINUOUS
 62
    30
 10
105.0
 20
292.3371610000002
 30
0.0
 40
6.0
  0
LINE
  5
E57D
  8
SIZE
  6
CONTINUOUS
 62
    30
 10
105.0
 20
292.3371610000002
 30
0.0
 11
93.0
 21
292.3371610000002
 31
0.0
  0
TEXT
  5
E57E
  8
SIZE
  6
CONTINUOUS
 62
    30
 10
-82.28571428571429
 20
317.3371610000002
 30
0.0
 40
64.0
  1
210
 41
0.9
 72
     1
 11
0.0
 21
317.3371610000002
 31
0.0
  0
POINT
  5
E57F
  8
DEFPOINTS
  6
CONTINUOUS
 62
    30
 10
-105.0
 20
190.3847900000001
 30
0.0
  0
POINT
  5
E580
  8
DEFPOINTS
  6
CONTINUOUS
 62
    30
 10
105.0
 20
190.3847900000001
 30
0.0
  0
POINT
  5
E581
  8
DEFPOINTS
  6
CONTINUOUS
 62
    30
 10
105.0
 20
292.3371610000002
 30
0.0
  0
LINE
  5
E582
  8
SIZE
  6
CONTINUOUS
 62
    30
 10
142.5
 20
210.38479
 30
0.0
 11
142.5
 21
550.4102150000001
 31
0.0
  0
LINE
  5
E583
  8
SIZE
  6
CONTINUOUS
 62
    30
 10
-142.5
 20
210.38479
 30
0.0
 11
-142.5
 21
550.4102150000001
 31
0.0
  0
LINE
  5
E584
  8
SIZE
  6
CONTINUOUS
 62
    30
 10
130.5
 20
530.4102150000001
 30
0.0
 11
-130.5
 21
530.4102150000001
 31
0.0
  0
CIRCLE
  5
E585
  8
SIZE
  6
CONTINUOUS
 62
    30
 10
142.5
 20
530.4102150000001
 30
0.0
 40
6.0
  0
LINE
  5
E586
  8
SIZE
  6
CONTINUOUS
 62
    30
 10
142.5
 20
530.4102150000001
 30
0.0
 11
130.5
 21
530.4102150000001
 31
0.0
  0
CIRCLE
  5
E587
  8
SIZE
  6
CONTINUOUS
 62
    30
 10
-142.5
 20
530.4102150000001
 30
0.0
 40
6.0
  0
LINE
  5
E588
  8
SIZE
  6
CONTINUOUS
 62
    30
 10
-142.5
 20
530.4102150000001
 30
0.0
 11
-130.5
 21
530.4102150000001
 31
0.0
  0
TEXT
  5
E589
  8
SIZE
  6
CONTINUOUS
 62
    30
 10
-82.28571428571429
 20
555.4102150000001
 30
0.0
 40
64.0
  1
285
 41
0.9
 72
     1
 11
0.0
 21
555.4102150000001
 31
0.0
  0
POINT
  5
E58A
  8
DEFPOINTS
  6
CONTINUOUS
 62
    30
 10
142.5
 20
190.3847900000001
 30
0.0
  0
POINT
  5
E58B
  8
DEFPOINTS
  6
CONTINUOUS
 62
    30
 10
-142.5
 20
190.3847900000001
 30
0.0
  0
POINT
  5
E58C
  8
DEFPOINTS
  6
CONTINUOUS
 62
    30
 10
-142.5
 20
530.4102150000001
 30
0.0
  0
LINE
  5
E58D
  8
SIZE
  6
CONTINUOUS
 62
    30
 10
-64.49992399999996
 20
217.04985
 30
0.0
 11
-64.49992399999996
 21
286.2624940000003
 31
0.0
  0
LINE
  5
E58E
  8
SIZE
  6
CONTINUOUS
 62
    30
 10
17.50007600000004
 20
217.04985
 30
0.0
 11
17.50007600000004
 21
286.2624940000003
 31
0.0
  0
LINE
  5
E58F
  8
SIZE
  6
CONTINUOUS
 62
    30
 10
-52.49992399999996
 20
266.2624940000003
 30
0.0
 11
5.500076000000035
 21
266.2624940000003
 31
0.0
  0
LINE
  5
E590
  8
SIZE
  6
CONTINUOUS
 62
    30
 10
17.50007600000004
 20
266.2624940000003
 30
0.0
 11
332.7626210000001
 21
266.2624940000003
 31
0.0
  0
CIRCLE
  5
E591
  8
SIZE
  6
CONTINUOUS
 62
    30
 10
-64.49992399999996
 20
266.2624940000003
 30
0.0
 40
6.0
  0
LINE
  5
E592
  8
SIZE
  6
CONTINUOUS
 62
    30
 10
-64.49992399999996
 20
266.2624940000003
 30
0.0
 11
-52.49992399999996
 21
266.2624940000003
 31
0.0
  0
CIRCLE
  5
E593
  8
SIZE
  6
CONTINUOUS
 62
    30
 10
17.50007600000004
 20
266.2624940000003
 30
0.0
 40
6.0
  0
LINE
  5
E594
  8
SIZE
  6
CONTINUOUS
 62
    30
 10
17.50007600000004
 20
266.2624940000003
 30
0.0
 11
5.500076000000035
 21
266.2624940000003
 31
0.0
  0
TEXT
  5
E595
  8
SIZE
  6
CONTINUOUS
 62
    30
 10
155.5340498571427
 20
291.2624940000003
 30
0.0
 40
64.0
  1
φ82
 41
0.9
 72
     1
 11
235.0769069999999
 21
291.2624940000003
 31
0.0
  0
POINT
  5
E596
  8
DEFPOINTS
  6
CONTINUOUS
 62
    30
 10
-64.49992399999996
 20
197.0498500000001
 30
0.0
  0
POINT
  5
E597
  8
DEFPOINTS
  6
CONTINUOUS
 62
    30
 10
17.50007600000004
 20
197.0498500000001
 30
0.0
  0
POINT
  5
E598
  8
DEFPOINTS
  6
CONTINUOUS
 62
    30
 10
17.50007600000004
 20
266.2624940000003
 30
0.0
  0
LINE
  5
E599
  8
SIZE
  6
CONTINUOUS
 62
    30
 10
-139.5
 20
-20.0
 30
0.0
 11
-447.231012
 21
-20.0
 31
0.0
  0
LINE
  5
E59A
  8
SIZE
  6
CONTINUOUS
 62
    30
 10
-184.0
 20
0.0
 30
0.0
 11
-447.231012
 21
0.0
 31
0.0
  0
LINE
  5
E59B
  8
SIZE
  6
CONTINUOUS
 62
    30
 10
-427.231012
 20
12.0
 30
0.0
 11
-427.231012
 21
24.0
 31
0.0
  0
LINE
  5
E59C
  8
SIZE
  6
CONTINUOUS
 62
    30
 10
-427.231012
 20
-32.0
 30
0.0
 11
-427.231012
 21
-187.257143
 31
0.0
  0
LINE
  5
E59D
  8
SIZE
  6
CONTINUOUS
 62
    30
 10
-427.231012
 20
0.0
 30
0.0
 11
-427.231012
 21
-20.0
 31
0.0
  0
CIRCLE
  5
E59E
  8
SIZE
  6
CONTINUOUS
 62
    30
 10
-427.231012
 20
0.0
 30
0.0
 40
6.0
  0
LINE
  5
E59F
  8
SIZE
  6
CONTINUOUS
 62
    30
 10
-427.231012
 20
0.0
 30
0.0
 11
-427.231012
 21
12.0
 31
0.0
  0
CIRCLE
  5
E5A0
  8
SIZE
  6
CONTINUOUS
 62
    30
 10
-427.231012
 20
-20.0
 30
0.0
 40
6.0
  0
LINE
  5
E5A1
  8
SIZE
  6
CONTINUOUS
 62
    30
 10
-427.231012
 20
-20.0
 30
0.0
 11
-427.231012
 21
-32.0
 31
0.0
  0
TEXT
  5
E5A2
  8
SIZE
  6
CONTINUOUS
 62
    30
 10
-452.231012
 20
-170.4857138571428
 30
0.0
 40
64.0
  1
20
 50
90.0
 41
0.9
 72
     1
 11
-452.231012
 21
-115.628571
 31
0.0
  0
POINT
  5
E5A3
  8
DEFPOINTS
  6
CONTINUOUS
 62
    30
 10
-119.5
 20
-20.0
 30
0.0
  0
POINT
  5
E5A4
  8
DEFPOINTS
  6
CONTINUOUS
 62
    30
 10
-164.0
 20
0.0
 30
0.0
  0
POINT
  5
E5A5
  8
DEFPOINTS
  6
CONTINUOUS
 62
    30
 10
-427.231012
 20
0.0
 30
0.0
  0
LINE
  5
E5A6
  8
SIZE
  6
CONTINUOUS
 62
    30
 10
-184.0
 20
0.0
 30
0.0
 11
-447.231012
 21
0.0
 31
0.0
  0
LINE
  5
E5A7
  8
SIZE
  6
CONTINUOUS
 62
    30
 10
-31.00007600000009
 20
203.64985
 30
0.0
 11
-447.231012
 21
203.64985
 31
0.0
  0
LINE
  5
E5A8
  8
SIZE
  6
CONTINUOUS
 62
    30
 10
-427.231012
 20
12.0
 30
0.0
 11
-427.231012
 21
191.64985
 31
0.0
  0
CIRCLE
  5
E5A9
  8
SIZE
  6
CONTINUOUS
 62
    30
 10
-427.231012
 20
0.0
 30
0.0
 40
6.0
  0
LINE
  5
E5AA
  8
SIZE
  6
CONTINUOUS
 62
    30
 10
-427.231012
 20
0.0
 30
0.0
 11
-427.231012
 21
12.0
 31
0.0
  0
CIRCLE
  5
E5AB
  8
SIZE
  6
CONTINUOUS
 62
    30
 10
-427.231012
 20
203.64985
 30
0.0
 40
6.0
  0
LINE
  5
E5AC
  8
SIZE
  6
CONTINUOUS
 62
    30
 10
-427.231012
 20
203.64985
 30
0.0
 11
-427.231012
 21
191.64985
 31
0.0
  0
TEXT
  5
E5AD
  8
SIZE
  6
CONTINUOUS
 62
    30
 10
-452.231012
 20
18.16778214285704
 30
0.0
 40
64.0
  1
204
 50
90.0
 41
0.9
 72
     1
 11
-452.231012
 21
101.8249249999999
 31
0.0
  0
POINT
  5
E5AE
  8
DEFPOINTS
  6
CONTINUOUS
 62
    30
 10
-164.0
 20
0.0
 30
0.0
  0
POINT
  5
E5AF
  8
DEFPOINTS
  6
CONTINUOUS
 62
    30
 10
-11.00007600000009
 20
203.64985
 30
0.0
  0
POINT
  5
E5B0
  8
DEFPOINTS
  6
CONTINUOUS
 62
    30
 10
-427.231012
 20
203.64985
 30
0.0
  0
ARC
  5
E5B1
  8
DETAIL
  6
CONTINUOUS
 62
     5
 10
-57.89992400000006
 20
197.0498500000001
 30
0.0
 40
6.6
 50
90.0
 51
180.0
  0
ARC
  5
E5B2
  8
DETAIL
  6
CONTINUOUS
 62
     5
 10
10.90007600000001
 20
197.0498500000001
 30
0.0
 40
6.6
 50
0.0
 51
90.0
  0
LINE
  5
E5B3
  8
DETAIL
  6
CONTINUOUS
 62
     5
 10
-64.999999
 20
170.849845
 30
0.0
 11
-64.49992299999997
 21
171.7159320000001
 31
0.0
  0
LINE
  5
E5B4
  8
DETAIL
  6
CONTINUOUS
 62
     5
 10
-64.49992299999997
 20
171.7159320000001
 30
0.0
 11
-24.0
 21
171.7159320000001
 31
0.0
  0
LINE
  5
E5B5
  8
DETAIL
  6
CONTINUOUS
 62
     5
 10
-65.00001499999996
 20
169.2998050000001
 30
0.0
 11
-65.00001499999996
 21
170.849843
 31
0.0
  0
LINE
  5
E5B6
  8
DETAIL
  6
CONTINUOUS
 62
     5
 10
-64.49992399999996
 20
171.7159320000001
 30
0.0
 11
-64.49992399999996
 21
197.0498500000001
 31
0.0
  0
LINE
  5
E5B7
  8
DETAIL
  6
CONTINUOUS
 62
     5
 10
18.0001519999999
 20
170.849845
 30
0.0
 11
17.50007600000004
 21
171.7159320000001
 31
0.0
  0
LINE
  5
E5B8
  8
DETAIL
  6
CONTINUOUS
 62
     5
 10
17.50007600000004
 20
171.7159300000001
 30
0.0
 11
-24.0
 21
171.7159320000001
 31
0.0
  0
LINE
  5
E5B9
  8
DETAIL
  6
CONTINUOUS
 62
     5
 10
18.00016800000003
 20
169.2998050000001
 30
0.0
 11
18.00016800000003
 21
170.849843
 31
0.0
  0
LINE
  5
E5BA
  8
DETAIL
  6
CONTINUOUS
 62
     5
 10
17.50007600000004
 20
171.7159320000001
 30
0.0
 11
17.50007600000004
 21
197.0498500000001
 31
0.0
  0
LINE
  5
E5BB
  8
DETAIL
  6
CONTINUOUS
 62
     5
 10
-57.89992400000006
 20
203.64985
 30
0.0
 11
10.90007600000001
 21
203.64985
 31
0.0
  0
LINE
  5
E5BC
  8
DETAIL
  6
CONTINUOUS
 62
     5
 10
-82.14190099999996
 20
168.359616
 30
0.0
 11
-83.92914900000005
 21
165.5
 31
0.0
  0
ARC
  5
E5BD
  8
DETAIL
  6
CONTINUOUS
 62
     5
 10
-80.44596899999999
 20
167.299561
 30
0.0
 40
2.0
 50
90.0
 51
147.9931149999914
  0
LINE
  5
E5BE
  8
DETAIL
  6
CONTINUOUS
 62
     5
 10
33.44632000000001
 20
169.2998050000001
 30
0.0
 11
-79.4458160000001
 21
169.2998050000001
 31
0.0
  0
ARC
  5
E5BF
  8
DETAIL
  6
CONTINUOUS
 62
     5
 10
33.44612099999995
 20
167.299561
 30
0.0
 40
2.0
 50
32.00688500000864
 51
90.0
  0
LINE
  5
E5C0
  8
DETAIL
  6
CONTINUOUS
 62
     5
 10
35.14205400000003
 20
168.359616
 30
0.0
 11
36.92930100000001
 21
165.5
 31
0.0
  0
LINE
  5
E5C1
  8
DETAIL
  6
CONTINUOUS
 62
     5
 10
32.44616699999995
 20
169.2996089999999
 30
0.0
 11
-80.44596899999999
 21
169.2996089999999
 31
0.0
  0
ARC
  5
E5C2
  8
DETAIL
  6
CONTINUOUS
 62
     5
 10
-80.44596899999999
 20
167.2993650000001
 30
0.0
 40
2.0
 50
90.0
 51
147.9931149999914
  0
LINE
  5
E5C3
  8
DETAIL
  6
CONTINUOUS
 62
     5
 10
-87.5
 20
120.5
 30
0.0
 11
-87.5
 21
175.0
 31
0.0
  0
LINE
  5
E5C4
  8
DETAIL
  6
CONTINUOUS
 62
     5
 10
-87.5
 20
174.0
 30
0.0
 11
-122.5
 21
174.0
 31
0.0
  0
LINE
  5
E5C5
  8
DETAIL
  6
CONTINUOUS
 62
     5
 10
-87.5
 20
175.0
 30
0.0
 11
-87.5
 21
175.0000010000001
 31
0.0
  0
LINE
  5
E5C6
  8
DETAIL
  6
CONTINUOUS
 62
     5
 10
-87.5
 20
175.0
 30
0.0
 11
-87.5
 21
175.0000010000001
 31
0.0
  0
LINE
  5
E5C7
  8
DETAIL
  6
CONTINUOUS
 62
     5
 10
-87.5
 20
175.0
 30
0.0
 11
-122.5
 21
175.0
 31
0.0
  0
LINE
  5
E5C8
  8
DETAIL
  6
CONTINUOUS
 62
     5
 10
17.50007600000004
 20
171.7159320000001
 30
0.0
 11
17.50007600000004
 21
197.0498500000001
 31
0.0
  0
ARC
  5
E5C9
  8
OUTLINE
  6
CONTINUOUS
 62
     3
 10
-57.89998299999996
 20
197.049945
 30
0.0
 40
6.6
 50
90.0
 51
180.0
  0
ARC
  5
E5CA
  8
OUTLINE
  6
CONTINUOUS
 62
     3
 10
10.90001700000005
 20
197.049945
 30
0.0
 40
6.6
 50
0.0
 51
90.0
  0
LINE
  5
E5CB
  8
OUTLINE
  6
CONTINUOUS
 62
     3
 10
-65.00005799999997
 20
170.8499389999999
 30
0.0
 11
-64.4999820000001
 21
171.7160260000001
 31
0.0
  0
LINE
  5
E5CC
  8
OUTLINE
  6
CONTINUOUS
 62
     3
 10
-65.0000740000001
 20
169.2998990000001
 30
0.0
 11
-65.0000740000001
 21
170.849937
 31
0.0
  0
LINE
  5
E5CD
  8
OUTLINE
  6
CONTINUOUS
 62
     3
 10
-64.4999830000001
 20
171.7160260000001
 30
0.0
 11
-64.4999830000001
 21
197.049945
 31
0.0
  0
LINE
  5
E5CE
  8
OUTLINE
  6
CONTINUOUS
 62
     3
 10
17.5000169999999
 20
171.7160260000001
 30
0.0
 11
17.5000169999999
 21
197.049945
 31
0.0
  0
LINE
  5
E5CF
  8
OUTLINE
  6
CONTINUOUS
 62
     3
 10
18.00009300000005
 20
170.8499389999999
 30
0.0
 11
17.5000169999999
 21
171.7160260000001
 31
0.0
  0
LINE
  5
E5D0
  8
OUTLINE
  6
CONTINUOUS
 62
     3
 10
18.00010899999995
 20
169.2998990000001
 30
0.0
 11
18.00010899999995
 21
170.849937
 31
0.0
  0
LINE
  5
E5D1
  8
OUTLINE
  6
CONTINUOUS
 62
     3
 10
17.5000169999999
 20
171.7160260000001
 30
0.0
 11
17.5000169999999
 21
197.049945
 31
0.0
  0
LINE
  5
E5D2
  8
OUTLINE
  6
CONTINUOUS
 62
     3
 10
-57.89998299999996
 20
203.649945
 30
0.0
 11
10.90001700000005
 21
203.649945
 31
0.0
  0
LINE
  5
E5D3
  8
OUTLINE
  6
CONTINUOUS
 62
     3
 10
-82.1419600000001
 20
168.35971
 30
0.0
 11
-83.92920799999996
 21
165.500094
 31
0.0
  0
ARC
  5
E5D4
  8
OUTLINE
  6
CONTINUOUS
 62
     3
 10
-80.44602799999996
 20
167.299655
 30
0.0
 40
2.0
 50
90.0
 51
147.9931149999914
  0
ARC
  5
E5D5
  8
OUTLINE
  6
CONTINUOUS
 62
     3
 10
33.44606200000004
 20
167.299655
 30
0.0
 40
2.0
 50
32.00688500000864
 51
90.0
  0
LINE
  5
E5D6
  8
OUTLINE
  6
CONTINUOUS
 62
     3
 10
35.14199499999995
 20
168.35971
 30
0.0
 11
36.92924200000004
 21
165.500094
 31
0.0
  0
LINE
  5
E5D7
  8
OUTLINE
  6
CONTINUOUS
 62
     3
 10
33.44606200000004
 20
169.299655
 30
0.0
 11
18.00010899999995
 21
169.2998990000001
 31
0.0
  0
ARC
  5
E5D8
  8
OUTLINE
  6
CONTINUOUS
 62
     3
 10
-80.44602799999996
 20
167.29946
 30
0.0
 40
2.0
 50
90.0
 51
147.9931149999914
  0
LINE
  5
E5D9
  8
OUTLINE
  6
CONTINUOUS
 62
     3
 10
-65.0000740000001
 20
169.299704
 30
0.0
 11
-80.44602799999996
 21
169.299704
 31
0.0
  0
LINE
  5
E5DA
  8
SIZE
  6
CONTINUOUS
 62
    30
 10
-184.0
 20
0.0
 30
0.0
 11
-319.683746
 21
0.0
 31
0.0
  0
LINE
  5
E5DB
  8
SIZE
  6
CONTINUOUS
 62
    30
 10
-179.5
 20
174.0
 30
0.0
 11
-319.683746
 21
174.0
 31
0.0
  0
LINE
  5
E5DC
  8
SIZE
  6
CONTINUOUS
 62
    30
 10
-299.683746
 20
-12.0
 30
0.0
 11
-299.683746
 21
-24.0
 31
0.0
  0
LINE
  5
E5DD
  8
SIZE
  6
CONTINUOUS
 62
    30
 10
-299.683746
 20
186.0
 30
0.0
 11
-299.683746
 21
198.0
 31
0.0
  0
LINE
  5
E5DE
  8
SIZE
  6
CONTINUOUS
 62
    30
 10
-299.683746
 20
0.0
 30
0.0
 11
-299.683746
 21
174.0
 31
0.0
  0
CIRCLE
  5
E5DF
  8
SIZE
  6
CONTINUOUS
 62
    30
 10
-299.683746
 20
0.0
 30
0.0
 40
6.0
  0
LINE
  5
E5E0
  8
SIZE
  6
CONTINUOUS
 62
    30
 10
-299.683746
 20
0.0
 30
0.0
 11
-299.683746
 21
-12.0
 31
0.0
  0
CIRCLE
  5
E5E1
  8
SIZE
  6
CONTINUOUS
 62
    30
 10
-299.683746
 20
174.0
 30
0.0
 40
6.0
  0
LINE
  5
E5E2
  8
SIZE
  6
CONTINUOUS
 62
    30
 10
-299.683746
 20
174.0
 30
0.0
 11
-299.683746
 21
186.0
 31
0.0
  0
TEXT
  5
E5E3
  8
SIZE
  6
CONTINUOUS
 62
    30
 10
-324.683746
 20
-0.7714285714285722
 30
0.0
 40
64.0
  1
174
 50
90.0
 41
0.9
 72
     1
 11
-324.683746
 21
87.0
 31
0.0
  0
POINT
  5
E5E4
  8
DEFPOINTS
  6
CONTINUOUS
 62
    30
 10
-164.0
 20
0.0
 30
0.0
  0
POINT
  5
E5E5
  8
DEFPOINTS
  6
CONTINUOUS
 62
    30
 10
-159.5
 20
174.0
 30
0.0
  0
POINT
  5
E5E6
  8
DEFPOINTS
  6
CONTINUOUS
 62
    30
 10
-299.683746
 20
174.0
 30
0.0
  0
TEXT
  5
E5E7
  8
ETC
  6
CONTINUOUS
 62
    61
 10
555.9726489999996
 20
174.9235719999999
 30
0.0
 40
40.0
  1
VD-15ZP9
 41
0.9
  0
TEXT
  5
E5E8
  8
NOTE
  6
CONTINUOUS
 62
     4
 10
-912.569544
 20
514.2913910000002
 30
0.0
 40
64.0
  1
AH 4-φ15×22
 41
0.9
  0
LINE
  5
E5E9
  8
NOTE
  6
CONTINUOUS
 62
     4
 39
50.0
 10
-159.5
 20
175.0
 30
0.0
 11
-286.963345
 21
481.0528460000003
 31
0.0
  0
LINE
  5
E5EA
  8
NOTE
  6
CONTINUOUS
 62
     4
 39
50.0
 10
-925.3015009999999
 20
481.0528460000003
 30
0.0
 11
-286.963345
 21
481.0528460000003
 31
0.0
  0
LINE
  5
E5EB
  8
NOTE
  6
CONTINUOUS
 62
     4
 39
50.0
 10
-174.167779
 20
188.8328879999999
 30
0.0
 11
-159.5
 21
175.0
 31
0.0
  0
LINE
  5
E5EC
  8
NOTE
  6
CONTINUOUS
 62
     4
 39
50.0
 10
-159.5
 20
175.0
 30
0.0
 11
-161.089387
 21
195.531438
 31
0.0
  0
ENDSEC
  0
EOF
