  0
SECTION
  2
HEADER
  9
$ACADVER
  1
AC1009
  9
$DWGCODEPAGE
  3
dos932
  9
$INSBASE
 10
0.0
 20
0.0
 30
0.0
  9
$EXTMIN
 10
-576.90580613783823
 20
-561.72179018813404
 30
-0.0015258207003583
  9
$EXTMAX
 10
1311.973583677285
 20
651.44348953785811
 30
0.0000000349246037
  9
$LIMMIN
 10
-2970.0
 20
-2100.0
  9
$LIMMAX
 10
2970.0
 20
2100.0
  9
$ORTHOMODE
 70
     1
  9
$REGENMODE
 70
     1
  9
$FILLMODE
 70
     1
  9
$QTEXTMODE
 70
     0
  9
$MIRRTEXT
 70
     0
  9
$LTSCALE
 40
20.0
  9
$ATTMODE
 70
     1
  9
$TEXTSIZE
 40
64.0
  9
$TRACEWID
 40
0.05
  9
$TEXTSTYLE
  7
STANDARD
  9
$CLAYER
  8
SIZE
  9
$CELTYPE
  6
CONTINUOUS
  9
$CECOLOR
 62
     7
  9
$DIMSCALE
 40
1.0
  9
$DIMASZ
 40
12.0
  9
$DIMEXO
 40
20.0
  9
$DIMDLI
 40
200.0
  9
$DIMRND
 40
0.0
  9
$DIMDLE
 40
0.0
  9
$DIMEXE
 40
20.0
  9
$DIMTP
 40
0.0
  9
$DIMTM
 40
0.0
  9
$DIMTXT
 40
64.0
  9
$DIMCEN
 40
0.09
  9
$DIMTSZ
 40
0.0
  9
$DIMTOL
 70
     0
  9
$DIMLIM
 70
     0
  9
$DIMTIH
 70
     0
  9
$DIMTOH
 70
     0
  9
$DIMSE1
 70
     0
  9
$DIMSE2
 70
     0
  9
$DIMTAD
 70
     1
  9
$DIMZIN
 70
     8
  9
$DIMBLK
  1

  9
$DIMASO
 70
     1
  9
$DIMSHO
 70
     0
  9
$DIMPOST
  1

  9
$DIMAPOST
  1

  9
$DIMALT
 70
     0
  9
$DIMALTD
 70
     2
  9
$DIMALTF
 40
25.399999999999999
  9
$DIMLFAC
 40
1.0
  9
$DIMTOFL
 70
     1
  9
$DIMTVP
 40
0.0
  9
$DIMTIX
 70
     1
  9
$DIMSOXD
 70
     0
  9
$DIMSAH
 70
     0
  9
$DIMBLK1
  1

  9
$DIMBLK2
  1

  9
$DIMSTYLE
  2
STANDARD
  9
$DIMCLRD
 70
     7
  9
$DIMCLRE
 70
     7
  9
$DIMCLRT
 70
     7
  9
$DIMTFAC
 40
1.0
  9
$DIMGAP
 40
25.0
  9
$LUNITS
 70
     2
  9
$LUPREC
 70
     4
  9
$SKETCHINC
 40
0.1
  9
$FILLETRAD
 40
3.0
  9
$AUNITS
 70
     1
  9
$AUPREC
 70
     3
  9
$MENU
  1
ACAD
  9
$ELEVATION
 40
0.0
  9
$PELEVATION
 40
0.0
  9
$THICKNESS
 40
0.0
  9
$LIMCHECK
 70
     0
  9
$CHAMFERA
 40
0.0
  9
$CHAMFERB
 40
0.0
  9
$SKPOLY
 70
     0
  9
$TDCREATE
 40
2453019.62301037
  9
$TDUPDATE
 40
2459025.499557384
  9
$TDINDWG
 40
1.7263817245
  9
$TDUSRTIMER
 40
1.7263817245
  9
$USRTIMER
 70
     1
  9
$ANGBASE
 50
0.0
  9
$ANGDIR
 70
     0
  9
$PDMODE
 70
     3
  9
$PDSIZE
 40
-2.0
  9
$PLINEWID
 40
0.0
  9
$SPLFRAME
 70
     0
  9
$SPLINETYPE
 70
     6
  9
$SPLINESEGS
 70
     8
  9
$SURFTAB1
 70
     6
  9
$SURFTAB2
 70
     6
  9
$SURFTYPE
 70
     6
  9
$SURFU
 70
     6
  9
$SURFV
 70
     6
  9
$UCSNAME
  2

  9
$UCSORG
 10
0.0
 20
0.0
 30
0.0
  9
$UCSXDIR
 10
1.0
 20
0.0
 30
0.0
  9
$UCSYDIR
 10
0.0
 20
1.0
 30
0.0
  9
$PUCSNAME
  2

  9
$PUCSORG
 10
0.0
 20
0.0
 30
0.0
  9
$PUCSXDIR
 10
1.0
 20
0.0
 30
0.0
  9
$PUCSYDIR
 10
0.0
 20
1.0
 30
0.0
  9
$USERI1
 70
     0
  9
$USERI2
 70
     0
  9
$USERI3
 70
     0
  9
$USERI4
 70
     0
  9
$USERI5
 70
     0
  9
$USERR1
 40
20.0
  9
$USERR2
 40
0.0
  9
$USERR3
 40
0.0
  9
$USERR4
 40
0.0
  9
$USERR5
 40
0.0
  9
$WORLDVIEW
 70
     1
  9
$SHADEDGE
 70
     3
  9
$SHADEDIF
 70
    70
  9
$TILEMODE
 70
     1
  9
$MAXACTVP
 70
    48
  9
$PINSBASE
 10
0.0
 20
0.0
 30
0.0
  9
$PLIMCHECK
 70
     0
  9
$PEXTMIN
 10
-100000000000000000000.0
 20
-100000000000000000000.0
 30
-100000000000000000000.0
  9
$PEXTMAX
 10
100000000000000000000.0
 20
100000000000000000000.0
 30
100000000000000000000.0
  9
$PLIMMIN
 10
0.0
 20
0.0
  9
$PLIMMAX
 10
12.0
 20
9.0
  9
$UNITMODE
 70
     0
  9
$VISRETAIN
 70
     0
  9
$PLINEGEN
 70
     0
  9
$PSLTSCALE
 70
     0
  9
$TREEDEPTH
 70
  3020
  9
$ATTDIA
 70
     0
  9
$ATTREQ
 70
     1
  9
$BLIPMODE
 70
     1
  9
$COORDS
 70
     1
  9
$DRAGMODE
 70
     2
  9
$OSMODE
 70
     0
  9
$HANDLING
 70
     0
  9
$HANDSEED
  5
F01A
  0
ENDSEC
  0
SECTION
  2
TABLES
  0
TABLE
  2
LTYPE
 70
     2
  0
LTYPE
  2
CONTINUOUS
 70
     0
  3
実線
 72
    65
 73
     0
 40
0.0
  0
LTYPE
  2
DASHDOT
 70
     0
  3
____ _ ____ _ ____ _ ____ _ ____ _ ____ _ ____
 72
    65
 73
     4
 40
5.5
 49
4.0
 49
-0.6
 49
0.3
 49
-0.6
  0
ENDTAB
  0
TABLE
  2
LAYER
 70
    12
  0
LAYER
  2
0
 70
     0
 62
     7
  6
CONTINUOUS
  0
LAYER
  2
BASIS
 70
     0
 62
     6
  6
DASHDOT
  0
LAYER
  2
OUTLINE
 70
     0
 62
     3
  6
CONTINUOUS
  0
LAYER
  2
DETAIL
 70
     0
 62
     5
  6
CONTINUOUS
  0
LAYER
  2
SIZE
 70
     0
 62
    30
  6
CONTINUOUS
  0
LAYER
  2
ARRANGE
 70
     0
 62
     1
  6
CONTINUOUS
  0
LAYER
  2
DEFPOINTS
 70
     0
 62
     7
  6
CONTINUOUS
  0
LAYER
  2
ETC
 70
     0
 62
    61
  6
CONTINUOUS
  0
LAYER
  2
FIX
 70
     0
 62
    11
  6
CONTINUOUS
  0
LAYER
  2
NOTE
 70
     0
 62
     4
  6
CONTINUOUS
  0
LAYER
  2
SERVICESPACE
 70
    64
 62
     2
  6
DASHDOT
  0
LAYER
  2
SYMBOLLINE
 70
    64
 62
    15
  6
CONTINUOUS
  0
ENDTAB
  0
TABLE
  2
STYLE
 70
     1
  0
STYLE
  2
STANDARD
 70
     0
 40
64.0
 41
0.9
 50
0.0
 71
     0
 42
64.0
  3
SIMPLEX.shx
  4
BIGFONT.shx
  0
ENDTAB
  0
TABLE
  2
APPID
 70
    19
  0
APPID
  2
ACAD
 70
     0
  0
APPID
  2
AUTOCAD_POSTSCRIPT_FIGURE
 70
     0
  0
APPID
  2
ACAD_EXEMPT_FROM_CAD_STANDARDS
 70
     0
  0
APPID
  2
ACAD_PSEXT
 70
     0
  0
APPID
  2
ACAUTHENVIRON
 70
     0
  0
APPID
  2
GENIUS_GENOENT_13
 70
     0
  0
APPID
  2
GENIUS_GENCFG_13
 70
     0
  0
APPID
  2
GENIUS_GENCFG0_13
 70
     0
  0
APPID
  2
GENIUS_GENCFG1_13
 70
     0
  0
APPID
  2
GENIUS_GENCFG2_13
 70
     0
  0
APPID
  2
GENIUS_GENCFG3_13
 70
     0
  0
APPID
  2
GENIUS_GENCFG4_13
 70
     0
  0
APPID
  2
GENIUS_GEVCFG0_13
 70
     0
  0
APPID
  2
CONTENTBLOCKICON
 70
     0
  0
APPID
  2
CONTENTBLOCKDESCRIPTION
 70
     0
  0
APPID
  2
ACAD_NAV_VCDISPLAY
 70
     0
  0
APPID
  2
ACAD_MLEADERVER
 70
     0
  0
APPID
  2
ACDBDYNAMICBLOCKTRUENAME
 70
     0
  0
APPID
  2
ACDBDYNAMICBLOCKGUID
 70
     0
  0
ENDTAB
  0
TABLE
  2
DIMSTYLE
 70
     1
  0
DIMSTYLE
  2
STANDARD
 70
     0
  3

  4

  5
_ORIGIN
  6

  7

 40
1.0
 41
12.0
 42
20.0
 43
200.0
 44
20.0
 45
0.0
 46
0.0
 47
0.0
 48
0.0
140
64.0
141
0.09
142
0.0
143
25.399999999999999
144
1.0
145
0.0
146
1.0
147
25.0
 71
     0
 72
     0
 73
     0
 74
     0
 75
     0
 76
     0
 77
     1
 78
     8
170
     0
171
     2
172
     1
173
     0
174
     1
175
     0
176
     7
177
     7
178
     7
  0
ENDTAB
  0
TABLE
  2
VIEW
 70
     1
  0
VIEW
  2
ALL
 70
     0
 40
4282.6198079999986
 10
0.0
 20
41.309904000000003
 41
5940.0
 11
0.0
 21
0.0
 31
1.0
 12
0.0
 22
0.0
 32
0.0
 42
50.0
 43
0.0
 44
0.0
 50
0.0
 71
     0
  0
ENDTAB
  0
TABLE
  2
UCS
 70
     0
  0
ENDTAB
  0
TABLE
  2
VPORT
 70
     1
  0
VPORT
  2
*ACTIVE
 70
     0
 10
0.0
 20
0.0
 11
1.0
 21
1.0
 12
367.5338887697236
 22
44.860849674862038
 13
0.0
 23
0.0
 14
1.0
 24
1.0
 15
0.0
 25
0.0
 16
0.0
 26
0.0
 36
1.0
 17
0.0
 27
0.0
 37
0.0
 40
1221.2083644534571
 41
1.747787610619469
 42
50.0
 43
0.0
 44
0.0
 50
0.0
 51
0.0
 71
     0
 72
  1000
 73
     1
 74
     3
 75
     0
 76
     0
 77
     0
 78
     0
  0
ENDTAB
  0
ENDSEC
  0
SECTION
  2
BLOCKS
  0
BLOCK
  8
0
  2
_ORIGIN
 70
     0
 10
0.0
 20
0.0
 30
0.0
  3
_ORIGIN
  1
_ORIGIN
  0
CIRCLE
  8
0
  6
CONTINUOUS
 62
     7
 10
0.0
 20
0.0
 30
0.0
 40
0.5
  0
LINE
  8
0
  6
CONTINUOUS
 62
     7
 10
0.0
 20
0.0
 30
0.0
 11
-1.0
 21
0.0
 31
0.0
  0
ENDBLK
  8
0
  0
ENDSEC
  0
SECTION
  2
ENTITIES
  0
TEXT
  8
ETC
  6
CONTINUOUS
 62
    61
 10
516.52345857810587
 20
587.13766144633473
 30
0.0
 40
64.0
  1
VD-15ZC13-HW_2
 41
0.9
  0
TEXT
  8
ETC
  6
CONTINUOUS
 62
    61
 10
512.33746457810548
 20
469.18235143150332
 30
0.0
 40
64.0
  1
換気扇
 41
0.9
  0
TEXT
  8
ETC
  6
CONTINUOUS
 62
    61
 10
563.03886282666144
 20
361.03357854527832
 30
0.0
 40
40.0
  1
VD-15ZC13-HW
 41
0.9
  0
CIRCLE
  8
ARRANGE
  6
CONTINUOUS
 62
     1
 10
0.0
 20
0.0
 30
0.0
 40
40.0
  0
POINT
  8
ARRANGE
  6
CONTINUOUS
 62
     1
 10
0.0
 20
0.0
 30
0.0
 50
90.0
  0
LINE
  8
NOTE
  6
CONTINUOUS
 62
     4
 10
170.00000000000011
 20
-11.83829900000001
 30
0.0
 11
170.00000000000011
 21
7.2798390000000381
 31
0.0
  0
LINE
  8
NOTE
  6
CONTINUOUS
 62
     4
 10
-170.0
 20
-11.83829900000001
 30
0.0
 11
-170.0
 21
7.2798390000000381
 31
0.0
  0
LINE
  8
NOTE
  6
CONTINUOUS
 62
     4
 10
95.0
 20
-11.83829900000001
 30
0.0
 11
95.0
 21
7.2798390000000381
 31
0.0
  0
LINE
  8
NOTE
  6
CONTINUOUS
 62
     4
 10
-95.0
 20
-11.83829900000001
 30
0.0
 11
-95.0
 21
7.2798390000000381
 31
0.0
  0
LINE
  8
DETAIL
  6
CONTINUOUS
 62
     5
 10
146.9335560000001
 20
-20.0
 30
0.0
 11
-146.93355700000009
 21
-20.0
 31
0.0
  0
LINE
  8
DETAIL
  6
CONTINUOUS
 62
     5
 10
-145.43355700000009
 20
-9.7676229999999578
 30
0.0
 11
145.4335560000001
 21
-9.7676229999999578
 31
0.0
  0
LINE
  8
DETAIL
  6
CONTINUOUS
 62
     5
 10
-193.43716599999999
 20
-9.7676229999999578
 30
0.0
 11
-146.93355700000009
 21
-9.7676229999999578
 31
0.0
  0
LINE
  8
DETAIL
  6
CONTINUOUS
 62
     5
 10
-145.43355700000009
 20
0.0
 30
0.0
 11
-145.43355700000009
 21
-20.0
 31
0.0
  0
LINE
  8
DETAIL
  6
CONTINUOUS
 62
     5
 10
-146.93355700000009
 20
0.0
 30
0.0
 11
-146.93355700000009
 21
-20.0
 31
0.0
  0
LINE
  8
DETAIL
  6
CONTINUOUS
 62
     5
 10
-194.93355700000009
 20
0.0
 30
0.0
 11
194.9335560000001
 21
0.0
 31
0.0
  0
ARC
  8
DETAIL
  6
CONTINUOUS
 62
     5
 10
-146.93355700000009
 20
97.700000000000045
 30
0.0
 40
117.7
 50
247.91342499999871
 51
270.0
  0
LINE
  8
DETAIL
  6
CONTINUOUS
 62
     5
 10
-194.93355700000009
 20
0.0
 30
0.0
 11
-194.93355700000009
 21
-5.8030919999999924
 31
0.0
  0
ARC
  8
DETAIL
  6
CONTINUOUS
 62
     5
 10
-188.93355700000009
 20
-5.8030919999999924
 30
0.0
 40
6.0
 50
180.0
 51
247.91342499999871
  0
LINE
  8
DETAIL
  6
CONTINUOUS
 62
     5
 10
145.4335560000001
 20
0.0
 30
0.0
 11
145.4335560000001
 21
-20.0
 31
0.0
  0
LINE
  8
DETAIL
  6
CONTINUOUS
 62
     5
 10
146.9335560000001
 20
0.0
 30
0.0
 11
146.9335560000001
 21
-20.0
 31
0.0
  0
ARC
  8
DETAIL
  6
CONTINUOUS
 62
     5
 10
146.9335560000001
 20
97.700000000000045
 30
0.0
 40
117.7
 50
270.0
 51
292.08657500000118
  0
LINE
  8
DETAIL
  6
CONTINUOUS
 62
     5
 10
193.43716499999991
 20
-9.7676229999999578
 30
0.0
 11
146.9335560000001
 21
-9.7676229999999578
 31
0.0
  0
LINE
  8
DETAIL
  6
CONTINUOUS
 62
     5
 10
194.9335560000001
 20
0.0
 30
0.0
 11
194.9335560000001
 21
-5.8030919999999924
 31
0.0
  0
ARC
  8
DETAIL
  6
CONTINUOUS
 62
     5
 10
188.9335560000001
 20
-5.8030919999999924
 30
0.0
 40
6.0
 50
292.08657500000118
 51
0.0
  0
LINE
  8
DETAIL
  6
CONTINUOUS
 62
     5
 10
-153.1999999999999
 20
14.200000000000051
 30
0.0
 11
153.1999999999999
 21
14.200000000000051
 31
0.0
  0
LINE
  8
DETAIL
  6
CONTINUOUS
 62
     5
 10
-153.1999999999999
 20
15.0
 30
0.0
 11
-130.0
 21
15.0
 31
0.0
  0
LINE
  8
DETAIL
  6
CONTINUOUS
 62
     5
 10
-154.0
 20
0.0
 30
0.0
 11
-154.0
 21
13.399999999999981
 31
0.0
  0
LINE
  8
DETAIL
  6
CONTINUOUS
 62
     5
 10
-154.80000000000001
 20
0.0
 30
0.0
 11
-154.80000000000001
 21
13.399999999999981
 31
0.0
  0
LINE
  8
DETAIL
  6
CONTINUOUS
 62
     5
 10
-154.0
 20
0.0
 30
0.0
 11
-154.0
 21
12.600000000000019
 31
0.0
  0
LINE
  8
DETAIL
  6
CONTINUOUS
 62
     5
 10
-154.80000000000001
 20
0.0
 30
0.0
 11
-154.80000000000001
 21
12.600000000000019
 31
0.0
  0
LINE
  8
DETAIL
  6
CONTINUOUS
 62
     5
 10
-130.0
 20
14.200000000000051
 30
0.0
 11
-130.0
 21
15.0
 31
0.0
  0
ARC
  8
DETAIL
  6
CONTINUOUS
 62
     5
 10
-153.1999999999999
 20
13.399999999999981
 30
0.0
 40
1.6000000000000001
 50
90.0
 51
180.0
  0
ARC
  8
DETAIL
  6
CONTINUOUS
 62
     5
 10
-153.1999999999999
 20
13.399999999999981
 30
0.0
 40
0.8
 50
90.0
 51
180.0
  0
ARC
  8
DETAIL
  6
CONTINUOUS
 62
     5
 10
-153.1999999999999
 20
13.399999999999981
 30
0.0
 40
1.6000000000000001
 50
90.0
 51
180.0
  0
ARC
  8
DETAIL
  6
CONTINUOUS
 62
     5
 10
-153.1999999999999
 20
13.399999999999981
 30
0.0
 40
0.8
 50
90.0
 51
180.0
  0
LINE
  8
DETAIL
  6
CONTINUOUS
 62
     5
 10
154.8000000000001
 20
0.0
 30
0.0
 11
154.8000000000001
 21
13.399999999999981
 31
0.0
  0
LINE
  8
DETAIL
  6
CONTINUOUS
 62
     5
 10
154.00000000000011
 20
0.0
 30
0.0
 11
154.00000000000011
 21
13.399999999999981
 31
0.0
  0
LINE
  8
DETAIL
  6
CONTINUOUS
 62
     5
 10
153.1999999999999
 20
15.0
 30
0.0
 11
130.0
 21
15.0
 31
0.0
  0
ARC
  8
DETAIL
  6
CONTINUOUS
 62
     5
 10
153.1999999999999
 20
13.399999999999981
 30
0.0
 40
1.6000000000000001
 50
0.0
 51
90.0
  0
ARC
  8
DETAIL
  6
CONTINUOUS
 62
     5
 10
153.1999999999999
 20
13.399999999999981
 30
0.0
 40
0.8
 50
0.0
 51
90.0
  0
ARC
  8
DETAIL
  6
CONTINUOUS
 62
     5
 10
153.1999999999999
 20
13.399999999999981
 30
0.0
 40
1.6000000000000001
 50
0.0
 51
90.0
  0
ARC
  8
DETAIL
  6
CONTINUOUS
 62
     5
 10
153.1999999999999
 20
13.399999999999981
 30
0.0
 40
0.8
 50
0.0
 51
90.0
  0
LINE
  8
DETAIL
  6
CONTINUOUS
 62
     5
 10
154.00000000000011
 20
0.0
 30
0.0
 11
154.00000000000011
 21
12.600000000000019
 31
0.0
  0
LINE
  8
DETAIL
  6
CONTINUOUS
 62
     5
 10
154.8000000000001
 20
0.0
 30
0.0
 11
154.8000000000001
 21
12.600000000000019
 31
0.0
  0
LINE
  8
DETAIL
  6
CONTINUOUS
 62
     5
 10
130.0
 20
14.200000000000051
 30
0.0
 11
130.0
 21
15.0
 31
0.0
  0
LINE
  8
DETAIL
  6
CONTINUOUS
 62
     5
 10
90.0
 20
179.24499
 30
0.0
 11
90.0
 21
210.07597899999999
 31
0.0
  0
LINE
  8
DETAIL
  6
CONTINUOUS
 62
     5
 10
-82.0
 20
196.54960000000011
 30
0.0
 11
-82.0
 21
206.34960000000001
 31
0.0
  0
LINE
  8
DETAIL
  6
CONTINUOUS
 62
     5
 10
-76.401002999999946
 20
196.54960000000011
 30
0.0
 11
-80.030153999999925
 21
206.52061
 31
0.0
  0
LINE
  8
DETAIL
  6
CONTINUOUS
 62
     5
 10
-80.0
 20
196.54960000000011
 30
0.0
 11
-80.0
 21
206.34960000000001
 31
0.0
  0
ARC
  8
DETAIL
  6
CONTINUOUS
 62
     5
 10
-80.5
 20
206.34960000000001
 30
0.0
 40
0.5
 50
0.0
 51
90.0
  0
LINE
  8
DETAIL
  6
CONTINUOUS
 62
     5
 10
-81.5
 20
206.84960000000001
 30
0.0
 11
-80.5
 21
206.84960000000001
 31
0.0
  0
ARC
  8
DETAIL
  6
CONTINUOUS
 62
     5
 10
-81.5
 20
206.34960000000001
 30
0.0
 40
0.5
 50
90.0
 51
180.0
  0
LINE
  8
DETAIL
  6
CONTINUOUS
 62
     5
 10
-98.0
 20
196.54960000000011
 30
0.0
 11
-98.0
 21
206.34960000000001
 31
0.0
  0
LINE
  8
DETAIL
  6
CONTINUOUS
 62
     5
 10
-103.59899800000009
 20
196.54960000000011
 30
0.0
 11
-99.969846999999845
 21
206.52061
 31
0.0
  0
LINE
  8
DETAIL
  6
CONTINUOUS
 62
     5
 10
-100.0
 20
196.54960000000011
 30
0.0
 11
-100.0
 21
206.34960000000001
 31
0.0
  0
ARC
  8
DETAIL
  6
CONTINUOUS
 62
     5
 10
-99.5
 20
206.34960000000001
 30
0.0
 40
0.5
 50
90.0
 51
180.0
  0
LINE
  8
DETAIL
  6
CONTINUOUS
 62
     5
 10
-98.5
 20
206.84960000000001
 30
0.0
 11
-99.5
 21
206.84960000000001
 31
0.0
  0
ARC
  8
DETAIL
  6
CONTINUOUS
 62
     5
 10
-98.5
 20
206.34960000000001
 30
0.0
 40
0.5
 50
0.0
 51
90.0
  0
ARC
  8
DETAIL
  6
CONTINUOUS
 62
     5
 10
54.500001000000111
 20
207.5
 30
0.0
 40
5.5
 50
0.0
 51
90.0
  0
ARC
  8
DETAIL
  6
CONTINUOUS
 62
     5
 10
-16.000001999999991
 20
207.5
 30
0.0
 40
5.5
 50
90.0
 51
180.0
  0
LINE
  8
DETAIL
  6
CONTINUOUS
 62
     5
 10
-16.000001999999991
 20
213.0
 30
0.0
 11
54.500001000000111
 21
213.0
 31
0.0
  0
LINE
  8
DETAIL
  6
CONTINUOUS
 62
     5
 10
-21.500001999999991
 20
207.5
 30
0.0
 11
-21.500001999999991
 21
196.54960000000011
 31
0.0
  0
LINE
  8
DETAIL
  6
CONTINUOUS
 62
     5
 10
-65.0
 20
81.249599999999987
 30
0.0
 11
-65.0
 21
160.0843159999998
 31
0.0
  0
ARC
  8
DETAIL
  6
CONTINUOUS
 62
     5
 10
-48.0
 20
160.0843159999998
 30
0.0
 40
17.0
 50
93.641144999999597
 51
180.0
  0
LINE
  8
DETAIL
  6
CONTINUOUS
 62
     5
 10
-49.079623000000083
 20
177.05000000000001
 30
0.0
 11
0.0
 21
177.05000000000001
 31
0.0
  0
LINE
  8
DETAIL
  6
CONTINUOUS
 62
     5
 10
0.0
 20
196.54960000000011
 30
0.0
 11
-119.0
 21
196.54960000000011
 31
0.0
  0
LINE
  8
DETAIL
  6
CONTINUOUS
 62
     5
 10
0.0
 20
66.249599999999987
 30
0.0
 11
-50.0
 21
66.249599999999987
 31
0.0
  0
ARC
  8
DETAIL
  6
CONTINUOUS
 62
     5
 10
-50.0
 20
81.249599999999987
 30
0.0
 40
15.0
 50
180.0
 51
270.0
  0
ARC
  8
DETAIL
  6
CONTINUOUS
 62
     5
 10
0.0
 20
122.84999999999999
 30
0.0
 40
48.899999999999999
 50
90.0
 51
270.0
  0
ARC
  8
DETAIL
  6
CONTINUOUS
 62
     5
 10
0.0
 20
122.84999999999999
 30
0.0
 40
52.813999999999993
 50
90.0
 51
270.0
  0
ARC
  8
DETAIL
  6
CONTINUOUS
 62
     5
 10
0.0
 20
122.84999999999999
 30
0.0
 40
46.899999999999999
 50
90.0
 51
270.0
  0
LINE
  8
DETAIL
  6
CONTINUOUS
 62
     5
 10
-124.1668589999999
 20
189.54960000000011
 30
0.0
 11
0.0
 21
189.54960000000011
 31
0.0
  0
LINE
  8
DETAIL
  6
CONTINUOUS
 62
     5
 10
-124.132077
 20
191.63305800000001
 30
0.0
 11
-127.094151
 21
14.200000000000051
 31
0.0
  0
ARC
  8
DETAIL
  6
CONTINUOUS
 62
     5
 10
-119.132774
 20
191.54960000000011
 30
0.0
 40
5.0
 50
90.0
 51
179.0435910000015
  0
LINE
  8
BASIS
  6
DASHDOT
 62
     6
 10
0.0
 20
-35.998300999999969
 30
0.0
 11
0.0
 21
228.81298699999999
 31
0.0
  0
LINE
  8
DETAIL
  6
CONTINUOUS
 62
     5
 10
82.0
 20
196.54960000000011
 30
0.0
 11
82.0
 21
206.34960000000001
 31
0.0
  0
LINE
  8
DETAIL
  6
CONTINUOUS
 62
     5
 10
76.401002000000062
 20
196.54960000000011
 30
0.0
 11
80.030153000000041
 21
206.52061
 31
0.0
  0
LINE
  8
DETAIL
  6
CONTINUOUS
 62
     5
 10
80.0
 20
196.54960000000011
 30
0.0
 11
80.0
 21
206.34960000000001
 31
0.0
  0
ARC
  8
DETAIL
  6
CONTINUOUS
 62
     5
 10
80.5
 20
206.34960000000001
 30
0.0
 40
0.5
 50
90.0
 51
180.0
  0
LINE
  8
DETAIL
  6
CONTINUOUS
 62
     5
 10
81.5
 20
206.84960000000001
 30
0.0
 11
80.5
 21
206.84960000000001
 31
0.0
  0
ARC
  8
DETAIL
  6
CONTINUOUS
 62
     5
 10
81.5
 20
206.34960000000001
 30
0.0
 40
0.5
 50
0.0
 51
90.0
  0
LINE
  8
DETAIL
  6
CONTINUOUS
 62
     5
 10
98.0
 20
196.54960000000011
 30
0.0
 11
98.0
 21
206.34960000000001
 31
0.0
  0
LINE
  8
DETAIL
  6
CONTINUOUS
 62
     5
 10
103.5989970000001
 20
196.54960000000011
 30
0.0
 11
99.969845999999961
 21
206.52061
 31
0.0
  0
LINE
  8
DETAIL
  6
CONTINUOUS
 62
     5
 10
100.0
 20
196.54960000000011
 30
0.0
 11
100.0
 21
206.34960000000001
 31
0.0
  0
ARC
  8
DETAIL
  6
CONTINUOUS
 62
     5
 10
99.5
 20
206.34960000000001
 30
0.0
 40
0.5
 50
0.0
 51
90.0
  0
LINE
  8
DETAIL
  6
CONTINUOUS
 62
     5
 10
98.5
 20
206.84960000000001
 30
0.0
 11
99.5
 21
206.84960000000001
 31
0.0
  0
ARC
  8
DETAIL
  6
CONTINUOUS
 62
     5
 10
98.5
 20
206.34960000000001
 30
0.0
 40
0.5
 50
90.0
 51
180.0
  0
LINE
  8
DETAIL
  6
CONTINUOUS
 62
     5
 10
65.0
 20
81.249599999999987
 30
0.0
 11
65.0
 21
160.0843159999998
 31
0.0
  0
ARC
  8
DETAIL
  6
CONTINUOUS
 62
     5
 10
48.0
 20
160.0843159999998
 30
0.0
 40
17.0
 50
0.0
 51
86.358855000000418
  0
LINE
  8
DETAIL
  6
CONTINUOUS
 62
     5
 10
49.079622000000093
 20
177.05000000000001
 30
0.0
 11
0.0
 21
177.05000000000001
 31
0.0
  0
LINE
  8
DETAIL
  6
CONTINUOUS
 62
     5
 10
0.0
 20
196.54960000000011
 30
0.0
 11
119.0
 21
196.54960000000011
 31
0.0
  0
LINE
  8
DETAIL
  6
CONTINUOUS
 62
     5
 10
0.0
 20
66.249599999999987
 30
0.0
 11
50.0
 21
66.249599999999987
 31
0.0
  0
ARC
  8
DETAIL
  6
CONTINUOUS
 62
     5
 10
50.0
 20
81.249599999999987
 30
0.0
 40
15.0
 50
270.0
 51
0.0
  0
ARC
  8
DETAIL
  6
CONTINUOUS
 62
     5
 10
0.0
 20
122.84999999999999
 30
0.0
 40
48.899999999999999
 50
270.0
 51
90.0
  0
ARC
  8
DETAIL
  6
CONTINUOUS
 62
     5
 10
0.0
 20
122.84999999999999
 30
0.0
 40
52.813999999999993
 50
270.0
 51
90.0
  0
ARC
  8
DETAIL
  6
CONTINUOUS
 62
     5
 10
0.0
 20
122.84999999999999
 30
0.0
 40
46.899999999999999
 50
270.0
 51
90.0
  0
LINE
  8
DETAIL
  6
CONTINUOUS
 62
     5
 10
124.166858
 20
189.54960000000011
 30
0.0
 11
0.0
 21
189.54960000000011
 31
0.0
  0
LINE
  8
DETAIL
  6
CONTINUOUS
 62
     5
 10
124.1320760000001
 20
191.63305800000001
 30
0.0
 11
127.09415
 21
14.200000000000051
 31
0.0
  0
ARC
  8
DETAIL
  6
CONTINUOUS
 62
     5
 10
119.132773
 20
191.54960000000011
 30
0.0
 40
5.0
 50
0.9564089999985077
 51
90.0
  0
LINE
  8
DETAIL
  6
CONTINUOUS
 62
     5
 10
60.000001000000111
 20
207.5
 30
0.0
 11
60.000001000000111
 21
196.54960000000011
 31
0.0
  0
LINE
  8
BASIS
  6
DASHDOT
 62
     6
 10
57.813999999999957
 20
122.84999999999999
 30
0.0
 11
-57.813999999999957
 21
122.84999999999999
 31
0.0
  0
LINE
  8
OUTLINE
  6
CONTINUOUS
 62
     3
 10
154.8000000000001
 20
0.0
 30
0.0
 11
194.9335560000001
 21
0.0
 31
0.0
  0
LINE
  8
OUTLINE
  6
CONTINUOUS
 62
     3
 10
146.9335560000001
 20
-20.0
 30
0.0
 11
-146.93355700000009
 21
-20.0
 31
0.0
  0
LINE
  8
OUTLINE
  6
CONTINUOUS
 62
     3
 10
-194.93355700000009
 20
0.0
 30
0.0
 11
-154.80000000000001
 21
0.0
 31
0.0
  0
ARC
  8
OUTLINE
  6
CONTINUOUS
 62
     3
 10
-146.93355700000009
 20
97.700000000000045
 30
0.0
 40
117.7
 50
247.91342499999871
 51
270.0
  0
LINE
  8
OUTLINE
  6
CONTINUOUS
 62
     3
 10
-194.93355700000009
 20
0.0
 30
0.0
 11
-194.93355700000009
 21
-5.8030919999999924
 31
0.0
  0
ARC
  8
OUTLINE
  6
CONTINUOUS
 62
     3
 10
-188.93355700000009
 20
-5.8030919999999924
 30
0.0
 40
6.0
 50
180.0
 51
247.91342499999871
  0
ARC
  8
OUTLINE
  6
CONTINUOUS
 62
     3
 10
146.9335560000001
 20
97.700000000000045
 30
0.0
 40
117.7
 50
270.0
 51
292.08657500000118
  0
LINE
  8
OUTLINE
  6
CONTINUOUS
 62
     3
 10
194.9335560000001
 20
0.0
 30
0.0
 11
194.9335560000001
 21
-5.8030919999999924
 31
0.0
  0
ARC
  8
OUTLINE
  6
CONTINUOUS
 62
     3
 10
188.9335560000001
 20
-5.8030919999999924
 30
0.0
 40
6.0
 50
292.08657500000118
 51
0.0
  0
LINE
  8
OUTLINE
  6
CONTINUOUS
 62
     3
 10
-153.1999999999999
 20
15.0
 30
0.0
 11
-127.08079599999991
 21
15.0
 31
0.0
  0
LINE
  8
OUTLINE
  6
CONTINUOUS
 62
     3
 10
-154.80000000000001
 20
0.0
 30
0.0
 11
-154.80000000000001
 21
13.399999999999981
 31
0.0
  0
LINE
  8
OUTLINE
  6
CONTINUOUS
 62
     3
 10
-154.80000000000001
 20
0.0
 30
0.0
 11
-154.80000000000001
 21
12.599999999999911
 31
0.0
  0
ARC
  8
OUTLINE
  6
CONTINUOUS
 62
     3
 10
-153.1999999999999
 20
13.399999999999981
 30
0.0
 40
1.6000000000000001
 50
90.0
 51
180.0
  0
ARC
  8
OUTLINE
  6
CONTINUOUS
 62
     3
 10
-153.1999999999999
 20
13.399999999999981
 30
0.0
 40
1.6000000000000001
 50
90.0
 51
180.0
  0
LINE
  8
OUTLINE
  6
CONTINUOUS
 62
     3
 10
154.8000000000001
 20
0.0
 30
0.0
 11
154.8000000000001
 21
13.399999999999981
 31
0.0
  0
LINE
  8
OUTLINE
  6
CONTINUOUS
 62
     3
 10
153.19999999999999
 20
15.0
 30
0.0
 11
127.08079500000009
 21
15.0
 31
0.0
  0
ARC
  8
OUTLINE
  6
CONTINUOUS
 62
     3
 10
153.19999999999999
 20
13.399999999999981
 30
0.0
 40
1.6000000000000001
 50
0.0
 51
90.0
  0
ARC
  8
OUTLINE
  6
CONTINUOUS
 62
     3
 10
153.19999999999999
 20
13.399999999999981
 30
0.0
 40
1.6000000000000001
 50
0.0
 51
90.0
  0
LINE
  8
OUTLINE
  6
CONTINUOUS
 62
     3
 10
154.8000000000001
 20
0.0
 30
0.0
 11
154.8000000000001
 21
12.599999999999911
 31
0.0
  0
ARC
  8
OUTLINE
  6
CONTINUOUS
 62
     3
 10
54.500001000000111
 20
207.5
 30
0.0
 40
5.5
 50
0.0
 51
90.0
  0
ARC
  8
OUTLINE
  6
CONTINUOUS
 62
     3
 10
-16.000001999999991
 20
207.5
 30
0.0
 40
5.5
 50
90.0
 51
180.0
  0
LINE
  8
OUTLINE
  6
CONTINUOUS
 62
     3
 10
-16.000001999999991
 20
213.0
 30
0.0
 11
54.500001000000111
 21
213.0
 31
0.0
  0
LINE
  8
OUTLINE
  6
CONTINUOUS
 62
     3
 10
-21.500001999999991
 20
207.5
 30
0.0
 11
-21.500001999999991
 21
196.54960000000011
 31
0.0
  0
LINE
  8
OUTLINE
  6
CONTINUOUS
 62
     3
 10
-124.132077
 20
191.633059
 30
0.0
 11
-127.08079599999991
 21
15.0
 31
0.0
  0
ARC
  8
OUTLINE
  6
CONTINUOUS
 62
     3
 10
-119.132774
 20
191.54960000000011
 30
0.0
 40
5.0
 50
90.0
 51
179.0435910000015
  0
LINE
  8
OUTLINE
  6
CONTINUOUS
 62
     3
 10
124.1320760000001
 20
191.633059
 30
0.0
 11
127.08079500000009
 21
15.0
 31
0.0
  0
ARC
  8
OUTLINE
  6
CONTINUOUS
 62
     3
 10
119.132773
 20
191.54960000000011
 30
0.0
 40
5.0
 50
0.9564089999985077
 51
90.0
  0
LINE
  8
OUTLINE
  6
CONTINUOUS
 62
     3
 10
60.000001000000111
 20
207.5
 30
0.0
 11
60.000001000000111
 21
196.54960000000011
 31
0.0
  0
LINE
  8
OUTLINE
  6
CONTINUOUS
 62
     3
 10
60.000001000000111
 20
196.54960000000011
 30
0.0
 11
119.0
 21
196.54960000000011
 31
0.0
  0
LINE
  8
OUTLINE
  6
CONTINUOUS
 62
     3
 10
-21.500001999999991
 20
196.54960000000011
 30
0.0
 11
-119.0
 21
196.54960000000011
 31
0.0
  0
LINE
  8
SIZE
  6
CONTINUOUS
 62
    30
 10
-194.93355700000009
 20
-25.803091999999989
 30
0.0
 11
-194.93355700000009
 21
-561.53062987258727
 31
0.0
  0
LINE
  8
SIZE
  6
CONTINUOUS
 62
    30
 10
194.9335560000001
 20
-25.803091999999989
 30
0.0
 11
194.93355600000001
 21
-561.53062987258727
 31
0.0
  0
LINE
  8
SIZE
  6
CONTINUOUS
 62
    30
 10
-182.93355700000009
 20
-541.53062987258727
 30
0.0
 11
182.93355600000001
 21
-541.53062987258727
 31
0.0
  0
CIRCLE
  8
SIZE
  6
CONTINUOUS
 62
    30
 10
-194.93355700000009
 20
-541.53062987258727
 30
0.0
 40
6.0
  0
LINE
  8
SIZE
  6
CONTINUOUS
 62
    30
 10
-194.93355700000009
 20
-541.53062987258727
 30
0.0
 11
-182.93355700000009
 21
-541.53062987258727
 31
0.0
  0
CIRCLE
  8
SIZE
  6
CONTINUOUS
 62
    30
 10
194.93355600000001
 20
-541.53062987258727
 30
0.0
 40
6.0
  0
LINE
  8
SIZE
  6
CONTINUOUS
 62
    30
 10
194.93355600000001
 20
-541.53062987258727
 30
0.0
 11
182.93355600000001
 21
-541.53062987258727
 31
0.0
  0
TEXT
  8
SIZE
  6
CONTINUOUS
 62
    30
 10
-110.7531362460053
 20
-516.53062987258727
 30
0.0
 40
64.0
  1
□390
 41
0.9
 72
     1
 11
-0.2159933888624437
 21
-516.53062987258727
 31
0.0
  0
POINT
  8
DEFPOINTS
  6
CONTINUOUS
 62
    30
 10
-194.93355700000009
 20
-5.8030919999999924
 30
0.0
  0
POINT
  8
DEFPOINTS
  6
CONTINUOUS
 62
    30
 10
194.9335560000001
 20
-5.8030919999999924
 30
0.0
  0
POINT
  8
DEFPOINTS
  6
CONTINUOUS
 62
    30
 10
194.93355600000001
 20
-541.53062987258727
 30
0.0
  0
LINE
  8
SIZE
  6
CONTINUOUS
 62
    30
 10
-154.80000000000001
 20
-20.0
 30
0.0
 11
-154.80000000000001
 21
-346.06029542124543
 31
0.0
  0
LINE
  8
SIZE
  6
CONTINUOUS
 62
    30
 10
154.8000000000001
 20
-20.0
 30
0.0
 11
154.80000000000001
 21
-346.06029542124543
 31
0.0
  0
LINE
  8
SIZE
  6
CONTINUOUS
 62
    30
 10
-142.80000000000001
 20
-326.06029542124543
 30
0.0
 11
142.80000000000001
 21
-326.06029542124543
 31
0.0
  0
CIRCLE
  8
SIZE
  6
CONTINUOUS
 62
    30
 10
-154.80000000000001
 20
-326.06029542124543
 30
0.0
 40
6.0
  0
LINE
  8
SIZE
  6
CONTINUOUS
 62
    30
 10
-154.80000000000001
 20
-326.06029542124543
 30
0.0
 11
-142.80000000000001
 21
-326.06029542124543
 31
0.0
  0
CIRCLE
  8
SIZE
  6
CONTINUOUS
 62
    30
 10
154.80000000000001
 20
-326.06029542124543
 30
0.0
 40
6.0
  0
LINE
  8
SIZE
  6
CONTINUOUS
 62
    30
 10
154.80000000000001
 20
-326.06029542124543
 30
0.0
 11
142.80000000000001
 21
-326.06029542124543
 31
0.0
  0
TEXT
  8
SIZE
  6
CONTINUOUS
 62
    30
 10
-105.3181459156455
 20
-301.06029542124543
 30
0.0
 40
64.0
  1
□310
 41
0.9
 72
     1
 11
-0.266717344216886
 21
-301.06029542124543
 31
0.0
  0
POINT
  8
DEFPOINTS
  6
CONTINUOUS
 62
    30
 10
-154.80000000000001
 20
0.0
 30
0.0
  0
POINT
  8
DEFPOINTS
  6
CONTINUOUS
 62
    30
 10
154.8000000000001
 20
0.0
 30
0.0
  0
POINT
  8
DEFPOINTS
  6
CONTINUOUS
 62
    30
 10
154.80000000000001
 20
-326.06029542124543
 30
0.0
  0
LINE
  8
SIZE
  6
CONTINUOUS
 62
    30
 10
-127.08079577055901
 20
35.0
 30
0.0
 11
-127.08079577055901
 21
419.71175616281289
 31
0.0
  0
LINE
  8
SIZE
  6
CONTINUOUS
 62
    30
 10
127.08079500000009
 20
35.0
 30
0.0
 11
127.08079500000009
 21
419.71175616281289
 31
0.0
  0
LINE
  8
SIZE
  6
CONTINUOUS
 62
    30
 10
-139.08079577055901
 20
399.71175616281289
 30
0.0
 11
-151.08079577055901
 21
399.71175616281289
 31
0.0
  0
LINE
  8
SIZE
  6
CONTINUOUS
 62
    30
 10
139.08079500000011
 20
399.71175616281289
 30
0.0
 11
151.08079500000011
 21
399.71175616281289
 31
0.0
  0
LINE
  8
SIZE
  6
CONTINUOUS
 62
    30
 10
-127.08079577055901
 20
399.71175616281289
 30
0.0
 11
127.08079500000009
 21
399.71175616281289
 31
0.0
  0
CIRCLE
  8
SIZE
  6
CONTINUOUS
 62
    30
 10
-127.08079577055901
 20
399.71175616281289
 30
0.0
 40
6.0
  0
LINE
  8
SIZE
  6
CONTINUOUS
 62
    30
 10
-127.08079577055901
 20
399.71175616281289
 30
0.0
 11
-139.08079577055901
 21
399.71175616281289
 31
0.0
  0
CIRCLE
  8
SIZE
  6
CONTINUOUS
 62
    30
 10
127.08079500000009
 20
399.71175616281289
 30
0.0
 40
6.0
  0
LINE
  8
SIZE
  6
CONTINUOUS
 62
    30
 10
127.08079500000009
 20
399.71175616281289
 30
0.0
 11
139.08079500000011
 21
399.71175616281289
 31
0.0
  0
TEXT
  8
SIZE
  6
CONTINUOUS
 62
    30
 10
-111.9085718138509
 20
424.71175616281289
 30
0.0
 40
64.0
  1
□254
 41
0.9
 72
     1
 11
-0.0000003852794634
 21
424.71175616281289
 31
0.0
  0
POINT
  8
DEFPOINTS
  6
CONTINUOUS
 62
    30
 10
-127.08079577055901
 20
15.0
 30
0.0
  0
POINT
  8
DEFPOINTS
  6
CONTINUOUS
 62
    30
 10
127.08079500000009
 20
15.0
 30
0.0
  0
POINT
  8
DEFPOINTS
  6
CONTINUOUS
 62
    30
 10
127.08079500000009
 20
399.71175616281289
 30
0.0
  0
LINE
  8
SIZE
  6
CONTINUOUS
 62
    30
 10
166.9335560000001
 20
-20.0
 30
0.0
 11
382.21590726194711
 21
-20.00000000000011
 31
0.0
  0
LINE
  8
SIZE
  6
CONTINUOUS
 62
    30
 10
174.8000000000001
 20
0.0
 30
0.0
 11
382.21590726194711
 21
-0.0000000000001137
 31
0.0
  0
LINE
  8
SIZE
  6
CONTINUOUS
 62
    30
 10
362.21590726194711
 20
11.99999999999989
 30
0.0
 11
362.21590726194711
 21
24.0
 31
0.0
  0
LINE
  8
SIZE
  6
CONTINUOUS
 62
    30
 10
362.21590726194711
 20
-32.000000000000107
 30
0.0
 11
362.215907261947
 21
-187.2571428571429
 31
0.0
  0
LINE
  8
SIZE
  6
CONTINUOUS
 62
    30
 10
362.21590726194711
 20
-0.0000000000001137
 30
0.0
 11
362.21590726194711
 21
-20.00000000000011
 31
0.0
  0
CIRCLE
  8
SIZE
  6
CONTINUOUS
 62
    30
 10
362.21590726194711
 20
-0.0000000000001137
 30
0.0
 40
6.0
  0
LINE
  8
SIZE
  6
CONTINUOUS
 62
    30
 10
362.21590726194711
 20
-0.0000000000001137
 30
0.0
 11
362.21590726194711
 21
11.99999999999989
 31
0.0
  0
CIRCLE
  8
SIZE
  6
CONTINUOUS
 62
    30
 10
362.21590726194711
 20
-20.00000000000011
 30
0.0
 40
6.0
  0
LINE
  8
SIZE
  6
CONTINUOUS
 62
    30
 10
362.21590726194711
 20
-20.00000000000011
 30
0.0
 11
362.21590726194711
 21
-32.000000000000107
 31
0.0
  0
TEXT
  8
SIZE
  6
CONTINUOUS
 62
    30
 10
337.21590726194711
 20
-162.25714285714281
 30
0.0
 40
64.0
  1
20
 50
90.0
 41
0.9
 72
     1
 11
337.21590726194711
 21
-115.62857142857141
 31
0.0
  0
POINT
  8
DEFPOINTS
  6
CONTINUOUS
 62
    30
 10
146.9335560000001
 20
-20.0
 30
0.0
  0
POINT
  8
DEFPOINTS
  6
CONTINUOUS
 62
    30
 10
154.8000000000001
 20
0.0
 30
0.0
  0
POINT
  8
DEFPOINTS
  6
CONTINUOUS
 62
    30
 10
362.21590726194711
 20
-0.0000000000001137
 30
0.0
  0
LINE
  8
SIZE
  6
CONTINUOUS
 62
    30
 10
214.9335560000001
 20
0.0
 30
0.0
 11
382.215907261947
 21
-0.0000000000001137
 31
0.0
  0
LINE
  8
SIZE
  6
CONTINUOUS
 62
    30
 10
74.500001000000111
 20
212.99999999999989
 30
0.0
 11
382.21590726194711
 21
212.99999999999989
 31
0.0
  0
LINE
  8
SIZE
  6
CONTINUOUS
 62
    30
 10
362.215907261947
 20
11.99999999999989
 30
0.0
 11
362.21590726194711
 21
200.99999999999989
 31
0.0
  0
CIRCLE
  8
SIZE
  6
CONTINUOUS
 62
    30
 10
362.215907261947
 20
-0.0000000000001137
 30
0.0
 40
6.0
  0
LINE
  8
SIZE
  6
CONTINUOUS
 62
    30
 10
362.215907261947
 20
-0.0000000000001137
 30
0.0
 11
362.215907261947
 21
11.99999999999989
 31
0.0
  0
CIRCLE
  8
SIZE
  6
CONTINUOUS
 62
    30
 10
362.21590726194711
 20
212.99999999999989
 30
0.0
 40
6.0
  0
LINE
  8
SIZE
  6
CONTINUOUS
 62
    30
 10
362.21590726194711
 20
212.99999999999989
 30
0.0
 11
362.21590726194711
 21
200.99999999999989
 31
0.0
  0
TEXT
  8
SIZE
  6
CONTINUOUS
 62
    30
 10
337.215907261947
 20
37.928571428571438
 30
0.0
 40
64.0
  1
213
 50
90.0
 41
0.9
 72
     1
 11
337.215907261947
 21
106.5
 31
0.0
  0
POINT
  8
DEFPOINTS
  6
CONTINUOUS
 62
    30
 10
194.9335560000001
 20
0.0
 30
0.0
  0
POINT
  8
DEFPOINTS
  6
CONTINUOUS
 62
    30
 10
54.500001000000111
 20
213.0
 30
0.0
  0
POINT
  8
DEFPOINTS
  6
CONTINUOUS
 62
    30
 10
362.21590726194711
 20
212.99999999999989
 30
0.0
  0
LINE
  8
SIZE
  6
CONTINUOUS
 62
    30
 10
-214.93355700000009
 20
0.0
 30
0.0
 11
-290.51695601112692
 21
0.0
 31
0.0
  0
LINE
  8
SIZE
  6
CONTINUOUS
 62
    30
 10
-173.1999999999999
 20
15.0
 30
0.0
 11
-290.51695601112692
 21
15.0
 31
0.0
  0
LINE
  8
SIZE
  6
CONTINUOUS
 62
    30
 10
-270.51695601112709
 20
27.0
 30
0.0
 11
-270.51695601112709
 21
39.0
 31
0.0
  0
LINE
  8
SIZE
  6
CONTINUOUS
 62
    30
 10
-270.51695601112709
 20
-12.0
 30
0.0
 11
-270.51695601112709
 21
-163.9774060023631
 31
0.0
  0
LINE
  8
SIZE
  6
CONTINUOUS
 62
    30
 10
-270.51695601112709
 20
15.0
 30
0.0
 11
-270.51695601112709
 21
0.0
 31
0.0
  0
CIRCLE
  8
SIZE
  6
CONTINUOUS
 62
    30
 10
-270.51695601112709
 20
15.0
 30
0.0
 40
6.0
  0
LINE
  8
SIZE
  6
CONTINUOUS
 62
    30
 10
-270.51695601112709
 20
15.0
 30
0.0
 11
-270.51695601112709
 21
27.0
 31
0.0
  0
CIRCLE
  8
SIZE
  6
CONTINUOUS
 62
    30
 10
-270.51695601112709
 20
0.0
 30
0.0
 40
6.0
  0
LINE
  8
SIZE
  6
CONTINUOUS
 62
    30
 10
-270.51695601112709
 20
0.0
 30
0.0
 11
-270.51695601112709
 21
-12.0
 31
0.0
  0
TEXT
  8
SIZE
  6
CONTINUOUS
 62
    30
 10
-295.51695601112692
 20
-138.9774060023631
 30
0.0
 40
64.0
  1
15
 50
90.0
 41
0.9
 72
     1
 11
-295.51695601112692
 21
-97.834548859505958
 31
0.0
  0
POINT
  8
DEFPOINTS
  6
CONTINUOUS
 62
    30
 10
-194.93355700000009
 20
0.0
 30
0.0
  0
POINT
  8
DEFPOINTS
  6
CONTINUOUS
 62
    30
 10
-153.1999999999999
 20
15.0
 30
0.0
  0
POINT
  8
DEFPOINTS
  6
CONTINUOUS
 62
    30
 10
-270.51695601112709
 20
15.0
 30
0.0
  0
LINE
  8
SIZE
  6
CONTINUOUS
 62
    30
 10
-214.93355700000009
 20
0.0
 30
0.0
 11
-400.41850094920852
 21
0.0000000000001137
 31
0.0
  0
LINE
  8
SIZE
  6
CONTINUOUS
 62
    30
 10
-70.0
 20
66.249599999999987
 30
0.0
 11
-400.41850094920852
 21
66.2496000000001
 31
0.0
  0
LINE
  8
SIZE
  6
CONTINUOUS
 62
    30
 10
-380.41850094920852
 20
78.2496000000001
 30
0.0
 11
-380.41850094920852
 21
90.2496000000001
 31
0.0
  0
LINE
  8
SIZE
  6
CONTINUOUS
 62
    30
 10
-380.41850094920852
 20
-12.0
 30
0.0
 11
-380.41850094920852
 21
-167.25714285714281
 31
0.0
  0
LINE
  8
SIZE
  6
CONTINUOUS
 62
    30
 10
-380.41850094920852
 20
66.2496000000001
 30
0.0
 11
-380.41850094920852
 21
0.0
 31
0.0
  0
CIRCLE
  8
SIZE
  6
CONTINUOUS
 62
    30
 10
-380.41850094920852
 20
66.2496000000001
 30
0.0
 40
6.0
  0
LINE
  8
SIZE
  6
CONTINUOUS
 62
    30
 10
-380.41850094920852
 20
66.2496000000001
 30
0.0
 11
-380.41850094920852
 21
78.2496000000001
 31
0.0
  0
CIRCLE
  8
SIZE
  6
CONTINUOUS
 62
    30
 10
-380.41850094920852
 20
0.0
 30
0.0
 40
6.0
  0
LINE
  8
SIZE
  6
CONTINUOUS
 62
    30
 10
-380.41850094920852
 20
0.0
 30
0.0
 11
-380.41850094920852
 21
-12.0
 31
0.0
  0
TEXT
  8
SIZE
  6
CONTINUOUS
 62
    30
 10
-405.41850094920852
 20
-142.25714285714281
 30
0.0
 40
64.0
  1
65
 50
90.0
 41
0.9
 72
     1
 11
-405.41850094920852
 21
-95.628571428571377
 31
0.0
  0
POINT
  8
DEFPOINTS
  6
CONTINUOUS
 62
    30
 10
-194.93355700000009
 20
0.0
 30
0.0
  0
POINT
  8
DEFPOINTS
  6
CONTINUOUS
 62
    30
 10
-50.0
 20
66.249599999999987
 30
0.0
  0
POINT
  8
DEFPOINTS
  6
CONTINUOUS
 62
    30
 10
-380.41850094920852
 20
66.2496000000001
 30
0.0
  0
LINE
  8
SIZE
  6
CONTINUOUS
 62
    30
 10
-77.813999999999965
 20
122.84999999999999
 30
0.0
 11
-507.87779680505349
 21
122.85000000000009
 31
0.0
  0
LINE
  8
SIZE
  6
CONTINUOUS
 62
    30
 10
-214.93355700000009
 20
0.0
 30
0.0
 11
-507.87779680505349
 21
0.0000000000001137
 31
0.0
  0
LINE
  8
SIZE
  6
CONTINUOUS
 62
    30
 10
-487.87779680505349
 20
110.85000000000009
 30
0.0
 11
-487.87779680505349
 21
12.00000000000011
 31
0.0
  0
LINE
  8
SIZE
  6
CONTINUOUS
 62
    30
 10
-487.87779680505349
 20
0.0000000000001137
 30
0.0
 11
-487.87779680505378
 21
-208.49926526150111
 31
0.0
  0
CIRCLE
  8
SIZE
  6
CONTINUOUS
 62
    30
 10
-487.87779680505349
 20
122.85000000000009
 30
0.0
 40
6.0
  0
LINE
  8
SIZE
  6
CONTINUOUS
 62
    30
 10
-487.87779680505349
 20
122.85000000000009
 30
0.0
 11
-487.87779680505349
 21
110.85000000000009
 31
0.0
  0
CIRCLE
  8
SIZE
  6
CONTINUOUS
 62
    30
 10
-487.87779680505349
 20
0.0000000000001137
 30
0.0
 40
6.0
  0
LINE
  8
SIZE
  6
CONTINUOUS
 62
    30
 10
-487.87779680505349
 20
0.0000000000001137
 30
0.0
 11
-487.87779680505349
 21
12.00000000000011
 31
0.0
  0
TEXT
  8
SIZE
  6
CONTINUOUS
 62
    30
 10
-512.87779680505366
 20
-183.49926526150111
 30
0.0
 40
64.0
  1
122
 50
90.0
 41
0.9
 72
     1
 11
-512.87779680505366
 21
-114.9278366900726
 31
0.0
  0
POINT
  8
DEFPOINTS
  6
CONTINUOUS
 62
    30
 10
-57.813999999999957
 20
122.84999999999999
 30
0.0
  0
POINT
  8
DEFPOINTS
  6
CONTINUOUS
 62
    30
 10
-194.93355700000009
 20
0.0
 30
0.0
  0
POINT
  8
DEFPOINTS
  6
CONTINUOUS
 62
    30
 10
-487.87779680505349
 20
0.0000000000001137
 30
0.0
  0
LINE
  8
SIZE
  6
CONTINUOUS
 62
    30
 10
-170.0
 20
-29.767622999999961
 30
0.0
 11
-170.0
 21
-459.32946275754779
 31
0.0
  0
LINE
  8
SIZE
  6
CONTINUOUS
 62
    30
 10
170.00000000000011
 20
-29.767622999999961
 30
0.0
 11
170.00000000000011
 21
-459.32946275754779
 31
0.0
  0
LINE
  8
SIZE
  6
CONTINUOUS
 62
    30
 10
-158.0
 20
-439.32946275754779
 30
0.0
 11
158.00000000000011
 21
-439.32946275754779
 31
0.0
  0
CIRCLE
  8
SIZE
  6
CONTINUOUS
 62
    30
 10
-170.0
 20
-439.32946275754779
 30
0.0
 40
6.0
  0
LINE
  8
SIZE
  6
CONTINUOUS
 62
    30
 10
-170.0
 20
-439.32946275754779
 30
0.0
 11
-158.0
 21
-439.32946275754779
 31
0.0
  0
CIRCLE
  8
SIZE
  6
CONTINUOUS
 62
    30
 10
170.00000000000011
 20
-439.32946275754779
 30
0.0
 40
6.0
  0
LINE
  8
SIZE
  6
CONTINUOUS
 62
    30
 10
170.00000000000011
 20
-439.32946275754779
 30
0.0
 11
158.00000000000011
 21
-439.32946275754779
 31
0.0
  0
TEXT
  8
SIZE
  6
CONTINUOUS
 62
    30
 10
-74.05714285714285
 20
-414.32946275754779
 30
0.0
 40
64.0
  1
340
 41
0.9
 72
     1
 11
0.0
 21
-414.32946275754779
 31
0.0
  0
POINT
  8
DEFPOINTS
  6
CONTINUOUS
 62
    30
 10
-170.0
 20
-9.7676229999999578
 30
0.0
  0
POINT
  8
DEFPOINTS
  6
CONTINUOUS
 62
    30
 10
170.00000000000011
 20
-9.7676229999999578
 30
0.0
  0
POINT
  8
DEFPOINTS
  6
CONTINUOUS
 62
    30
 10
170.00000000000011
 20
-439.32946275754779
 30
0.0
  0
LINE
  8
SIZE
  6
CONTINUOUS
 62
    30
 10
-95.0
 20
-31.83829900000001
 30
0.0
 11
-95.0
 21
-231.23949015577
 31
0.0
  0
LINE
  8
SIZE
  6
CONTINUOUS
 62
    30
 10
95.0
 20
-31.83829900000001
 30
0.0
 11
95.0
 21
-231.23949015577
 31
0.0
  0
LINE
  8
SIZE
  6
CONTINUOUS
 62
    30
 10
-83.0
 20
-211.23949015577
 30
0.0
 11
83.0
 21
-211.23949015577
 31
0.0
  0
CIRCLE
  8
SIZE
  6
CONTINUOUS
 62
    30
 10
-95.0
 20
-211.23949015577
 30
0.0
 40
6.0
  0
LINE
  8
SIZE
  6
CONTINUOUS
 62
    30
 10
-95.0
 20
-211.23949015577
 30
0.0
 11
-83.0
 21
-211.23949015577
 31
0.0
  0
CIRCLE
  8
SIZE
  6
CONTINUOUS
 62
    30
 10
95.0
 20
-211.23949015577
 30
0.0
 40
6.0
  0
LINE
  8
SIZE
  6
CONTINUOUS
 62
    30
 10
95.0
 20
-211.23949015577
 30
0.0
 11
83.0
 21
-211.23949015577
 31
0.0
  0
TEXT
  8
SIZE
  6
CONTINUOUS
 62
    30
 10
-68.571428571428569
 20
-186.23949015577
 30
0.0
 40
64.0
  1
190
 41
0.9
 72
     1
 11
0.0
 21
-186.23949015577
 31
0.0
  0
POINT
  8
DEFPOINTS
  6
CONTINUOUS
 62
    30
 10
-95.0
 20
-11.83829900000001
 30
0.0
  0
POINT
  8
DEFPOINTS
  6
CONTINUOUS
 62
    30
 10
95.0
 20
-11.83829900000001
 30
0.0
  0
POINT
  8
DEFPOINTS
  6
CONTINUOUS
 62
    30
 10
95.0
 20
-211.23949015577
 30
0.0
  0
CIRCLE
  8
FIX
  6
CONTINUOUS
 62
    11
 10
170.00000000000011
 20
0.0
 30
0.0
 40
5.0
  0
CIRCLE
  8
FIX
  6
CONTINUOUS
 62
    11
 10
95.0
 20
0.0
 30
0.0
 40
5.0
  0
CIRCLE
  8
FIX
  6
CONTINUOUS
 62
    11
 10
-95.0
 20
0.0
 30
0.0
 40
5.0
  0
CIRCLE
  8
FIX
  6
CONTINUOUS
 62
    11
 10
-170.0
 20
0.0
 30
0.0
 40
5.0
  0
TEXT
  8
NOTE
  6
CONTINUOUS
 62
     4
 10
449.97433889379499
 20
-399.32688685288412
 30
0.0
 40
64.0
  1
8-φ5
 41
0.9
  0
LINE
  8
NOTE
  6
CONTINUOUS
 62
     4
 10
737.45772846822456
 20
-433.19683120120197
 30
0.0
 11
404.59290512840278
 21
-433.19683120111767
 31
0.0
  0
LINE
  8
NOTE
  6
CONTINUOUS
 62
     4
 10
170.00000000000011
 20
0.0
 30
0.0
 11
404.59290512840278
 21
-433.19683120111767
 31
0.0
  0
LINE
  8
NOTE
  6
CONTINUOUS
 62
     4
 10
170.00000000000011
 20
0.0
 30
0.0
 11
198.07337404411271
 21
-26.643949187450058
 31
0.0
  0
LINE
  8
NOTE
  6
CONTINUOUS
 62
     4
 10
177.30256239457859
 20
-39.258049703845472
 30
0.0
 11
170.00000000000011
 21
0.0
 31
0.0
  0
LINE
  8
SIZE
  6
CONTINUOUS
 62
    30
 10
-460.26634045191622
 20
415.01370967659523
 30
0.0
 11
-51.41604234852025
 21
155.48741088406169
 31
0.0
  0
LINE
  8
SIZE
  6
CONTINUOUS
 62
    30
 10
51.416042348521607
 20
90.212589115937476
 30
0.0
 11
61.547282220151367
 21
83.78157219296952
 31
0.0
  0
TEXT
  8
SIZE
  6
CONTINUOUS
 62
    30
 10
-437.80334104392722
 20
430.36623045760649
 30
0.0
 40
64.0
  1
φ98
 50
327.59380542926158
 41
0.9
 72
     1
 11
-364.39527157406133
 21
383.76891926718758
 31
0.0
  0
LINE
  8
SIZE
  6
CONTINUOUS
 62
    30
 10
41.284802476891848
 20
96.643606038905318
 30
0.0
 11
-41.284802476890491
 21
149.05639396109379
 31
0.0
  0
CIRCLE
  8
SIZE
  6
CONTINUOUS
 62
    30
 10
41.284802476891848
 20
96.643606038905318
 30
0.0
 40
6.0
  0
LINE
  8
SIZE
  6
CONTINUOUS
 62
    30
 10
41.284802476891848
 20
96.643606038905318
 30
0.0
 11
51.416042348521607
 21
90.212589115937476
 31
0.0
  0
CIRCLE
  8
SIZE
  6
CONTINUOUS
 62
    30
 10
-41.284802476890491
 20
149.05639396109379
 30
0.0
 40
6.0
  0
LINE
  8
SIZE
  6
CONTINUOUS
 62
    30
 10
-41.284802476890491
 20
149.05639396109379
 30
0.0
 11
-51.41604234852025
 21
155.4874108840618
 31
0.0
  0
POINT
  8
DEFPOINTS
  6
CONTINUOUS
 62
    30
 10
-41.284802476890491
 20
149.05639396109379
 30
0.0
  0
POINT
  8
DEFPOINTS
  6
CONTINUOUS
 62
    30
 10
41.284802476891848
 20
96.643606038905318
 30
0.0
  0
TEXT
  8
NOTE
  6
CONTINUOUS
 62
     4
 10
353.70928100289581
 20
482.80168949214323
 30
0.0
 40
63.999999999999993
  1
EL
 50
359.85073780173718
 41
0.9
  0
LINE
  8
NOTE
  6
CONTINUOUS
 62
     4
 10
447.28753893615789
 20
461.11146580004242
 30
0.0
 11
325.28356798458663
 21
461.36123647897853
 31
0.0
  0
LINE
  8
NOTE
  6
CONTINUOUS
 62
     4
 10
90.0
 20
196.54959999999991
 30
0.0
 11
325.28356798458663
 21
461.36123647897853
 31
0.0
  0
LINE
  8
NOTE
  6
CONTINUOUS
 62
     4
 10
90.0
 20
196.54959999999991
 30
0.0
 11
121.312745347579
 21
219.23302241888339
 31
0.0
  0
LINE
  8
NOTE
  6
CONTINUOUS
 62
     4
 10
108.99527469402349
 20
231.74889633376119
 30
0.0
 11
90.0
 21
196.54959999999991
 31
0.0
  0
LINE
  8
SIZE
  6
CONTINUOUS
 62
    30
 10
-559.95014089491917
 20
292.94555137564453
 30
0.0
 11
-62.015849248237259
 21
141.68849882607199
 31
0.0
  0
LINE
  8
SIZE
  6
CONTINUOUS
 62
    30
 10
62.015849248237259
 20
104.011501173928
 30
0.0
 11
73.497785110533073
 21
100.52364382963719
 31
0.0
  0
TEXT
  8
SIZE
  6
CONTINUOUS
 62
    30
 10
-539.7857301423345
 20
312.94822467200771
 30
0.0
 40
64.0
  1
φ105
 50
343.10283927159162
 41
0.9
 72
     1
 11
-435.59536357475793
 21
281.2984105992432
 31
0.0
  0
LINE
  8
SIZE
  6
CONTINUOUS
 62
    30
 10
50.533913385941332
 20
107.4993585182187
 30
0.0
 11
-50.533913385941332
 21
138.20064148178119
 31
0.0
  0
CIRCLE
  8
SIZE
  6
CONTINUOUS
 62
    30
 10
50.533913385941332
 20
107.4993585182187
 30
0.0
 40
6.0
  0
LINE
  8
SIZE
  6
CONTINUOUS
 62
    30
 10
50.533913385941332
 20
107.4993585182187
 30
0.0
 11
62.015849248237259
 21
104.011501173928
 31
0.0
  0
CIRCLE
  8
SIZE
  6
CONTINUOUS
 62
    30
 10
-50.533913385941332
 20
138.20064148178119
 30
0.0
 40
6.0
  0
LINE
  8
SIZE
  6
CONTINUOUS
 62
    30
 10
-50.533913385941332
 20
138.20064148178119
 30
0.0
 11
-62.015849248237259
 21
141.68849882607199
 31
0.0
  0
POINT
  8
DEFPOINTS
  6
CONTINUOUS
 62
    30
 10
-50.533913385941332
 20
138.20064148178119
 30
0.0
  0
POINT
  8
DEFPOINTS
  6
CONTINUOUS
 62
    30
 10
50.533913385941332
 20
107.4993585182187
 30
0.0
  0
TEXT
  8
NOTE
  6
CONTINUOUS
 62
     4
 10
-40.378796605562911
 20
93.501510982487162
 30
0.0
 40
64.0
  1
EA
 41
0.9
  0
ENDSEC
  0
EOF
